ISO-10303-21;
HEADER;
FILE_DESCRIPTION (( 'STEP AP203' ),
    '1' );
FILE_NAME ('galet_portail_v2.STEP',
    '2021-03-15T14:44:50',
    ( '' ),
    ( '' ),
    'SwSTEP 2.0',
    'SolidWorks 2015',
    '' );
FILE_SCHEMA (( 'CONFIG_CONTROL_DESIGN' ));
ENDSEC;

DATA;
#1 = AXIS2_PLACEMENT_3D ( 'NONE', #33, #165, #226 ) ;
#2 = DIRECTION ( 'NONE',  ( 0.0000000000000000000, 0.0000000000000000000, 1.000000000000000000 ) ) ;
#3 = ADVANCED_FACE ( 'NONE', ( #333, #318 ), #47, .F. ) ;
#4 = DIRECTION ( 'NONE',  ( -1.000000000000000000, -0.0000000000000000000, -0.0000000000000000000 ) ) ;
#5 = PERSON_AND_ORGANIZATION ( #126, #237 ) ;
#6 = ORIENTED_EDGE ( 'NONE', *, *, #48, .F. ) ;
#7 = ADVANCED_FACE ( 'NONE', ( #184, #18 ), #303, .F. ) ;
#8 = PERSON_AND_ORGANIZATION_ROLE ( 'creator' ) ;
#9 = CC_DESIGN_APPROVAL ( #264, ( #166 ) ) ;
#10 = DIRECTION ( 'NONE',  ( 1.000000000000000000, 0.0000000000000000000, 0.0000000000000000000 ) ) ;
#11 = PERSON_AND_ORGANIZATION ( #126, #237 ) ;
#12 = CIRCLE ( 'NONE', #82, 41.00000000000000000 ) ;
#13 = DIRECTION ( 'NONE',  ( -1.000000000000000000, 0.0000000000000000000, -0.0000000000000000000 ) ) ;
#14 = AXIS2_PLACEMENT_3D ( 'NONE', #127, #159, #342 ) ;
#15 = CARTESIAN_POINT ( 'NONE',  ( 0.0000000000000000000, 0.0000000000000000000, 0.0000000000000000000 ) ) ;
#16 = APPLICATION_CONTEXT ( 'configuration controlled 3d designs of mechanical parts and assemblies' ) ;
#17 = APPROVAL_DATE_TIME ( #358, #88 ) ;
#18 = FACE_OUTER_BOUND ( 'NONE', #376, .T. ) ;
#19 = AXIS2_PLACEMENT_3D ( 'NONE', #245, #405, #370 ) ;
#20 = CALENDAR_DATE ( 2021, 15, 3 ) ;
#21 = FACE_OUTER_BOUND ( 'NONE', #144, .T. ) ;
#22 = EDGE_LOOP ( 'NONE', ( #79 ) ) ;
#23 = AXIS2_PLACEMENT_3D ( 'NONE', #87, #160, #194 ) ;
#24 = CIRCLE ( 'NONE', #162, 30.50000000000000000 ) ;
#25 = DIRECTION ( 'NONE',  ( -1.000000000000000000, -0.0000000000000000000, -0.0000000000000000000 ) ) ;
#26 = CARTESIAN_POINT ( 'NONE',  ( -11.74999999999998200, 0.0000000000000000000, 0.0000000000000000000 ) ) ;
#27 = PLANE ( 'NONE',  #23 ) ;
#28 = FACE_OUTER_BOUND ( 'NONE', #350, .T. ) ;
#29 = ORIENTED_EDGE ( 'NONE', *, *, #209, .T. ) ;
#30 = DIRECTION ( 'NONE',  ( -1.000000000000000000, -0.0000000000000000000, -0.0000000000000000000 ) ) ;
#31 = CARTESIAN_POINT ( 'NONE',  ( 11.75000000000003900, 0.0000000000000000000, 0.0000000000000000000 ) ) ;
#32 = CIRCLE ( 'NONE', #113, 41.00000000000000000 ) ;
#33 = CARTESIAN_POINT ( 'NONE',  ( -23.73291345239095300, 0.0000000000000000000, 0.0000000000000000000 ) ) ;
#34 = EDGE_CURVE ( 'NONE', #70, #70, #12, .T. ) ;
#35 = COORDINATED_UNIVERSAL_TIME_OFFSET ( 1, 0, .AHEAD. ) ;
#36 = TOROIDAL_SURFACE ( 'NONE', #247, 16.00000000000000000, 2.000000000000000900 ) ;
#37 = SECURITY_CLASSIFICATION_LEVEL ( 'unclassified' ) ;
#38 = ORIENTED_EDGE ( 'NONE', *, *, #151, .T. ) ;
#39 = DIRECTION ( 'NONE',  ( 0.0000000000000000000, 0.0000000000000000000, 1.000000000000000000 ) ) ;
#40 = AXIS2_PLACEMENT_3D ( 'NONE', #314, #197, #198 ) ;
#41 = DATE_AND_TIME ( #129, #78 ) ;
#42 = CARTESIAN_POINT ( 'NONE',  ( 11.75000000000003900, 41.00000000000000000, 0.0000000000000000000 ) ) ;
#43 = AXIS2_PLACEMENT_3D ( 'NONE', #255, #61, #372 ) ;
#44 = CALENDAR_DATE ( 2021, 15, 3 ) ;
#45 = FACE_BOUND ( 'NONE', #250, .T. ) ;
#46 = EDGE_LOOP ( 'NONE', ( #278 ) ) ;
#47 = PLANE ( 'NONE',  #282 ) ;
#48 = EDGE_CURVE ( 'NONE', #89, #89, #276, .T. ) ;
#49 = EDGE_LOOP ( 'NONE', ( #181 ) ) ;
#50 = AXIS2_PLACEMENT_3D ( 'NONE', #379, #378, #62 ) ;
#51 = EDGE_CURVE ( 'NONE', #63, #63, #154, .T. ) ;
#52 = CIRCLE ( 'NONE', #332, 13.99999999999999800 ) ;
#53 = SHAPE_DEFINITION_REPRESENTATION ( #353, #178 ) ;
#54 = EDGE_LOOP ( 'NONE', ( #327 ) ) ;
#55 = ADVANCED_FACE ( 'NONE', ( #74, #257 ), #407, .T. ) ;
#56 = ADVANCED_FACE ( 'NONE', ( #261, #90 ), #163, .T. ) ;
#57 = FACE_OUTER_BOUND ( 'NONE', #120, .T. ) ;
#58 = AXIS2_PLACEMENT_3D ( 'NONE', #132, #345, #252 ) ;
#59 = DIRECTION ( 'NONE',  ( -1.000000000000000000, -0.0000000000000000000, -0.0000000000000000000 ) ) ;
#60 = AXIS2_PLACEMENT_3D ( 'NONE', #307, #83, #116 ) ;
#61 = DIRECTION ( 'NONE',  ( -1.000000000000000000, -0.0000000000000000000, -0.0000000000000000000 ) ) ;
#62 = DIRECTION ( 'NONE',  ( 0.0000000000000000000, 0.0000000000000000000, 1.000000000000000000 ) ) ;
#63 = VERTEX_POINT ( 'NONE', #266 ) ;
#64 = FACE_OUTER_BOUND ( 'NONE', #54, .T. ) ;
#65 = EDGE_LOOP ( 'NONE', ( #192 ) ) ;
#66 = DIRECTION ( 'NONE',  ( 0.0000000000000000000, 0.0000000000000000000, 1.000000000000000000 ) ) ;
#67 = CARTESIAN_POINT ( 'NONE',  ( -16.24999999999998600, 0.0000000000000000000, 13.99999999999999800 ) ) ;
#68 = DIRECTION ( 'NONE',  ( -1.000000000000000000, -0.0000000000000000000, -0.0000000000000000000 ) ) ;
#69 = FACE_OUTER_BOUND ( 'NONE', #156, .T. ) ;
#70 = VERTEX_POINT ( 'NONE', #354 ) ;
#71 = MECHANICAL_CONTEXT ( 'NONE', #203, 'mechanical' ) ;
#72 = EDGE_CURVE ( 'NONE', #270, #270, #32, .T. ) ;
#73 = CARTESIAN_POINT ( 'NONE',  ( -11.74999999999998200, 0.0000000000000000000, 41.00000000000000000 ) ) ;
#74 = FACE_OUTER_BOUND ( 'NONE', #263, .T. ) ;
#75 = ORIENTED_EDGE ( 'NONE', *, *, #51, .F. ) ;
#76 = EDGE_CURVE ( 'NONE', #406, #406, #331, .T. ) ;
#77 = CARTESIAN_POINT ( 'NONE',  ( 6.750000000000033800, 31.00000000000000000, 0.0000000000000000000 ) ) ;
#78 = LOCAL_TIME ( 15, 44, 50.00000000000000000, #179 ) ;
#79 = ORIENTED_EDGE ( 'NONE', *, *, #309, .T. ) ;
#80 = ORIENTED_EDGE ( 'NONE', *, *, #242, .T. ) ;
#81 = AXIS2_PLACEMENT_3D ( 'NONE', #106, #10, #321 ) ;
#82 = AXIS2_PLACEMENT_3D ( 'NONE', #334, #363, #152 ) ;
#83 = DIRECTION ( 'NONE',  ( -1.000000000000000000, -0.0000000000000000000, -0.0000000000000000000 ) ) ;
#84 = EDGE_LOOP ( 'NONE', ( #92 ) ) ;
#85 = DIRECTION ( 'NONE',  ( -0.0000000000000000000, 0.0000000000000000000, 1.000000000000000000 ) ) ;
#86 = DIRECTION ( 'NONE',  ( -1.000000000000000000, -0.0000000000000000000, -0.0000000000000000000 ) ) ;
#87 = CARTESIAN_POINT ( 'NONE',  ( -6.749999999999978700, 31.00000000000000000, 0.0000000000000000000 ) ) ;
#88 = APPROVAL ( #140, 'UNSPECIFIED' ) ;
#89 = VERTEX_POINT ( 'NONE', #355 ) ;
#90 = FACE_OUTER_BOUND ( 'NONE', #46, .T. ) ;
#91 = DIRECTION ( 'NONE',  ( -1.000000000000000000, 0.0000000000000000000, -0.0000000000000000000 ) ) ;
#92 = ORIENTED_EDGE ( 'NONE', *, *, #146, .F. ) ;
#93 = CARTESIAN_POINT ( 'NONE',  ( -16.24999999999998600, 0.0000000000000000000, 0.0000000000000000000 ) ) ;
#94 = ADVANCED_FACE ( 'NONE', ( #390, #45 ), #402, .F. ) ;
#95 = VERTEX_POINT ( 'NONE', #320 ) ;
#96 = EDGE_LOOP ( 'NONE', ( #241 ) ) ;
#97 = DIRECTION ( 'NONE',  ( -1.000000000000000000, -0.0000000000000000000, -0.0000000000000000000 ) ) ;
#98 = CARTESIAN_POINT ( 'NONE',  ( -6.249999999999977800, 0.0000000000000000000, 0.0000000000000000000 ) ) ;
#99 = CARTESIAN_POINT ( 'NONE',  ( 16.25000000000004300, 0.0000000000000000000, 13.99999999999999800 ) ) ;
#100 = VERTEX_POINT ( 'NONE', #168 ) ;
#101 = CIRCLE ( 'NONE', #215, 41.00000000000000000 ) ;
#102 = EDGE_LOOP ( 'NONE', ( #316 ) ) ;
#103 = CARTESIAN_POINT ( 'NONE',  ( 6.250000000000033800, 0.0000000000000000000, 30.50000000000000000 ) ) ;
#104 = CARTESIAN_POINT ( 'NONE',  ( 6.750000000000033800, 0.0000000000000000000, 31.00000000000000000 ) ) ;
#105 = AXIS2_PLACEMENT_3D ( 'NONE', #15, #39, #265 ) ;
#106 = CARTESIAN_POINT ( 'NONE',  ( -11.74999999999998200, 41.00000000000000000, 0.0000000000000000000 ) ) ;
#107 = TOROIDAL_SURFACE ( 'NONE', #50, 31.00000000000000000, 0.5000000000000004400 ) ;
#108 = APPROVAL_ROLE ( '' ) ;
#109 = PERSON_AND_ORGANIZATION ( #126, #237 ) ;
#110 = FACE_OUTER_BOUND ( 'NONE', #287, .T. ) ;
#111 = EDGE_LOOP ( 'NONE', ( #213 ) ) ;
#112 = CC_DESIGN_PERSON_AND_ORGANIZATION_ASSIGNMENT ( #109, #295, ( #166 ) ) ;
#113 = AXIS2_PLACEMENT_3D ( 'NONE', #26, #25, #186 ) ;
#114 = FACE_OUTER_BOUND ( 'NONE', #227, .T. ) ;
#115 = CC_DESIGN_PERSON_AND_ORGANIZATION_ASSIGNMENT ( #5, #8, ( #377 ) ) ;
#116 = DIRECTION ( 'NONE',  ( 0.0000000000000000000, 0.0000000000000000000, 1.000000000000000000 ) ) ;
#117 = CARTESIAN_POINT ( 'NONE',  ( -16.24999999999998600, 0.0000000000000000000, 0.0000000000000000000 ) ) ;
#118 = CC_DESIGN_PERSON_AND_ORGANIZATION_ASSIGNMENT ( #183, #347, ( #188 ) ) ;
#119 = VERTEX_POINT ( 'NONE', #293 ) ;
#120 = EDGE_LOOP ( 'NONE', ( #271 ) ) ;
#121 = ORIENTED_EDGE ( 'NONE', *, *, #34, .F. ) ;
#122 = DIRECTION ( 'NONE',  ( 0.0000000000000000000, 0.0000000000000000000, 1.000000000000000000 ) ) ;
#123 = EDGE_CURVE ( 'NONE', #394, #394, #361, .T. ) ;
#124 = DESIGN_CONTEXT ( 'detailed design', #16, 'design' ) ;
#125 = CARTESIAN_POINT ( 'NONE',  ( 13.75000000000003900, 0.0000000000000000000, 0.0000000000000000000 ) ) ;
#126 = PERSON ( 'UNSPECIFIED', 'UNSPECIFIED', 'UNSPECIFIED', ('UNSPECIFIED'), ('UNSPECIFIED'), ('UNSPECIFIED') ) ;
#127 = CARTESIAN_POINT ( 'NONE',  ( 6.250000000000033800, 0.0000000000000000000, 0.0000000000000000000 ) ) ;
#128 = CC_DESIGN_DATE_AND_TIME_ASSIGNMENT ( #322, #199, ( #188 ) ) ;
#129 = CALENDAR_DATE ( 2021, 15, 3 ) ;
#130 = DIRECTION ( 'NONE',  ( 0.0000000000000000000, 0.0000000000000000000, 1.000000000000000000 ) ) ;
#131 = DIRECTION ( 'NONE',  ( 0.0000000000000000000, 0.0000000000000000000, 1.000000000000000000 ) ) ;
#132 = CARTESIAN_POINT ( 'NONE',  ( -23.73291345239095300, 0.0000000000000000000, 0.0000000000000000000 ) ) ;
#133 = ADVANCED_FACE ( 'NONE', ( #204, #114 ), #36, .F. ) ;
#134 = DIRECTION ( 'NONE',  ( -1.000000000000000000, -0.0000000000000000000, -0.0000000000000000000 ) ) ;
#135 = LOCAL_TIME ( 15, 44, 50.00000000000000000, #381 ) ;
#136 = CIRCLE ( 'NONE', #236, 41.00000000000000000 ) ;
#137 = APPLICATION_PROTOCOL_DEFINITION ( 'international standard', 'config_control_design', 1994, #16 ) ;
#138 = ORIENTED_EDGE ( 'NONE', *, *, #383, .F. ) ;
#139 = PLANE ( 'NONE',  #81 ) ;
#140 = APPROVAL_STATUS ( 'not_yet_approved' ) ;
#141 = FACE_OUTER_BOUND ( 'NONE', #84, .T. ) ;
#142 = APPLICATION_PROTOCOL_DEFINITION ( 'international standard', 'config_control_design', 1994, #203 ) ;
#143 = CALENDAR_DATE ( 2021, 15, 3 ) ;
#144 = EDGE_LOOP ( 'NONE', ( #297 ) ) ;
#145 = CC_DESIGN_PERSON_AND_ORGANIZATION_ASSIGNMENT ( #260, #228, ( #377 ) ) ;
#146 = EDGE_CURVE ( 'NONE', #190, #190, #136, .T. ) ;
#147 = DIRECTION ( 'NONE',  ( 0.0000000000000000000, 0.0000000000000000000, -1.000000000000000000 ) ) ;
#148 = VERTEX_POINT ( 'NONE', #174 ) ;
#149 = CYLINDRICAL_SURFACE ( 'NONE', #368, 41.00000000000000000 ) ;
#150 = ORIENTED_EDGE ( 'NONE', *, *, #72, .F. ) ;
#151 = EDGE_CURVE ( 'NONE', #153, #153, #52, .T. ) ;
#152 = DIRECTION ( 'NONE',  ( 0.0000000000000000000, 0.0000000000000000000, 1.000000000000000000 ) ) ;
#153 = VERTEX_POINT ( 'NONE', #99 ) ;
#154 = CIRCLE ( 'NONE', #404, 16.00000000000001400 ) ;
#155 = DIRECTION ( 'NONE',  ( -1.000000000000000000, -0.0000000000000000000, -0.0000000000000000000 ) ) ;
#156 = EDGE_LOOP ( 'NONE', ( #173 ) ) ;
#157 = FACE_OUTER_BOUND ( 'NONE', #208, .T. ) ;
#158 = EDGE_LOOP ( 'NONE', ( #218 ) ) ;
#159 = DIRECTION ( 'NONE',  ( -1.000000000000000000, -0.0000000000000000000, -0.0000000000000000000 ) ) ;
#160 = DIRECTION ( 'NONE',  ( -1.000000000000000000, 0.0000000000000000000, -0.0000000000000000000 ) ) ;
#161 = ADVANCED_FACE ( 'NONE', ( #357, #400 ), #27, .F. ) ;
#162 = AXIS2_PLACEMENT_3D ( 'NONE', #98, #4, #130 ) ;
#163 = CYLINDRICAL_SURFACE ( 'NONE', #60, 13.99999999999999800 ) ;
#164 = EDGE_LOOP ( 'NONE', ( #29 ) ) ;
#165 = DIRECTION ( 'NONE',  ( -1.000000000000000000, -0.0000000000000000000, -0.0000000000000000000 ) ) ;
#166 = SECURITY_CLASSIFICATION ( '', '', #37 ) ;
#167 = PLANE ( 'NONE',  #272 ) ;
#168 = CARTESIAN_POINT ( 'NONE',  ( 16.25000000000004300, 0.0000000000000000000, 11.00000000000000000 ) ) ;
#169 = EDGE_CURVE ( 'NONE', #100, #100, #225, .T. ) ;
#170 = APPROVAL_PERSON_ORGANIZATION ( #275, #88, #233 ) ;
#171 = ORIENTED_EDGE ( 'NONE', *, *, #48, .T. ) ;
#172 = CARTESIAN_POINT ( 'NONE',  ( 13.75000000000005300, 0.0000000000000000000, 13.99999999999999800 ) ) ;
#173 = ORIENTED_EDGE ( 'NONE', *, *, #72, .T. ) ;
#174 = CARTESIAN_POINT ( 'NONE',  ( -11.74999999999998200, 0.0000000000000000000, 16.00000000000001400 ) ) ;
#175 = APPROVAL_STATUS ( 'not_yet_approved' ) ;
#176 = EDGE_CURVE ( 'NONE', #256, #256, #359, .T. ) ;
#177 = EDGE_LOOP ( 'NONE', ( #207 ) ) ;
#178 = ADVANCED_BREP_SHAPE_REPRESENTATION ( 'galet_portail_v2', ( #328, #105 ), #185 ) ;
#179 = COORDINATED_UNIVERSAL_TIME_OFFSET ( 1, 0, .AHEAD. ) ;
#180 = ORIENTED_EDGE ( 'NONE', *, *, #123, .T. ) ;
#181 = ORIENTED_EDGE ( 'NONE', *, *, #220, .F. ) ;
#182 = EDGE_CURVE ( 'NONE', #243, #243, #249, .T. ) ;
#183 = PERSON_AND_ORGANIZATION ( #126, #237 ) ;
#184 = FACE_BOUND ( 'NONE', #244, .T. ) ;
#185 =( GEOMETRIC_REPRESENTATION_CONTEXT ( 3 ) GLOBAL_UNCERTAINTY_ASSIGNED_CONTEXT ( ( #235 ) ) GLOBAL_UNIT_ASSIGNED_CONTEXT ( ( #202, #325, #384 ) ) REPRESENTATION_CONTEXT ( 'NONE', 'WORKASPACE' ) );
#186 = DIRECTION ( 'NONE',  ( 0.0000000000000000000, 0.0000000000000000000, 1.000000000000000000 ) ) ;
#187 = DIRECTION ( 'NONE',  ( 0.0000000000000000000, 0.0000000000000000000, 1.000000000000000000 ) ) ;
#188 = PRODUCT_DEFINITION ( 'UNKNOWN', '', #377, #124 ) ;
#189 = CARTESIAN_POINT ( 'NONE',  ( 13.75000000000005300, 0.0000000000000000000, 0.0000000000000000000 ) ) ;
#190 = VERTEX_POINT ( 'NONE', #291 ) ;
#191 = FACE_OUTER_BOUND ( 'NONE', #299, .T. ) ;
#192 = ORIENTED_EDGE ( 'NONE', *, *, #182, .T. ) ;
#193 = ADVANCED_FACE ( 'NONE', ( #273, #64 ), #212, .F. ) ;
#194 = DIRECTION ( 'NONE',  ( -0.0000000000000000000, 0.0000000000000000000, 1.000000000000000000 ) ) ;
#195 = CARTESIAN_POINT ( 'NONE',  ( -6.749999999999978700, 0.0000000000000000000, 0.0000000000000000000 ) ) ;
#196 = FACE_BOUND ( 'NONE', #283, .T. ) ;
#197 = DIRECTION ( 'NONE',  ( -1.000000000000000000, -0.0000000000000000000, -0.0000000000000000000 ) ) ;
#198 = DIRECTION ( 'NONE',  ( 0.0000000000000000000, 0.0000000000000000000, 1.000000000000000000 ) ) ;
#199 = DATE_TIME_ROLE ( 'creation_date' ) ;
#200 = FACE_OUTER_BOUND ( 'NONE', #111, .T. ) ;
#201 = PERSON_AND_ORGANIZATION_ROLE ( 'design_owner' ) ;
#202 =( LENGTH_UNIT ( ) NAMED_UNIT ( * ) SI_UNIT ( .MILLI., .METRE. ) );
#203 = APPLICATION_CONTEXT ( 'configuration controlled 3d designs of mechanical parts and assemblies' ) ;
#204 = FACE_OUTER_BOUND ( 'NONE', #367, .T. ) ;
#205 = AXIS2_PLACEMENT_3D ( 'NONE', #346, #221, #222 ) ;
#206 = LOCAL_TIME ( 15, 44, 50.00000000000000000, #35 ) ;
#207 = ORIENTED_EDGE ( 'NONE', *, *, #34, .T. ) ;
#208 = EDGE_LOOP ( 'NONE', ( #38 ) ) ;
#209 = EDGE_CURVE ( 'NONE', #119, #119, #101, .T. ) ;
#210 = CC_DESIGN_DATE_AND_TIME_ASSIGNMENT ( #330, #326, ( #166 ) ) ;
#211 = VERTEX_POINT ( 'NONE', #67 ) ;
#212 = TOROIDAL_SURFACE ( 'NONE', #269, 16.00000000000000000, 2.000000000000000900 ) ;
#213 = ORIENTED_EDGE ( 'NONE', *, *, #169, .F. ) ;
#214 = DIRECTION ( 'NONE',  ( 0.0000000000000000000, 0.0000000000000000000, 1.000000000000000000 ) ) ;
#215 = AXIS2_PLACEMENT_3D ( 'NONE', #195, #134, #281 ) ;
#216 = FACE_OUTER_BOUND ( 'NONE', #49, .T. ) ;
#217 = DIRECTION ( 'NONE',  ( -1.000000000000000000, -0.0000000000000000000, -0.0000000000000000000 ) ) ;
#218 = ORIENTED_EDGE ( 'NONE', *, *, #209, .F. ) ;
#219 = ADVANCED_FACE ( 'NONE', ( #110, #28 ), #107, .F. ) ;
#220 = EDGE_CURVE ( 'NONE', #95, #95, #24, .T. ) ;
#221 = DIRECTION ( 'NONE',  ( -1.000000000000000000, -0.0000000000000000000, -0.0000000000000000000 ) ) ;
#222 = DIRECTION ( 'NONE',  ( 0.0000000000000000000, 0.0000000000000000000, 1.000000000000000000 ) ) ;
#223 = DIRECTION ( 'NONE',  ( -1.000000000000000000, -0.0000000000000000000, -0.0000000000000000000 ) ) ;
#224 = LOCAL_TIME ( 15, 44, 50.00000000000000000, #399 ) ;
#225 = CIRCLE ( 'NONE', #290, 11.00000000000000000 ) ;
#226 = DIRECTION ( 'NONE',  ( 0.0000000000000000000, 0.0000000000000000000, 1.000000000000000000 ) ) ;
#227 = EDGE_LOOP ( 'NONE', ( #180 ) ) ;
#228 = PERSON_AND_ORGANIZATION_ROLE ( 'design_supplier' ) ;
#229 = CARTESIAN_POINT ( 'NONE',  ( -23.73291345239095300, 0.0000000000000000000, 0.0000000000000000000 ) ) ;
#230 = DATE_AND_TIME ( #143, #386 ) ;
#231 = FACE_BOUND ( 'NONE', #296, .T. ) ;
#232 = EDGE_LOOP ( 'NONE', ( #121 ) ) ;
#233 = APPROVAL_ROLE ( '' ) ;
#234 = DIRECTION ( 'NONE',  ( 0.0000000000000000000, 0.0000000000000000000, 1.000000000000000000 ) ) ;
#235 = UNCERTAINTY_MEASURE_WITH_UNIT (LENGTH_MEASURE( 1.000000000000000100E-005 ), #202, 'distance_accuracy_value', 'NONE');
#236 = AXIS2_PLACEMENT_3D ( 'NONE', #31, #403, #214 ) ;
#237 = ORGANIZATION ( 'UNSPECIFIED', 'UNSPECIFIED', '' ) ;
#238 = EDGE_LOOP ( 'NONE', ( #313 ) ) ;
#239 = CC_DESIGN_APPROVAL ( #253, ( #188 ) ) ;
#240 = CYLINDRICAL_SURFACE ( 'NONE', #397, 30.50000000000000000 ) ;
#241 = ORIENTED_EDGE ( 'NONE', *, *, #309, .F. ) ;
#242 = EDGE_CURVE ( 'NONE', #211, #211, #382, .T. ) ;
#243 = VERTEX_POINT ( 'NONE', #103 ) ;
#244 = EDGE_LOOP ( 'NONE', ( #6 ) ) ;
#245 = CARTESIAN_POINT ( 'NONE',  ( -6.749999999999978700, 0.0000000000000000000, 0.0000000000000000000 ) ) ;
#246 = DIRECTION ( 'NONE',  ( 0.0000000000000000000, 0.0000000000000000000, 1.000000000000000000 ) ) ;
#247 = AXIS2_PLACEMENT_3D ( 'NONE', #125, #336, #366 ) ;
#248 = COORDINATED_UNIVERSAL_TIME_OFFSET ( 1, 0, .AHEAD. ) ;
#249 = CIRCLE ( 'NONE', #14, 30.50000000000000000 ) ;
#250 = EDGE_LOOP ( 'NONE', ( #306 ) ) ;
#251 = DIRECTION ( 'NONE',  ( 0.0000000000000000000, 0.0000000000000000000, -1.000000000000000000 ) ) ;
#252 = DIRECTION ( 'NONE',  ( 0.0000000000000000000, 0.0000000000000000000, 1.000000000000000000 ) ) ;
#253 = APPROVAL ( #324, 'UNSPECIFIED' ) ;
#254 = DIRECTION ( 'NONE',  ( 0.0000000000000000000, 0.0000000000000000000, 1.000000000000000000 ) ) ;
#255 = CARTESIAN_POINT ( 'NONE',  ( -13.74999999999999600, 0.0000000000000000000, 0.0000000000000000000 ) ) ;
#256 = VERTEX_POINT ( 'NONE', #289 ) ;
#257 = FACE_OUTER_BOUND ( 'NONE', #164, .T. ) ;
#258 = CARTESIAN_POINT ( 'NONE',  ( 16.25000000000004300, 0.0000000000000000000, 0.0000000000000000000 ) ) ;
#259 = CARTESIAN_POINT ( 'NONE',  ( -23.73291345239095300, 0.0000000000000000000, 0.0000000000000000000 ) ) ;
#260 = PERSON_AND_ORGANIZATION ( #126, #237 ) ;
#261 = FACE_OUTER_BOUND ( 'NONE', #238, .T. ) ;
#262 = CARTESIAN_POINT ( 'NONE',  ( -11.74999999999998200, 0.0000000000000000000, 0.0000000000000000000 ) ) ;
#263 = EDGE_LOOP ( 'NONE', ( #150 ) ) ;
#264 = APPROVAL ( #175, 'UNSPECIFIED' ) ;
#265 = DIRECTION ( 'NONE',  ( 1.000000000000000000, 0.0000000000000000000, 0.0000000000000000000 ) ) ;
#266 = CARTESIAN_POINT ( 'NONE',  ( 11.75000000000003900, 0.0000000000000000000, 16.00000000000001400 ) ) ;
#267 = CIRCLE ( 'NONE', #392, 16.00000000000001400 ) ;
#268 = ORIENTED_EDGE ( 'NONE', *, *, #151, .F. ) ;
#269 = AXIS2_PLACEMENT_3D ( 'NONE', #284, #217, #2 ) ;
#270 = VERTEX_POINT ( 'NONE', #73 ) ;
#271 = ORIENTED_EDGE ( 'NONE', *, *, #146, .T. ) ;
#272 = AXIS2_PLACEMENT_3D ( 'NONE', #42, #13, #288 ) ;
#273 = FACE_OUTER_BOUND ( 'NONE', #102, .T. ) ;
#274 = AXIS2_PLACEMENT_3D ( 'NONE', #408, #91, #85 ) ;
#275 = PERSON_AND_ORGANIZATION ( #126, #237 ) ;
#276 = CIRCLE ( 'NONE', #362, 11.00000000000000000 ) ;
#277 = DIRECTION ( 'NONE',  ( 1.000000000000000000, 0.0000000000000000000, 0.0000000000000000000 ) ) ;
#278 = ORIENTED_EDGE ( 'NONE', *, *, #176, .T. ) ;
#279 = ADVANCED_FACE ( 'NONE', ( #200, #191 ), #298, .F. ) ;
#280 = PRODUCT_RELATED_PRODUCT_CATEGORY ( 'detail', '', ( #302 ) ) ;
#281 = DIRECTION ( 'NONE',  ( 0.0000000000000000000, 0.0000000000000000000, 1.000000000000000000 ) ) ;
#282 = AXIS2_PLACEMENT_3D ( 'NONE', #77, #301, #147 ) ;
#283 = EDGE_LOOP ( 'NONE', ( #339 ) ) ;
#284 = CARTESIAN_POINT ( 'NONE',  ( -13.74999999999998200, 0.0000000000000000000, 0.0000000000000000000 ) ) ;
#285 = DIRECTION ( 'NONE',  ( 0.0000000000000000000, 0.0000000000000000000, 1.000000000000000000 ) ) ;
#286 = APPROVAL_PERSON_ORGANIZATION ( #364, #264, #108 ) ;
#287 = EDGE_LOOP ( 'NONE', ( #391 ) ) ;
#288 = DIRECTION ( 'NONE',  ( -0.0000000000000000000, 0.0000000000000000000, 1.000000000000000000 ) ) ;
#289 = CARTESIAN_POINT ( 'NONE',  ( -13.74999999999999600, 0.0000000000000000000, 13.99999999999999800 ) ) ;
#290 = AXIS2_PLACEMENT_3D ( 'NONE', #258, #59, #317 ) ;
#291 = CARTESIAN_POINT ( 'NONE',  ( 11.75000000000003900, 0.0000000000000000000, 41.00000000000000000 ) ) ;
#292 = FACE_OUTER_BOUND ( 'NONE', #365, .T. ) ;
#293 = CARTESIAN_POINT ( 'NONE',  ( -6.749999999999978700, 0.0000000000000000000, 41.00000000000000000 ) ) ;
#294 = CC_DESIGN_SECURITY_CLASSIFICATION ( #166, ( #377 ) ) ;
#295 = PERSON_AND_ORGANIZATION_ROLE ( 'classification_officer' ) ;
#296 = EDGE_LOOP ( 'NONE', ( #138 ) ) ;
#297 = ORIENTED_EDGE ( 'NONE', *, *, #182, .F. ) ;
#298 = CYLINDRICAL_SURFACE ( 'NONE', #58, 11.00000000000000000 ) ;
#299 = EDGE_LOOP ( 'NONE', ( #171 ) ) ;
#300 = AXIS2_PLACEMENT_3D ( 'NONE', #340, #277, #251 ) ;
#301 = DIRECTION ( 'NONE',  ( 1.000000000000000000, 0.0000000000000000000, 0.0000000000000000000 ) ) ;
#302 = PRODUCT ( 'galet_portail_v2', 'galet_portail_v2', '', ( #71 ) ) ;
#303 = PLANE ( 'NONE',  #300 ) ;
#304 = CARTESIAN_POINT ( 'NONE',  ( 11.75000000000003900, 0.0000000000000000000, 0.0000000000000000000 ) ) ;
#305 = APPROVAL_DATE_TIME ( #230, #253 ) ;
#306 = ORIENTED_EDGE ( 'NONE', *, *, #169, .T. ) ;
#307 = CARTESIAN_POINT ( 'NONE',  ( -23.73291345239095300, 0.0000000000000000000, 0.0000000000000000000 ) ) ;
#308 = CARTESIAN_POINT ( 'NONE',  ( -23.73291345239095300, 0.0000000000000000000, 0.0000000000000000000 ) ) ;
#309 = EDGE_CURVE ( 'NONE', #311, #311, #338, .T. ) ;
#310 = ADVANCED_FACE ( 'NONE', ( #21, #375 ), #344, .F. ) ;
#311 = VERTEX_POINT ( 'NONE', #104 ) ;
#312 = FACE_OUTER_BOUND ( 'NONE', #232, .T. ) ;
#313 = ORIENTED_EDGE ( 'NONE', *, *, #242, .F. ) ;
#314 = CARTESIAN_POINT ( 'NONE',  ( 6.250000000000033800, 0.0000000000000000000, 0.0000000000000000000 ) ) ;
#315 = PERSON_AND_ORGANIZATION ( #126, #237 ) ;
#316 = ORIENTED_EDGE ( 'NONE', *, *, #176, .F. ) ;
#317 = DIRECTION ( 'NONE',  ( 0.0000000000000000000, 0.0000000000000000000, 1.000000000000000000 ) ) ;
#318 = FACE_OUTER_BOUND ( 'NONE', #177, .T. ) ;
#319 = ADVANCED_FACE ( 'NONE', ( #292, #157 ), #395, .T. ) ;
#320 = CARTESIAN_POINT ( 'NONE',  ( -6.249999999999977800, 0.0000000000000000000, 30.50000000000000000 ) ) ;
#321 = DIRECTION ( 'NONE',  ( 0.0000000000000000000, 0.0000000000000000000, -1.000000000000000000 ) ) ;
#322 = DATE_AND_TIME ( #20, #224 ) ;
#323 = ORIENTED_EDGE ( 'NONE', *, *, #220, .T. ) ;
#324 = APPROVAL_STATUS ( 'not_yet_approved' ) ;
#325 =( NAMED_UNIT ( * ) PLANE_ANGLE_UNIT ( ) SI_UNIT ( $, .RADIAN. ) );
#326 = DATE_TIME_ROLE ( 'classification_date' ) ;
#327 = ORIENTED_EDGE ( 'NONE', *, *, #383, .T. ) ;
#328 = MANIFOLD_SOLID_BREP ( 'Révolution1', #389 ) ;
#329 = CC_DESIGN_PERSON_AND_ORGANIZATION_ASSIGNMENT ( #11, #201, ( #302 ) ) ;
#330 = DATE_AND_TIME ( #44, #135 ) ;
#331 = CIRCLE ( 'NONE', #19, 31.00000000000000000 ) ;
#332 = AXIS2_PLACEMENT_3D ( 'NONE', #343, #223, #131 ) ;
#333 = FACE_BOUND ( 'NONE', #96, .T. ) ;
#334 = CARTESIAN_POINT ( 'NONE',  ( 6.750000000000033800, 0.0000000000000000000, 0.0000000000000000000 ) ) ;
#335 = DIRECTION ( 'NONE',  ( 0.0000000000000000000, 0.0000000000000000000, 1.000000000000000000 ) ) ;
#336 = DIRECTION ( 'NONE',  ( -1.000000000000000000, -0.0000000000000000000, -0.0000000000000000000 ) ) ;
#337 = CALENDAR_DATE ( 2021, 15, 3 ) ;
#338 = CIRCLE ( 'NONE', #205, 31.00000000000000000 ) ;
#339 = ORIENTED_EDGE ( 'NONE', *, *, #51, .T. ) ;
#340 = CARTESIAN_POINT ( 'NONE',  ( -16.24999999999998600, 13.99999999999999800, 0.0000000000000000000 ) ) ;
#341 = AXIS2_PLACEMENT_3D ( 'NONE', #93, #97, #254 ) ;
#342 = DIRECTION ( 'NONE',  ( 0.0000000000000000000, 0.0000000000000000000, 1.000000000000000000 ) ) ;
#343 = CARTESIAN_POINT ( 'NONE',  ( 16.25000000000004300, 0.0000000000000000000, 0.0000000000000000000 ) ) ;
#344 = TOROIDAL_SURFACE ( 'NONE', #40, 31.00000000000000000, 0.5000000000000004400 ) ;
#345 = DIRECTION ( 'NONE',  ( -1.000000000000000000, -0.0000000000000000000, -0.0000000000000000000 ) ) ;
#346 = CARTESIAN_POINT ( 'NONE',  ( 6.750000000000033800, 0.0000000000000000000, 0.0000000000000000000 ) ) ;
#347 = PERSON_AND_ORGANIZATION_ROLE ( 'creator' ) ;
#348 = ADVANCED_FACE ( 'NONE', ( #312, #57 ), #149, .T. ) ;
#349 = APPROVAL_PERSON_ORGANIZATION ( #315, #253, #388 ) ;
#350 = EDGE_LOOP ( 'NONE', ( #323 ) ) ;
#351 = DIRECTION ( 'NONE',  ( -1.000000000000000000, -0.0000000000000000000, -0.0000000000000000000 ) ) ;
#352 = EDGE_LOOP ( 'NONE', ( #409 ) ) ;
#353 = PRODUCT_DEFINITION_SHAPE ( 'NONE', 'NONE',  #188 ) ;
#354 = CARTESIAN_POINT ( 'NONE',  ( 6.750000000000033800, 0.0000000000000000000, 41.00000000000000000 ) ) ;
#355 = CARTESIAN_POINT ( 'NONE',  ( -16.24999999999998600, 0.0000000000000000000, 11.00000000000000000 ) ) ;
#356 = DIRECTION ( 'NONE',  ( -1.000000000000000000, -0.0000000000000000000, -0.0000000000000000000 ) ) ;
#357 = FACE_OUTER_BOUND ( 'NONE', #158, .T. ) ;
#358 = DATE_AND_TIME ( #337, #206 ) ;
#359 = CIRCLE ( 'NONE', #43, 13.99999999999999800 ) ;
#360 = CC_DESIGN_APPROVAL ( #88, ( #377 ) ) ;
#361 = CIRCLE ( 'NONE', #371, 13.99999999999999800 ) ;
#362 = AXIS2_PLACEMENT_3D ( 'NONE', #117, #398, #187 ) ;
#363 = DIRECTION ( 'NONE',  ( -1.000000000000000000, -0.0000000000000000000, -0.0000000000000000000 ) ) ;
#364 = PERSON_AND_ORGANIZATION ( #126, #237 ) ;
#365 = EDGE_LOOP ( 'NONE', ( #396 ) ) ;
#366 = DIRECTION ( 'NONE',  ( 0.0000000000000000000, 0.0000000000000000000, 1.000000000000000000 ) ) ;
#367 = EDGE_LOOP ( 'NONE', ( #75 ) ) ;
#368 = AXIS2_PLACEMENT_3D ( 'NONE', #229, #68, #66 ) ;
#369 = ADVANCED_FACE ( 'NONE', ( #216, #387 ), #240, .T. ) ;
#370 = DIRECTION ( 'NONE',  ( 0.0000000000000000000, 0.0000000000000000000, 1.000000000000000000 ) ) ;
#371 = AXIS2_PLACEMENT_3D ( 'NONE', #189, #30, #246 ) ;
#372 = DIRECTION ( 'NONE',  ( 0.0000000000000000000, 0.0000000000000000000, 1.000000000000000000 ) ) ;
#373 = ADVANCED_FACE ( 'NONE', ( #231, #69 ), #139, .F. ) ;
#374 = APPROVAL_DATE_TIME ( #41, #264 ) ;
#375 = FACE_OUTER_BOUND ( 'NONE', #22, .T. ) ;
#376 = EDGE_LOOP ( 'NONE', ( #80 ) ) ;
#377 = PRODUCT_DEFINITION_FORMATION_WITH_SPECIFIED_SOURCE ( 'ANY', '', #302, .NOT_KNOWN. ) ;
#378 = DIRECTION ( 'NONE',  ( -1.000000000000000000, -0.0000000000000000000, -0.0000000000000000000 ) ) ;
#379 = CARTESIAN_POINT ( 'NONE',  ( -6.249999999999977800, 0.0000000000000000000, 0.0000000000000000000 ) ) ;
#380 = ADVANCED_FACE ( 'NONE', ( #141, #196 ), #167, .F. ) ;
#381 = COORDINATED_UNIVERSAL_TIME_OFFSET ( 1, 0, .AHEAD. ) ;
#382 = CIRCLE ( 'NONE', #341, 13.99999999999999800 ) ;
#383 = EDGE_CURVE ( 'NONE', #148, #148, #267, .T. ) ;
#384 =( NAMED_UNIT ( * ) SI_UNIT ( $, .STERADIAN. ) SOLID_ANGLE_UNIT ( ) );
#385 = CARTESIAN_POINT ( 'NONE',  ( -6.749999999999978700, 0.0000000000000000000, 31.00000000000000000 ) ) ;
#386 = LOCAL_TIME ( 15, 44, 50.00000000000000000, #248 ) ;
#387 = FACE_OUTER_BOUND ( 'NONE', #65, .T. ) ;
#388 = APPROVAL_ROLE ( '' ) ;
#389 = CLOSED_SHELL ( 'NONE', ( #133, #319, #94, #279, #7, #56, #193, #373, #55, #161, #219, #369, #310, #3, #348, #380 ) ) ;
#390 = FACE_OUTER_BOUND ( 'NONE', #401, .T. ) ;
#391 = ORIENTED_EDGE ( 'NONE', *, *, #76, .F. ) ;
#392 = AXIS2_PLACEMENT_3D ( 'NONE', #262, #351, #285 ) ;
#393 = AXIS2_PLACEMENT_3D ( 'NONE', #308, #86, #335 ) ;
#394 = VERTEX_POINT ( 'NONE', #172 ) ;
#395 = CYLINDRICAL_SURFACE ( 'NONE', #1, 13.99999999999999800 ) ;
#396 = ORIENTED_EDGE ( 'NONE', *, *, #123, .F. ) ;
#397 = AXIS2_PLACEMENT_3D ( 'NONE', #259, #356, #234 ) ;
#398 = DIRECTION ( 'NONE',  ( -1.000000000000000000, -0.0000000000000000000, -0.0000000000000000000 ) ) ;
#399 = COORDINATED_UNIVERSAL_TIME_OFFSET ( 1, 0, .AHEAD. ) ;
#400 = FACE_BOUND ( 'NONE', #352, .T. ) ;
#401 = EDGE_LOOP ( 'NONE', ( #268 ) ) ;
#402 = PLANE ( 'NONE',  #274 ) ;
#403 = DIRECTION ( 'NONE',  ( -1.000000000000000000, -0.0000000000000000000, -0.0000000000000000000 ) ) ;
#404 = AXIS2_PLACEMENT_3D ( 'NONE', #304, #155, #122 ) ;
#405 = DIRECTION ( 'NONE',  ( -1.000000000000000000, -0.0000000000000000000, -0.0000000000000000000 ) ) ;
#406 = VERTEX_POINT ( 'NONE', #385 ) ;
#407 = CYLINDRICAL_SURFACE ( 'NONE', #393, 41.00000000000000000 ) ;
#408 = CARTESIAN_POINT ( 'NONE',  ( 16.25000000000004300, 13.99999999999999800, 0.0000000000000000000 ) ) ;
#409 = ORIENTED_EDGE ( 'NONE', *, *, #76, .T. ) ;
ENDSEC;
END-ISO-10303-21;
