ISO-10303-21;
HEADER;
FILE_DESCRIPTION((''),'2;1');
FILE_NAME('PC095965','2021-03-03T10:59:51',('JJ'),(''),
'CREO PARAMETRIC BY PTC INC, 2018020','CREO PARAMETRIC BY PTC INC, 2018020','');
FILE_SCHEMA(('CONFIG_CONTROL_DESIGN'));
ENDSEC;
DATA;
#1=CARTESIAN_POINT('',(0.E0,0.E0,0.E0));
#2=DIRECTION('',(1.E0,0.E0,0.E0));
#3=DIRECTION('',(0.E0,0.E0,-1.E0));
#4=AXIS2_PLACEMENT_3D('',#1,#2,#3);
#6=CARTESIAN_POINT('',(0.E0,0.E0,0.E0));
#7=DIRECTION('',(1.E0,0.E0,0.E0));
#8=DIRECTION('',(0.E0,0.E0,1.E0));
#9=AXIS2_PLACEMENT_3D('',#6,#7,#8);
#11=CARTESIAN_POINT('',(-1.421085471520E-14,0.E0,0.E0));
#12=DIRECTION('',(-1.E0,0.E0,0.E0));
#13=DIRECTION('',(0.E0,-1.E0,0.E0));
#14=AXIS2_PLACEMENT_3D('',#11,#12,#13);
#16=CARTESIAN_POINT('',(-1.421085471520E-14,0.E0,0.E0));
#17=DIRECTION('',(-1.E0,0.E0,0.E0));
#18=DIRECTION('',(0.E0,1.E0,0.E0));
#19=AXIS2_PLACEMENT_3D('',#16,#17,#18);
#21=CARTESIAN_POINT('',(8.E0,0.E0,0.E0));
#22=DIRECTION('',(1.E0,0.E0,0.E0));
#23=DIRECTION('',(0.E0,0.E0,-1.E0));
#24=AXIS2_PLACEMENT_3D('',#21,#22,#23);
#26=DIRECTION('',(1.E0,0.E0,0.E0));
#27=VECTOR('',#26,8.E0);
#28=CARTESIAN_POINT('',(0.E0,0.E0,-5.8E1));
#29=LINE('',#28,#27);
#30=CARTESIAN_POINT('',(8.E0,0.E0,0.E0));
#31=DIRECTION('',(1.E0,0.E0,0.E0));
#32=DIRECTION('',(0.E0,-1.E0,0.E0));
#33=AXIS2_PLACEMENT_3D('',#30,#31,#32);
#35=CARTESIAN_POINT('',(8.E0,0.E0,0.E0));
#36=DIRECTION('',(-1.E0,0.E0,0.E0));
#37=DIRECTION('',(0.E0,-1.E0,0.E0));
#38=AXIS2_PLACEMENT_3D('',#35,#36,#37);
#40=CARTESIAN_POINT('',(1.02E2,0.E0,0.E0));
#41=DIRECTION('',(1.E0,0.E0,0.E0));
#42=DIRECTION('',(0.E0,-1.E0,0.E0));
#43=AXIS2_PLACEMENT_3D('',#40,#41,#42);
#45=DIRECTION('',(-1.E0,0.E0,1.638716581170E-14));
#46=VECTOR('',#45,9.4E1);
#47=CARTESIAN_POINT('',(1.02E2,5.175E1,-1.544618617756E-12));
#48=LINE('',#47,#46);
#49=DIRECTION('',(-1.E0,0.E0,-1.638522187310E-14));
#50=VECTOR('',#49,9.4E1);
#51=CARTESIAN_POINT('',(1.02E2,-5.175E1,1.544435887529E-12));
#52=LINE('',#51,#50);
#53=CARTESIAN_POINT('',(1.02E2,-4.975E1,1.258232407153E-11));
#54=DIRECTION('',(0.E0,-2.529122744566E-13,-1.E0));
#55=DIRECTION('',(1.E0,0.E0,0.E0));
#56=AXIS2_PLACEMENT_3D('',#53,#54,#55);
#58=CARTESIAN_POINT('',(1.04E2,0.E0,0.E0));
#59=DIRECTION('',(1.E0,0.E0,0.E0));
#60=DIRECTION('',(0.E0,-1.E0,0.E0));
#61=AXIS2_PLACEMENT_3D('',#58,#59,#60);
#63=CARTESIAN_POINT('',(1.04E2,0.E0,0.E0));
#64=DIRECTION('',(1.E0,0.E0,0.E0));
#65=DIRECTION('',(0.E0,1.E0,0.E0));
#66=AXIS2_PLACEMENT_3D('',#63,#64,#65);
#68=CARTESIAN_POINT('',(1.02E2,4.975E1,-1.258138038196E-11));
#69=DIRECTION('',(0.E0,2.528931924983E-13,1.E0));
#70=DIRECTION('',(1.E0,0.E0,0.E0));
#71=AXIS2_PLACEMENT_3D('',#68,#69,#70);
#73=CARTESIAN_POINT('',(1.02E2,0.E0,0.E0));
#74=DIRECTION('',(1.E0,0.E0,0.E0));
#75=DIRECTION('',(0.E0,1.E0,0.E0));
#76=AXIS2_PLACEMENT_3D('',#73,#74,#75);
#78=CARTESIAN_POINT('',(8.E0,0.E0,0.E0));
#79=DIRECTION('',(1.E0,0.E0,0.E0));
#80=DIRECTION('',(0.E0,0.E0,1.E0));
#81=AXIS2_PLACEMENT_3D('',#78,#79,#80);
#83=DIRECTION('',(1.E0,0.E0,0.E0));
#84=VECTOR('',#83,8.E0);
#85=CARTESIAN_POINT('',(0.E0,0.E0,5.8E1));
#86=LINE('',#85,#84);
#87=DIRECTION('',(1.E0,0.E0,0.E0));
#88=VECTOR('',#87,9.030865704891E1);
#89=CARTESIAN_POINT('',(0.E0,5.025E1,0.E0));
#90=LINE('',#89,#88);
#91=DIRECTION('',(1.E0,0.E0,0.E0));
#92=VECTOR('',#91,9.030865704891E1);
#93=CARTESIAN_POINT('',(0.E0,-5.025E1,0.E0));
#94=LINE('',#93,#92);
#95=DIRECTION('',(8.660254037844E-1,5.E-1,0.E0));
#96=VECTOR('',#95,1.35E1);
#97=CARTESIAN_POINT('',(9.030865704891E1,-5.025E1,0.E0));
#98=LINE('',#97,#96);
#99=CARTESIAN_POINT('',(9.030865704891E1,0.E0,0.E0));
#100=DIRECTION('',(1.E0,0.E0,0.E0));
#101=DIRECTION('',(0.E0,-1.E0,0.E0));
#102=AXIS2_PLACEMENT_3D('',#99,#100,#101);
#104=DIRECTION('',(8.660254037844E-1,-5.E-1,0.E0));
#105=VECTOR('',#104,1.35E1);
#106=CARTESIAN_POINT('',(9.030865704891E1,5.025E1,0.E0));
#107=LINE('',#106,#105);
#108=CARTESIAN_POINT('',(9.030865704891E1,0.E0,0.E0));
#109=DIRECTION('',(-1.E0,0.E0,0.E0));
#110=DIRECTION('',(0.E0,-1.E0,0.E0));
#111=AXIS2_PLACEMENT_3D('',#108,#109,#110);
#113=CARTESIAN_POINT('',(1.02E2,0.E0,0.E0));
#114=DIRECTION('',(1.E0,0.E0,0.E0));
#115=DIRECTION('',(0.E0,-1.E0,0.E0));
#116=AXIS2_PLACEMENT_3D('',#113,#114,#115);
#118=CARTESIAN_POINT('',(1.02E2,0.E0,0.E0));
#119=DIRECTION('',(-1.E0,0.E0,0.E0));
#120=DIRECTION('',(0.E0,-1.E0,0.E0));
#121=AXIS2_PLACEMENT_3D('',#118,#119,#120);
#123=CARTESIAN_POINT('',(0.E0,0.E0,-5.8E1));
#124=CARTESIAN_POINT('',(0.E0,1.420590287011E-14,5.8E1));
#125=VERTEX_POINT('',#123);
#126=VERTEX_POINT('',#124);
#127=CARTESIAN_POINT('',(8.E0,-5.175E1,0.E0));
#128=CARTESIAN_POINT('',(8.E0,5.175E1,0.E0));
#129=VERTEX_POINT('',#127);
#130=VERTEX_POINT('',#128);
#131=CARTESIAN_POINT('',(-1.421085471520E-14,-5.025E1,0.E0));
#132=CARTESIAN_POINT('',(-1.421085471520E-14,5.025E1,0.E0));
#133=VERTEX_POINT('',#131);
#134=VERTEX_POINT('',#132);
#135=CARTESIAN_POINT('',(8.E0,0.E0,-5.8E1));
#136=CARTESIAN_POINT('',(8.E0,1.420590287011E-14,5.8E1));
#137=VERTEX_POINT('',#135);
#138=VERTEX_POINT('',#136);
#139=CARTESIAN_POINT('',(9.030865704891E1,-5.025E1,0.E0));
#140=VERTEX_POINT('',#139);
#141=CARTESIAN_POINT('',(9.030865704891E1,5.025E1,0.E0));
#142=VERTEX_POINT('',#141);
#143=CARTESIAN_POINT('',(1.02E2,-4.35E1,0.E0));
#144=VERTEX_POINT('',#143);
#145=CARTESIAN_POINT('',(1.02E2,4.35E1,0.E0));
#146=VERTEX_POINT('',#145);
#147=CARTESIAN_POINT('',(1.04E2,-4.975E1,0.E0));
#148=CARTESIAN_POINT('',(1.04E2,4.975E1,-1.218523565152E-14));
#149=VERTEX_POINT('',#147);
#150=VERTEX_POINT('',#148);
#151=CARTESIAN_POINT('',(1.02E2,-5.175E1,0.E0));
#152=CARTESIAN_POINT('',(1.02E2,5.175E1,-1.267509437118E-14));
#153=VERTEX_POINT('',#151);
#154=VERTEX_POINT('',#152);
#155=CARTESIAN_POINT('',(0.E0,0.E0,0.E0));
#156=DIRECTION('',(1.E0,0.E0,0.E0));
#157=DIRECTION('',(0.E0,0.E0,-1.E0));
#158=AXIS2_PLACEMENT_3D('',#155,#156,#157);
#159=PLANE('',#158);
#161=ORIENTED_EDGE('',*,*,#160,.T.);
#163=ORIENTED_EDGE('',*,*,#162,.T.);
#164=EDGE_LOOP('',(#161,#163));
#165=FACE_OUTER_BOUND('',#164,.F.);
#167=ORIENTED_EDGE('',*,*,#166,.T.);
#169=ORIENTED_EDGE('',*,*,#168,.T.);
#170=EDGE_LOOP('',(#167,#169));
#171=FACE_BOUND('',#170,.F.);
#172=ADVANCED_FACE('',(#165,#171),#159,.F.);
#173=CARTESIAN_POINT('',(0.E0,0.E0,0.E0));
#174=DIRECTION('',(1.E0,0.E0,0.E0));
#175=DIRECTION('',(0.E0,0.E0,-1.E0));
#176=AXIS2_PLACEMENT_3D('',#173,#174,#175);
#177=CYLINDRICAL_SURFACE('',#176,5.8E1);
#179=ORIENTED_EDGE('',*,*,#178,.T.);
#181=ORIENTED_EDGE('',*,*,#180,.F.);
#182=ORIENTED_EDGE('',*,*,#160,.F.);
#184=ORIENTED_EDGE('',*,*,#183,.T.);
#185=EDGE_LOOP('',(#179,#181,#182,#184));
#186=FACE_OUTER_BOUND('',#185,.F.);
#187=ADVANCED_FACE('',(#186),#177,.T.);
#188=CARTESIAN_POINT('',(8.E0,0.E0,0.E0));
#189=DIRECTION('',(-1.E0,0.E0,0.E0));
#190=DIRECTION('',(0.E0,1.E0,0.E0));
#191=AXIS2_PLACEMENT_3D('',#188,#189,#190);
#192=PLANE('',#191);
#193=ORIENTED_EDGE('',*,*,#178,.F.);
#195=ORIENTED_EDGE('',*,*,#194,.F.);
#196=EDGE_LOOP('',(#193,#195));
#197=FACE_OUTER_BOUND('',#196,.F.);
#199=ORIENTED_EDGE('',*,*,#198,.T.);
#201=ORIENTED_EDGE('',*,*,#200,.F.);
#202=EDGE_LOOP('',(#199,#201));
#203=FACE_BOUND('',#202,.F.);
#204=ADVANCED_FACE('',(#197,#203),#192,.F.);
#205=CARTESIAN_POINT('',(1.092E2,0.E0,0.E0));
#206=DIRECTION('',(-1.E0,0.E0,0.E0));
#207=DIRECTION('',(0.E0,1.E0,0.E0));
#208=AXIS2_PLACEMENT_3D('',#205,#206,#207);
#209=CYLINDRICAL_SURFACE('',#208,5.175E1);
#211=ORIENTED_EDGE('',*,*,#210,.T.);
#213=ORIENTED_EDGE('',*,*,#212,.T.);
#214=ORIENTED_EDGE('',*,*,#198,.F.);
#216=ORIENTED_EDGE('',*,*,#215,.F.);
#217=EDGE_LOOP('',(#211,#213,#214,#216));
#218=FACE_OUTER_BOUND('',#217,.F.);
#219=ADVANCED_FACE('',(#218),#209,.T.);
#220=CARTESIAN_POINT('',(1.02E2,0.E0,0.E0));
#221=DIRECTION('',(-1.E0,0.E0,0.E0));
#222=DIRECTION('',(0.E0,-9.999663934189E-1,8.198294508791E-3));
#223=AXIS2_PLACEMENT_3D('',#220,#221,#222);
#224=TOROIDAL_SURFACE('',#223,4.975E1,2.E0);
#226=ORIENTED_EDGE('',*,*,#225,.T.);
#228=ORIENTED_EDGE('',*,*,#227,.T.);
#229=ORIENTED_EDGE('',*,*,#210,.F.);
#231=ORIENTED_EDGE('',*,*,#230,.F.);
#232=EDGE_LOOP('',(#226,#228,#229,#231));
#233=FACE_OUTER_BOUND('',#232,.F.);
#234=ADVANCED_FACE('',(#233),#224,.T.);
#235=CARTESIAN_POINT('',(1.04E2,0.E0,0.E0));
#236=DIRECTION('',(1.E0,0.E0,0.E0));
#237=DIRECTION('',(0.E0,0.E0,-1.E0));
#238=AXIS2_PLACEMENT_3D('',#235,#236,#237);
#239=PLANE('',#238);
#240=ORIENTED_EDGE('',*,*,#225,.F.);
#242=ORIENTED_EDGE('',*,*,#241,.F.);
#243=EDGE_LOOP('',(#240,#242));
#244=FACE_OUTER_BOUND('',#243,.F.);
#245=ADVANCED_FACE('',(#244),#239,.T.);
#246=CARTESIAN_POINT('',(1.02E2,0.E0,0.E0));
#247=DIRECTION('',(-1.E0,0.E0,0.E0));
#248=DIRECTION('',(0.E0,9.999663934189E-1,-8.198294508791E-3));
#249=AXIS2_PLACEMENT_3D('',#246,#247,#248);
#250=TOROIDAL_SURFACE('',#249,4.975E1,2.E0);
#251=ORIENTED_EDGE('',*,*,#241,.T.);
#252=ORIENTED_EDGE('',*,*,#230,.T.);
#254=ORIENTED_EDGE('',*,*,#253,.F.);
#255=ORIENTED_EDGE('',*,*,#227,.F.);
#256=EDGE_LOOP('',(#251,#252,#254,#255));
#257=FACE_OUTER_BOUND('',#256,.F.);
#258=ADVANCED_FACE('',(#257),#250,.T.);
#259=CARTESIAN_POINT('',(1.092E2,0.E0,0.E0));
#260=DIRECTION('',(-1.E0,0.E0,0.E0));
#261=DIRECTION('',(0.E0,1.E0,0.E0));
#262=AXIS2_PLACEMENT_3D('',#259,#260,#261);
#263=CYLINDRICAL_SURFACE('',#262,5.175E1);
#264=ORIENTED_EDGE('',*,*,#253,.T.);
#265=ORIENTED_EDGE('',*,*,#215,.T.);
#266=ORIENTED_EDGE('',*,*,#200,.T.);
#267=ORIENTED_EDGE('',*,*,#212,.F.);
#268=EDGE_LOOP('',(#264,#265,#266,#267));
#269=FACE_OUTER_BOUND('',#268,.F.);
#270=ADVANCED_FACE('',(#269),#263,.T.);
#271=CARTESIAN_POINT('',(0.E0,0.E0,0.E0));
#272=DIRECTION('',(1.E0,0.E0,0.E0));
#273=DIRECTION('',(0.E0,0.E0,-1.E0));
#274=AXIS2_PLACEMENT_3D('',#271,#272,#273);
#275=CYLINDRICAL_SURFACE('',#274,5.8E1);
#276=ORIENTED_EDGE('',*,*,#194,.T.);
#277=ORIENTED_EDGE('',*,*,#183,.F.);
#278=ORIENTED_EDGE('',*,*,#162,.F.);
#279=ORIENTED_EDGE('',*,*,#180,.T.);
#280=EDGE_LOOP('',(#276,#277,#278,#279));
#281=FACE_OUTER_BOUND('',#280,.F.);
#282=ADVANCED_FACE('',(#281),#275,.T.);
#283=CARTESIAN_POINT('',(1.092E2,0.E0,0.E0));
#284=DIRECTION('',(-1.E0,0.E0,0.E0));
#285=DIRECTION('',(0.E0,1.E0,0.E0));
#286=AXIS2_PLACEMENT_3D('',#283,#284,#285);
#287=CYLINDRICAL_SURFACE('',#286,5.025E1);
#288=ORIENTED_EDGE('',*,*,#166,.F.);
#290=ORIENTED_EDGE('',*,*,#289,.T.);
#292=ORIENTED_EDGE('',*,*,#291,.T.);
#294=ORIENTED_EDGE('',*,*,#293,.F.);
#295=EDGE_LOOP('',(#288,#290,#292,#294));
#296=FACE_OUTER_BOUND('',#295,.F.);
#297=ADVANCED_FACE('',(#296),#287,.F.);
#298=CARTESIAN_POINT('',(1.092E2,0.E0,0.E0));
#299=DIRECTION('',(-1.E0,0.E0,0.E0));
#300=DIRECTION('',(0.E0,1.E0,0.E0));
#301=AXIS2_PLACEMENT_3D('',#298,#299,#300);
#302=CYLINDRICAL_SURFACE('',#301,5.025E1);
#303=ORIENTED_EDGE('',*,*,#168,.F.);
#304=ORIENTED_EDGE('',*,*,#293,.T.);
#306=ORIENTED_EDGE('',*,*,#305,.F.);
#307=ORIENTED_EDGE('',*,*,#289,.F.);
#308=EDGE_LOOP('',(#303,#304,#306,#307));
#309=FACE_OUTER_BOUND('',#308,.F.);
#310=ADVANCED_FACE('',(#309),#302,.F.);
#311=CARTESIAN_POINT('',(9.615432852446E1,0.E0,0.E0));
#312=DIRECTION('',(-1.E0,0.E0,0.E0));
#313=DIRECTION('',(0.E0,1.E0,0.E0));
#314=AXIS2_PLACEMENT_3D('',#311,#312,#313);
#315=CONICAL_SURFACE('',#314,4.6875E1,3.E1);
#317=ORIENTED_EDGE('',*,*,#316,.F.);
#318=ORIENTED_EDGE('',*,*,#305,.T.);
#320=ORIENTED_EDGE('',*,*,#319,.T.);
#322=ORIENTED_EDGE('',*,*,#321,.F.);
#323=EDGE_LOOP('',(#317,#318,#320,#322));
#324=FACE_OUTER_BOUND('',#323,.F.);
#325=ADVANCED_FACE('',(#324),#315,.F.);
#326=CARTESIAN_POINT('',(9.615432852446E1,0.E0,0.E0));
#327=DIRECTION('',(-1.E0,0.E0,0.E0));
#328=DIRECTION('',(0.E0,1.E0,0.E0));
#329=AXIS2_PLACEMENT_3D('',#326,#327,#328);
#330=CONICAL_SURFACE('',#329,4.6875E1,3.E1);
#331=ORIENTED_EDGE('',*,*,#316,.T.);
#333=ORIENTED_EDGE('',*,*,#332,.T.);
#334=ORIENTED_EDGE('',*,*,#319,.F.);
#335=ORIENTED_EDGE('',*,*,#291,.F.);
#336=EDGE_LOOP('',(#331,#333,#334,#335));
#337=FACE_OUTER_BOUND('',#336,.F.);
#338=ADVANCED_FACE('',(#337),#330,.F.);
#339=CARTESIAN_POINT('',(1.02E2,0.E0,0.E0));
#340=DIRECTION('',(-1.E0,0.E0,0.E0));
#341=DIRECTION('',(0.E0,1.E0,0.E0));
#342=AXIS2_PLACEMENT_3D('',#339,#340,#341);
#343=PLANE('',#342);
#344=ORIENTED_EDGE('',*,*,#321,.T.);
#345=ORIENTED_EDGE('',*,*,#332,.F.);
#346=EDGE_LOOP('',(#344,#345));
#347=FACE_OUTER_BOUND('',#346,.F.);
#348=ADVANCED_FACE('',(#347),#343,.T.);
#349=CLOSED_SHELL('',(#172,#187,#204,#219,#234,#245,#258,#270,#282,#297,#310,
#325,#338,#348));
#350=MANIFOLD_SOLID_BREP('',#349);
#352=DIMENSIONAL_EXPONENTS(0.E0,0.E0,0.E0,0.E0,0.E0,0.E0,0.E0);
#354=PLANE_ANGLE_MEASURE_WITH_UNIT(PLANE_ANGLE_MEASURE(1.745329251994E-2),#353);
#355=(CONVERSION_BASED_UNIT('DEGREE',#354)NAMED_UNIT(*)PLANE_ANGLE_UNIT());
#357=UNCERTAINTY_MEASURE_WITH_UNIT(LENGTH_MEASURE(1.942291991961E-2),#351,
'closure',
'Maximum model space distance between geometric entities at asserted connectivities');
#358=(GEOMETRIC_REPRESENTATION_CONTEXT(3)GLOBAL_UNCERTAINTY_ASSIGNED_CONTEXT((
#357))GLOBAL_UNIT_ASSIGNED_CONTEXT((#351,#355,#356))REPRESENTATION_CONTEXT
('ID1','3'));
#360=APPLICATION_CONTEXT(
'CONFIGURATION CONTROLLED 3D DESIGNS OF MECHANICAL PARTS AND ASSEMBLIES');
#361=APPLICATION_PROTOCOL_DEFINITION('international standard',
'config_control_design',1994,#360);
#362=DESIGN_CONTEXT('',#360,'design');
#363=MECHANICAL_CONTEXT('',#360,'mechanical');
#364=PRODUCT('PC095965','PC095965','NOT SPECIFIED',(#363));
#365=PRODUCT_DEFINITION_FORMATION_WITH_SPECIFIED_SOURCE('2','LAST_VERSION',#364,
.MADE.);
#369=PRODUCT_CATEGORY('part','');
#370=PRODUCT_RELATED_PRODUCT_CATEGORY('detail','',(#364));
#371=PRODUCT_CATEGORY_RELATIONSHIP('','',#369,#370);
#372=SECURITY_CLASSIFICATION_LEVEL('unclassified');
#373=SECURITY_CLASSIFICATION('','',#372);
#374=CC_DESIGN_SECURITY_CLASSIFICATION(#373,(#365));
#375=APPROVAL_STATUS('approved');
#376=APPROVAL(#375,'');
#377=CC_DESIGN_APPROVAL(#376,(#373,#365,#366));
#378=CALENDAR_DATE(121,3,3);
#379=COORDINATED_UNIVERSAL_TIME_OFFSET(1,0,.AHEAD.);
#380=LOCAL_TIME(10,59,5.1E1,#379);
#381=DATE_AND_TIME(#378,#380);
#382=APPROVAL_DATE_TIME(#381,#376);
#383=DATE_TIME_ROLE('creation_date');
#384=CC_DESIGN_DATE_AND_TIME_ASSIGNMENT(#381,#383,(#366));
#385=DATE_TIME_ROLE('classification_date');
#386=CC_DESIGN_DATE_AND_TIME_ASSIGNMENT(#381,#385,(#373));
#387=PERSON('UNSPECIFIED','UNSPECIFIED',$,$,$,$);
#388=ORGANIZATION('UNSPECIFIED','UNSPECIFIED','UNSPECIFIED');
#389=PERSON_AND_ORGANIZATION(#387,#388);
#390=APPROVAL_ROLE('approver');
#391=APPROVAL_PERSON_ORGANIZATION(#389,#376,#390);
#392=PERSON_AND_ORGANIZATION_ROLE('creator');
#393=CC_DESIGN_PERSON_AND_ORGANIZATION_ASSIGNMENT(#389,#392,(#365,#366));
#394=PERSON_AND_ORGANIZATION_ROLE('design_supplier');
#395=CC_DESIGN_PERSON_AND_ORGANIZATION_ASSIGNMENT(#389,#394,(#365));
#396=PERSON_AND_ORGANIZATION_ROLE('classification_officer');
#397=CC_DESIGN_PERSON_AND_ORGANIZATION_ASSIGNMENT(#389,#396,(#373));
#398=PERSON_AND_ORGANIZATION_ROLE('design_owner');
#399=CC_DESIGN_PERSON_AND_ORGANIZATION_ASSIGNMENT(#389,#398,(#364));
#5=CIRCLE('',#4,5.8E1);
#10=CIRCLE('',#9,5.8E1);
#15=CIRCLE('',#14,5.025E1);
#20=CIRCLE('',#19,5.025E1);
#25=CIRCLE('',#24,5.8E1);
#34=CIRCLE('',#33,5.175E1);
#39=CIRCLE('',#38,5.175E1);
#44=CIRCLE('',#43,5.175E1);
#57=CIRCLE('',#56,2.E0);
#62=CIRCLE('',#61,4.975E1);
#67=CIRCLE('',#66,4.975E1);
#72=CIRCLE('',#71,2.E0);
#77=CIRCLE('',#76,5.175E1);
#82=CIRCLE('',#81,5.8E1);
#103=CIRCLE('',#102,5.025E1);
#112=CIRCLE('',#111,5.025E1);
#117=CIRCLE('',#116,4.35E1);
#122=CIRCLE('',#121,4.35E1);
#160=EDGE_CURVE('',#125,#126,#5,.T.);
#162=EDGE_CURVE('',#126,#125,#10,.T.);
#166=EDGE_CURVE('',#133,#134,#15,.T.);
#168=EDGE_CURVE('',#134,#133,#20,.T.);
#178=EDGE_CURVE('',#137,#138,#25,.T.);
#180=EDGE_CURVE('',#126,#138,#86,.T.);
#183=EDGE_CURVE('',#125,#137,#29,.T.);
#194=EDGE_CURVE('',#138,#137,#82,.T.);
#198=EDGE_CURVE('',#129,#130,#34,.T.);
#200=EDGE_CURVE('',#129,#130,#39,.T.);
#210=EDGE_CURVE('',#153,#154,#44,.T.);
#212=EDGE_CURVE('',#154,#130,#48,.T.);
#215=EDGE_CURVE('',#153,#129,#52,.T.);
#225=EDGE_CURVE('',#149,#150,#62,.T.);
#227=EDGE_CURVE('',#150,#154,#72,.T.);
#230=EDGE_CURVE('',#149,#153,#57,.T.);
#241=EDGE_CURVE('',#150,#149,#67,.T.);
#253=EDGE_CURVE('',#154,#153,#77,.T.);
#289=EDGE_CURVE('',#133,#140,#94,.T.);
#291=EDGE_CURVE('',#140,#142,#112,.T.);
#293=EDGE_CURVE('',#134,#142,#90,.T.);
#305=EDGE_CURVE('',#140,#142,#103,.T.);
#316=EDGE_CURVE('',#140,#144,#98,.T.);
#319=EDGE_CURVE('',#142,#146,#107,.T.);
#321=EDGE_CURVE('',#144,#146,#117,.T.);
#332=EDGE_CURVE('',#144,#146,#122,.T.);
#351=(LENGTH_UNIT()NAMED_UNIT(*)SI_UNIT(.MILLI.,.METRE.));
#353=(NAMED_UNIT(*)PLANE_ANGLE_UNIT()SI_UNIT($,.RADIAN.));
#356=(NAMED_UNIT(*)SI_UNIT($,.STERADIAN.)SOLID_ANGLE_UNIT());
#359=ADVANCED_BREP_SHAPE_REPRESENTATION('',(#350),#358);
#366=PRODUCT_DEFINITION('design','',#365,#362);
#367=PRODUCT_DEFINITION_SHAPE('','SHAPE FOR PC095965.',#366);
#368=SHAPE_DEFINITION_REPRESENTATION(#367,#359);
ENDSEC;
END-ISO-10303-21;
