ISO-10303-21;
HEADER;
FILE_DESCRIPTION (( 'STEP AP214' ),
    '1' );
FILE_NAME ('RondelleConique.STEP',
    '2021-03-12T12:17:22',
    ( '' ),
    ( '' ),
    'SwSTEP 2.0',
    'SolidWorks 2020',
    '' );
FILE_SCHEMA (( 'AUTOMOTIVE_DESIGN' ));
ENDSEC;

DATA;
#1 = FACE_OUTER_BOUND ( 'NONE', #179, .T. ) ;
#2 = CIRCLE ( 'NONE', #84, 19.75000000000000355 ) ;
#3 = CIRCLE ( 'NONE', #66, 16.25000000000001776 ) ;
#4 = MECHANICAL_DESIGN_GEOMETRIC_PRESENTATION_REPRESENTATION (  '', ( #186 ), #242 ) ;
#5 = FILL_AREA_STYLE_COLOUR ( '', #148 ) ;
#6 = PLANE ( 'NONE',  #17 ) ;
#7 = AXIS2_PLACEMENT_3D ( 'NONE', #239, #180, #30 ) ;
#8 = CARTESIAN_POINT ( 'NONE',  ( 0.000000000000000000, 0.000000000000000000, 0.000000000000000000 ) ) ;
#9 = CARTESIAN_POINT ( 'NONE',  ( 1.469576158976823750E-15, 9.491012693391989759E-16, 11.99999999999999645 ) ) ;
#10 = CARTESIAN_POINT ( 'NONE',  ( 0.000000000000000000, 9.491012693391989759E-16, -11.99999999999999645 ) ) ;
#11 =( GEOMETRIC_REPRESENTATION_CONTEXT ( 3 ) GLOBAL_UNCERTAINTY_ASSIGNED_CONTEXT ( ( #61 ) ) GLOBAL_UNIT_ASSIGNED_CONTEXT ( ( #134, #236, #92 ) ) REPRESENTATION_CONTEXT ( 'NONE', 'WORKASPACE' ) );
#12 = DIRECTION ( 'NONE',  ( -0.000000000000000000, -1.000000000000000000, -0.000000000000000000 ) ) ;
#13 = FACE_OUTER_BOUND ( 'NONE', #226, .T. ) ;
#14 = DIRECTION ( 'NONE',  ( -0.000000000000000000, -1.000000000000000000, -0.000000000000000000 ) ) ;
#15 = ORIENTED_EDGE ( 'NONE', *, *, #78, .T. ) ;
#16 = DIRECTION ( 'NONE',  ( 0.000000000000000000, 0.000000000000000000, -1.000000000000000000 ) ) ;
#17 = AXIS2_PLACEMENT_3D ( 'NONE', #88, #45, #48 ) ;
#18 = CYLINDRICAL_SURFACE ( 'NONE', #132, 11.99999999999999822 ) ;
#19 = VERTEX_POINT ( 'NONE', #122 ) ;
#20 = EDGE_CURVE ( 'NONE', #169, #228, #123, .T. ) ;
#21 = VERTEX_POINT ( 'NONE', #258 ) ;
#22 = CARTESIAN_POINT ( 'NONE',  ( 0.000000000000000000, 4.000000000000000000, 0.000000000000000000 ) ) ;
#23 = EDGE_CURVE ( 'NONE', #169, #21, #2, .T. ) ;
#24 = AXIS2_PLACEMENT_3D ( 'NONE', #130, #83, #215 ) ;
#25 = DIRECTION ( 'NONE',  ( 0.000000000000000000, 0.000000000000000000, -1.000000000000000000 ) ) ;
#26 = CYLINDRICAL_SURFACE ( 'NONE', #89, 11.99999999999999822 ) ;
#27 = FACE_OUTER_BOUND ( 'NONE', #202, .T. ) ;
#28 = PRODUCT_RELATED_PRODUCT_CATEGORY ( 'part', '', ( #140 ) ) ;
#29 = COLOUR_RGB ( '',0.7921568627450980005, 0.8196078431372548767, 0.9333333333333333481 ) ;
#30 = DIRECTION ( 'NONE',  ( 0.000000000000000000, 0.000000000000000000, -1.000000000000000000 ) ) ;
#31 = DIRECTION ( 'NONE',  ( -0.000000000000000000, -1.000000000000000000, -0.000000000000000000 ) ) ;
#32 = ADVANCED_FACE ( 'NONE', ( #263 ), #18, .F. ) ;
#33 = EDGE_LOOP ( 'NONE', ( #39, #102, #182, #248 ) ) ;
#34 = CIRCLE ( 'NONE', #62, 19.75000000000000355 ) ;
#35 = DIRECTION ( 'NONE',  ( -0.000000000000000000, -1.000000000000000000, -0.000000000000000000 ) ) ;
#36 = CARTESIAN_POINT ( 'NONE',  ( 1.469576158976823750E-15, 0.000000000000000000, 11.99999999999999822 ) ) ;
#37 = EDGE_CURVE ( 'NONE', #203, #228, #34, .T. ) ;
#38 = DIRECTION ( 'NONE',  ( 0.000000000000000000, 0.000000000000000000, -1.000000000000000000 ) ) ;
#39 = ORIENTED_EDGE ( 'NONE', *, *, #82, .T. ) ;
#40 = PRODUCT_CONTEXT ( 'NONE', #107, 'mechanical' ) ;
#41 = EDGE_LOOP ( 'NONE', ( #124, #99, #206, #54 ) ) ;
#42 = ORIENTED_EDGE ( 'NONE', *, *, #216, .T. ) ;
#43 = CIRCLE ( 'NONE', #65, 19.75000000000000355 ) ;
#44 = AXIS2_PLACEMENT_3D ( 'NONE', #103, #98, #225 ) ;
#45 = DIRECTION ( 'NONE',  ( 0.000000000000000000, -1.000000000000000000, -0.000000000000000000 ) ) ;
#46 = APPLICATION_CONTEXT ( 'automotive_design' ) ;
#47 = CARTESIAN_POINT ( 'NONE',  ( 1.469576158976824144E-15, 4.000000000000000000, 12.00000000000000178 ) ) ;
#48 = DIRECTION ( 'NONE',  ( 0.000000000000000000, 0.000000000000000000, -1.000000000000000000 ) ) ;
#49 = FILL_AREA_STYLE ('',( #5 ) ) ;
#50 = DIRECTION ( 'NONE',  ( 0.000000000000000000, 0.000000000000000000, -1.000000000000000000 ) ) ;
#51 = CONICAL_SURFACE ( 'NONE', #24, 16.25000000000001776, 0.7853981633974463916 ) ;
#52 = EDGE_CURVE ( 'NONE', #142, #96, #157, .T. ) ;
#53 = PRESENTATION_STYLE_ASSIGNMENT (( #196 ) ) ;
#54 = ORIENTED_EDGE ( 'NONE', *, *, #213, .F. ) ;
#55 = DIRECTION ( 'NONE',  ( 0.000000000000000000, 0.000000000000000000, -1.000000000000000000 ) ) ;
#56 = DIRECTION ( 'NONE',  ( -0.000000000000000000, -1.000000000000000000, -0.000000000000000000 ) ) ;
#57 = ORIENTED_EDGE ( 'NONE', *, *, #87, .F. ) ;
#58 = VECTOR ( 'NONE', #217, 1000.000000000000000 ) ;
#59 = ORIENTED_EDGE ( 'NONE', *, *, #52, .T. ) ;
#60 = CARTESIAN_POINT ( 'NONE',  ( 0.000000000000000000, 0.000000000000000000, 0.000000000000000000 ) ) ;
#61 = UNCERTAINTY_MEASURE_WITH_UNIT (LENGTH_MEASURE( 1.000000000000000082E-05 ), #134, 'distance_accuracy_value', 'NONE');
#62 = AXIS2_PLACEMENT_3D ( 'NONE', #207, #161, #55 ) ;
#63 = PLANE ( 'NONE',  #137 ) ;
#64 = PRODUCT_DEFINITION_CONTEXT ( 'detailed design', #46, 'design' ) ;
#65 = AXIS2_PLACEMENT_3D ( 'NONE', #79, #14, #170 ) ;
#66 = AXIS2_PLACEMENT_3D ( 'NONE', #109, #86, #25 ) ;
#67 = CARTESIAN_POINT ( 'NONE',  ( 0.000000000000000000, 9.491012693391989759E-16, 0.000000000000000000 ) ) ;
#68 = DIRECTION ( 'NONE',  ( -0.000000000000000000, -1.000000000000000000, -0.000000000000000000 ) ) ;
#69 = ORIENTED_EDGE ( 'NONE', *, *, #82, .F. ) ;
#70 = DIRECTION ( 'NONE',  ( 0.000000000000000000, 0.000000000000000000, -1.000000000000000000 ) ) ;
#71 = ORIENTED_EDGE ( 'NONE', *, *, #195, .F. ) ;
#72 = VECTOR ( 'NONE', #120, 1000.000000000000000 ) ;
#73 = EDGE_CURVE ( 'NONE', #142, #208, #221, .T. ) ;
#74 = ORIENTED_EDGE ( 'NONE', *, *, #20, .F. ) ;
#75 = CARTESIAN_POINT ( 'NONE',  ( 0.000000000000000000, 3.999999999999999112, 0.000000000000000000 ) ) ;
#76 = DIRECTION ( 'NONE',  ( 0.000000000000000000, 0.000000000000000000, -1.000000000000000000 ) ) ;
#77 = ORIENTED_EDGE ( 'NONE', *, *, #204, .T. ) ;
#78 = EDGE_CURVE ( 'NONE', #21, #203, #166, .T. ) ;
#79 = CARTESIAN_POINT ( 'NONE',  ( 0.000000000000000000, 0.5000000000000000000, 0.000000000000000000 ) ) ;
#80 = ORIENTED_EDGE ( 'NONE', *, *, #73, .F. ) ;
#81 =( LENGTH_UNIT ( ) NAMED_UNIT ( * ) SI_UNIT ( .MILLI., .METRE. ) );
#82 = EDGE_CURVE ( 'NONE', #21, #169, #43, .T. ) ;
#83 = DIRECTION ( 'NONE',  ( -0.000000000000000000, -1.000000000000000000, -0.000000000000000000 ) ) ;
#84 = AXIS2_PLACEMENT_3D ( 'NONE', #144, #115, #16 ) ;
#85 = AXIS2_PLACEMENT_3D ( 'NONE', #67, #162, #116 ) ;
#86 = DIRECTION ( 'NONE',  ( -0.000000000000000000, -1.000000000000000000, -0.000000000000000000 ) ) ;
#87 = EDGE_CURVE ( 'NONE', #208, #224, #197, .T. ) ;
#88 = CARTESIAN_POINT ( 'NONE',  ( -12.00000000000000000, 4.000000000000000000, 0.000000000000000000 ) ) ;
#89 = AXIS2_PLACEMENT_3D ( 'NONE', #60, #152, #252 ) ;
#90 =( NAMED_UNIT ( * ) PLANE_ANGLE_UNIT ( ) SI_UNIT ( $, .RADIAN. ) );
#91 =( NAMED_UNIT ( * ) SI_UNIT ( $, .STERADIAN. ) SOLID_ANGLE_UNIT ( ) );
#92 =( NAMED_UNIT ( * ) SI_UNIT ( $, .STERADIAN. ) SOLID_ANGLE_UNIT ( ) );
#93 = CARTESIAN_POINT ( 'NONE',  ( 0.000000000000000000, 0.000000000000000000, 0.000000000000000000 ) ) ;
#94 = CARTESIAN_POINT ( 'NONE',  ( 0.000000000000000000, 3.999999999999999112, -16.25000000000001776 ) ) ;
#95 = CARTESIAN_POINT ( 'NONE',  ( 0.000000000000000000, 9.491012693391989759E-16, 0.000000000000000000 ) ) ;
#96 = VERTEX_POINT ( 'NONE', #139 ) ;
#97 = CARTESIAN_POINT ( 'NONE',  ( 0.000000000000000000, 4.000000000000000000, 0.000000000000000000 ) ) ;
#98 = DIRECTION ( 'NONE',  ( 0.000000000000000000, 0.000000000000000000, 1.000000000000000000 ) ) ;
#99 = ORIENTED_EDGE ( 'NONE', *, *, #73, .T. ) ;
#100 = FACE_OUTER_BOUND ( 'NONE', #33, .T. ) ;
#101 = ADVANCED_FACE ( 'NONE', ( #100 ), #205, .T. ) ;
#102 = ORIENTED_EDGE ( 'NONE', *, *, #20, .T. ) ;
#103 = CARTESIAN_POINT ( 'NONE',  ( 0.000000000000000000, 0.000000000000000000, 0.000000000000000000 ) ) ;
#104 = CIRCLE ( 'NONE', #198, 12.00000000000000000 ) ;
#105 = EDGE_LOOP ( 'NONE', ( #163, #121 ) ) ;
#106 = PRESENTATION_STYLE_ASSIGNMENT (( #194 ) ) ;
#107 = APPLICATION_CONTEXT ( 'automotive_design' ) ;
#108 = PRODUCT_DEFINITION ( 'UNKNOWN', '', #138, #64 ) ;
#109 = CARTESIAN_POINT ( 'NONE',  ( 0.000000000000000000, 3.999999999999999112, 0.000000000000000000 ) ) ;
#110 = AXIS2_PLACEMENT_3D ( 'NONE', #95, #12, #38 ) ;
#111 = DIRECTION ( 'NONE',  ( 0.000000000000000000, 1.000000000000000000, 0.000000000000000000 ) ) ;
#112 = APPLICATION_PROTOCOL_DEFINITION ( 'draft international standard', 'automotive_design', 1998, #107 ) ;
#113 = AXIS2_PLACEMENT_3D ( 'NONE', #8, #31, #70 ) ;
#114 = LINE ( 'NONE', #160, #164 ) ;
#115 = DIRECTION ( 'NONE',  ( -0.000000000000000000, -1.000000000000000000, -0.000000000000000000 ) ) ;
#116 = DIRECTION ( 'NONE',  ( 0.000000000000000000, 0.000000000000000000, -1.000000000000000000 ) ) ;
#117 = DIRECTION ( 'NONE',  ( -0.000000000000000000, -1.000000000000000000, -0.000000000000000000 ) ) ;
#118 = PRODUCT_DEFINITION_SHAPE ( 'NONE', 'NONE',  #108 ) ;
#119 = VERTEX_POINT ( 'NONE', #185 ) ;
#120 = DIRECTION ( 'NONE',  ( -0.000000000000000000, -1.000000000000000000, -0.000000000000000000 ) ) ;
#121 = ORIENTED_EDGE ( 'NONE', *, *, #195, .T. ) ;
#122 = CARTESIAN_POINT ( 'NONE',  ( 2.204364238465237006E-15, 3.999999999999999112, 16.25000000000001776 ) ) ;
#123 = LINE ( 'NONE', #223, #153 ) ;
#124 = ORIENTED_EDGE ( 'NONE', *, *, #52, .F. ) ;
#125 = EDGE_CURVE ( 'NONE', #19, #119, #259, .T. ) ;
#126 = CARTESIAN_POINT ( 'NONE',  ( -19.75000000000000355, 4.745506346695994880E-16, 0.000000000000000000 ) ) ;
#127 = ADVANCED_FACE ( 'NONE', ( #1, #172 ), #6, .F. ) ;
#128 = DIRECTION ( 'NONE',  ( -0.000000000000000000, -1.000000000000000000, -0.000000000000000000 ) ) ;
#129 = UNCERTAINTY_MEASURE_WITH_UNIT (LENGTH_MEASURE( 1.000000000000000082E-05 ), #219, 'distance_accuracy_value', 'NONE');
#130 = CARTESIAN_POINT ( 'NONE',  ( 0.000000000000000000, 3.999999999999999112, 0.000000000000000000 ) ) ;
#131 = SURFACE_STYLE_FILL_AREA ( #49 ) ;
#132 = AXIS2_PLACEMENT_3D ( 'NONE', #261, #247, #243 ) ;
#133 = CONICAL_SURFACE ( 'NONE', #238, 16.25000000000001776, 0.7853981633974463916 ) ;
#134 =( LENGTH_UNIT ( ) NAMED_UNIT ( * ) SI_UNIT ( .MILLI., .METRE. ) );
#135 = DIRECTION ( 'NONE',  ( 0.000000000000000000, -0.7071067811865489050, -0.7071067811865462405 ) ) ;
#136 = ORIENTED_EDGE ( 'NONE', *, *, #204, .F. ) ;
#137 = AXIS2_PLACEMENT_3D ( 'NONE', #126, #111, #154 ) ;
#138 = PRODUCT_DEFINITION_FORMATION_WITH_SPECIFIED_SOURCE ( 'ANY', '', #140, .NOT_KNOWN. ) ;
#139 = CARTESIAN_POINT ( 'NONE',  ( 0.000000000000000000, 4.000000000000000000, -12.00000000000000000 ) ) ;
#140 = PRODUCT ( 'RondelleConique', 'RondelleConique', '', ( #40 ) ) ;
#141 = EDGE_LOOP ( 'NONE', ( #136, #145, #42, #188 ) ) ;
#142 = VERTEX_POINT ( 'NONE', #47 ) ;
#143 = ORIENTED_EDGE ( 'NONE', *, *, #216, .F. ) ;
#144 = CARTESIAN_POINT ( 'NONE',  ( 0.000000000000000000, 0.5000000000000000000, 0.000000000000000000 ) ) ;
#145 = ORIENTED_EDGE ( 'NONE', *, *, #125, .T. ) ;
#146 = ADVANCED_FACE ( 'NONE', ( #234 ), #51, .T. ) ;
#147 = AXIS2_PLACEMENT_3D ( 'NONE', #93, #256, #262 ) ;
#148 = COLOUR_RGB ( '',0.7921568627450980005, 0.8196078431372548767, 0.9333333333333333481 ) ;
#149 =( NAMED_UNIT ( * ) PLANE_ANGLE_UNIT ( ) SI_UNIT ( $, .RADIAN. ) );
#150 = CARTESIAN_POINT ( 'NONE',  ( 2.418677428316023120E-15, 0.5000000000000000000, 19.75000000000000355 ) ) ;
#151 = ADVANCED_FACE ( 'NONE', ( #173 ), #26, .F. ) ;
#152 = DIRECTION ( 'NONE',  ( -0.000000000000000000, -1.000000000000000000, -0.000000000000000000 ) ) ;
#153 = VECTOR ( 'NONE', #35, 1000.000000000000000 ) ;
#154 = DIRECTION ( 'NONE',  ( 0.000000000000000000, -0.000000000000000000, 1.000000000000000000 ) ) ;
#155 = LINE ( 'NONE', #218, #58 ) ;
#156 = EDGE_CURVE ( 'NONE', #96, #142, #104, .T. ) ;
#157 = CIRCLE ( 'NONE', #174, 12.00000000000000000 ) ;
#158 = SURFACE_SIDE_STYLE ('',( #199 ) ) ;
#159 = ADVANCED_FACE ( 'NONE', ( #251, #193 ), #63, .F. ) ;
#160 = CARTESIAN_POINT ( 'NONE',  ( 1.990051048614451285E-15, 3.999999999999999112, 16.25000000000001776 ) ) ;
#161 = DIRECTION ( 'NONE',  ( -0.000000000000000000, -1.000000000000000000, -0.000000000000000000 ) ) ;
#162 = DIRECTION ( 'NONE',  ( -0.000000000000000000, -1.000000000000000000, -0.000000000000000000 ) ) ;
#163 = ORIENTED_EDGE ( 'NONE', *, *, #37, .T. ) ;
#164 = VECTOR ( 'NONE', #235, 1000.000000000000000 ) ;
#165 = ORIENTED_EDGE ( 'NONE', *, *, #23, .T. ) ;
#166 = LINE ( 'NONE', #201, #72 ) ;
#167 = ORIENTED_EDGE ( 'NONE', *, *, #253, .T. ) ;
#168 = SHAPE_DEFINITION_REPRESENTATION ( #118, #175 ) ;
#169 = VERTEX_POINT ( 'NONE', #150 ) ;
#170 = DIRECTION ( 'NONE',  ( 0.000000000000000000, 0.000000000000000000, -1.000000000000000000 ) ) ;
#171 = CARTESIAN_POINT ( 'NONE',  ( 0.000000000000000000, 3.999999999999999112, 0.000000000000000000 ) ) ;
#172 = FACE_BOUND ( 'NONE', #191, .T. ) ;
#173 = FACE_OUTER_BOUND ( 'NONE', #41, .T. ) ;
#174 = AXIS2_PLACEMENT_3D ( 'NONE', #97, #244, #209 ) ;
#175 = ADVANCED_BREP_SHAPE_REPRESENTATION ( 'RondelleConique', ( #181, #44 ), #11 ) ;
#176 = FILL_AREA_STYLE ('',( #220 ) ) ;
#177 = EDGE_CURVE ( 'NONE', #119, #19, #3, .T. ) ;
#178 = MECHANICAL_DESIGN_GEOMETRIC_PRESENTATION_REPRESENTATION (  '', ( #231 ), #184 ) ;
#179 = EDGE_LOOP ( 'NONE', ( #212, #246 ) ) ;
#180 = DIRECTION ( 'NONE',  ( -0.000000000000000000, -1.000000000000000000, -0.000000000000000000 ) ) ;
#181 = MANIFOLD_SOLID_BREP ( 'Révolution1', #264 ) ;
#182 = ORIENTED_EDGE ( 'NONE', *, *, #37, .F. ) ;
#183 = EDGE_LOOP ( 'NONE', ( #241, #57 ) ) ;
#184 =( GEOMETRIC_REPRESENTATION_CONTEXT ( 3 ) GLOBAL_UNCERTAINTY_ASSIGNED_CONTEXT ( ( #233 ) ) GLOBAL_UNIT_ASSIGNED_CONTEXT ( ( #81, #149, #232 ) ) REPRESENTATION_CONTEXT ( 'NONE', 'WORKASPACE' ) );
#185 = CARTESIAN_POINT ( 'NONE',  ( 0.000000000000000000, 3.999999999999999112, -16.25000000000001776 ) ) ;
#186 = STYLED_ITEM ( 'NONE', ( #53 ), #175 ) ;
#187 = ORIENTED_EDGE ( 'NONE', *, *, #156, .T. ) ;
#188 = ORIENTED_EDGE ( 'NONE', *, *, #23, .F. ) ;
#189 = EDGE_LOOP ( 'NONE', ( #80, #245, #229, #167 ) ) ;
#190 = ADVANCED_FACE ( 'NONE', ( #13 ), #133, .T. ) ;
#191 = EDGE_LOOP ( 'NONE', ( #187, #59 ) ) ;
#192 = VECTOR ( 'NONE', #135, 1000.000000000000000 ) ;
#193 = FACE_OUTER_BOUND ( 'NONE', #105, .T. ) ;
#194 = SURFACE_STYLE_USAGE ( .BOTH. , #250 ) ;
#195 = EDGE_CURVE ( 'NONE', #228, #203, #227, .T. ) ;
#196 = SURFACE_STYLE_USAGE ( .BOTH. , #158 ) ;
#197 = CIRCLE ( 'NONE', #110, 11.99999999999999645 ) ;
#198 = AXIS2_PLACEMENT_3D ( 'NONE', #22, #128, #214 ) ;
#199 = SURFACE_STYLE_FILL_AREA ( #176 ) ;
#200 = CARTESIAN_POINT ( 'NONE',  ( 0.000000000000000000, 0.000000000000000000, -19.75000000000000355 ) ) ;
#201 = CARTESIAN_POINT ( 'NONE',  ( 0.000000000000000000, 0.000000000000000000, -19.75000000000000355 ) ) ;
#202 = EDGE_LOOP ( 'NONE', ( #74, #165, #15, #71 ) ) ;
#203 = VERTEX_POINT ( 'NONE', #200 ) ;
#204 = EDGE_CURVE ( 'NONE', #19, #169, #114, .T. ) ;
#205 = CYLINDRICAL_SURFACE ( 'NONE', #147, 19.75000000000000355 ) ;
#206 = ORIENTED_EDGE ( 'NONE', *, *, #87, .T. ) ;
#207 = CARTESIAN_POINT ( 'NONE',  ( 0.000000000000000000, 0.000000000000000000, 0.000000000000000000 ) ) ;
#208 = VERTEX_POINT ( 'NONE', #9 ) ;
#209 = DIRECTION ( 'NONE',  ( 0.000000000000000000, 0.000000000000000000, -1.000000000000000000 ) ) ;
#210 = APPLICATION_PROTOCOL_DEFINITION ( 'draft international standard', 'automotive_design', 1998, #46 ) ;
#211 = PRESENTATION_LAYER_ASSIGNMENT (  '', '', ( #231 ) ) ;
#212 = ORIENTED_EDGE ( 'NONE', *, *, #177, .F. ) ;
#213 = EDGE_CURVE ( 'NONE', #96, #224, #155, .T. ) ;
#214 = DIRECTION ( 'NONE',  ( 0.000000000000000000, 0.000000000000000000, -1.000000000000000000 ) ) ;
#215 = DIRECTION ( 'NONE',  ( 0.000000000000000000, 0.000000000000000000, -1.000000000000000000 ) ) ;
#216 = EDGE_CURVE ( 'NONE', #119, #21, #255, .T. ) ;
#217 = DIRECTION ( 'NONE',  ( -0.000000000000000000, -1.000000000000000000, -0.000000000000000000 ) ) ;
#218 = CARTESIAN_POINT ( 'NONE',  ( 0.000000000000000000, 0.000000000000000000, -11.99999999999999822 ) ) ;
#219 =( LENGTH_UNIT ( ) NAMED_UNIT ( * ) SI_UNIT ( .MILLI., .METRE. ) );
#220 = FILL_AREA_STYLE_COLOUR ( '', #29 ) ;
#221 = LINE ( 'NONE', #36, #254 ) ;
#222 = ADVANCED_FACE ( 'NONE', ( #27 ), #257, .T. ) ;
#223 = CARTESIAN_POINT ( 'NONE',  ( 2.418677428316023120E-15, 0.000000000000000000, 19.75000000000000355 ) ) ;
#224 = VERTEX_POINT ( 'NONE', #10 ) ;
#225 = DIRECTION ( 'NONE',  ( 1.000000000000000000, 0.000000000000000000, 0.000000000000000000 ) ) ;
#226 = EDGE_LOOP ( 'NONE', ( #230, #77, #69, #143 ) ) ;
#227 = CIRCLE ( 'NONE', #7, 19.75000000000000355 ) ;
#228 = VERTEX_POINT ( 'NONE', #240 ) ;
#229 = ORIENTED_EDGE ( 'NONE', *, *, #213, .T. ) ;
#230 = ORIENTED_EDGE ( 'NONE', *, *, #177, .T. ) ;
#231 = STYLED_ITEM ( 'NONE', ( #106 ), #181 ) ;
#232 =( NAMED_UNIT ( * ) SI_UNIT ( $, .STERADIAN. ) SOLID_ANGLE_UNIT ( ) );
#233 = UNCERTAINTY_MEASURE_WITH_UNIT (LENGTH_MEASURE( 1.000000000000000082E-05 ), #81, 'distance_accuracy_value', 'NONE');
#234 = FACE_OUTER_BOUND ( 'NONE', #141, .T. ) ;
#235 = DIRECTION ( 'NONE',  ( 8.659560562354915602E-17, -0.7071067811865489050, 0.7071067811865462405 ) ) ;
#236 =( NAMED_UNIT ( * ) PLANE_ANGLE_UNIT ( ) SI_UNIT ( $, .RADIAN. ) );
#237 = AXIS2_PLACEMENT_3D ( 'NONE', #75, #56, #76 ) ;
#238 = AXIS2_PLACEMENT_3D ( 'NONE', #171, #68, #50 ) ;
#239 = CARTESIAN_POINT ( 'NONE',  ( 0.000000000000000000, 0.000000000000000000, 0.000000000000000000 ) ) ;
#240 = CARTESIAN_POINT ( 'NONE',  ( 2.418677428316023120E-15, 0.000000000000000000, 19.75000000000000355 ) ) ;
#241 = ORIENTED_EDGE ( 'NONE', *, *, #253, .F. ) ;
#242 =( GEOMETRIC_REPRESENTATION_CONTEXT ( 3 ) GLOBAL_UNCERTAINTY_ASSIGNED_CONTEXT ( ( #129 ) ) GLOBAL_UNIT_ASSIGNED_CONTEXT ( ( #219, #90, #91 ) ) REPRESENTATION_CONTEXT ( 'NONE', 'WORKASPACE' ) );
#243 = DIRECTION ( 'NONE',  ( 0.000000000000000000, 0.000000000000000000, -1.000000000000000000 ) ) ;
#244 = DIRECTION ( 'NONE',  ( -0.000000000000000000, -1.000000000000000000, -0.000000000000000000 ) ) ;
#245 = ORIENTED_EDGE ( 'NONE', *, *, #156, .F. ) ;
#246 = ORIENTED_EDGE ( 'NONE', *, *, #125, .F. ) ;
#247 = DIRECTION ( 'NONE',  ( -0.000000000000000000, -1.000000000000000000, -0.000000000000000000 ) ) ;
#248 = ORIENTED_EDGE ( 'NONE', *, *, #78, .F. ) ;
#249 = PRESENTATION_LAYER_ASSIGNMENT (  '', '', ( #186 ) ) ;
#250 = SURFACE_SIDE_STYLE ('',( #131 ) ) ;
#251 = FACE_BOUND ( 'NONE', #183, .T. ) ;
#252 = DIRECTION ( 'NONE',  ( 0.000000000000000000, 0.000000000000000000, -1.000000000000000000 ) ) ;
#253 = EDGE_CURVE ( 'NONE', #224, #208, #260, .T. ) ;
#254 = VECTOR ( 'NONE', #117, 1000.000000000000000 ) ;
#255 = LINE ( 'NONE', #94, #192 ) ;
#256 = DIRECTION ( 'NONE',  ( -0.000000000000000000, -1.000000000000000000, -0.000000000000000000 ) ) ;
#257 = CYLINDRICAL_SURFACE ( 'NONE', #113, 19.75000000000000355 ) ;
#258 = CARTESIAN_POINT ( 'NONE',  ( 0.000000000000000000, 0.5000000000000000000, -19.75000000000000355 ) ) ;
#259 = CIRCLE ( 'NONE', #237, 16.25000000000001776 ) ;
#260 = CIRCLE ( 'NONE', #85, 11.99999999999999645 ) ;
#261 = CARTESIAN_POINT ( 'NONE',  ( 0.000000000000000000, 0.000000000000000000, 0.000000000000000000 ) ) ;
#262 = DIRECTION ( 'NONE',  ( 0.000000000000000000, 0.000000000000000000, -1.000000000000000000 ) ) ;
#263 = FACE_OUTER_BOUND ( 'NONE', #189, .T. ) ;
#264 = CLOSED_SHELL ( 'NONE', ( #190, #151, #101, #222, #159, #32, #127, #146 ) ) ;
ENDSEC;
END-ISO-10303-21;
