ISO-10303-21;
HEADER;
FILE_DESCRIPTION(
(''),
'2;1');
FILE_NAME(
'C:\part.stp',
'2000-01-01T12:00:00+0:00',
(''),
(''),
'',
'fCAD',
'');
FILE_SCHEMA (('AUTOMOTIVE_DESIGN { 1 0 10303 214 3 1 1 }'));
ENDSEC;
DATA;
#10=MECHANICAL_DESIGN_GEOMETRIC_PRESENTATION_REPRESENTATION('',(#48,#49,
#51,#52,#53,#50,#54),#373);
#11=ITEM_DEFINED_TRANSFORMATION($,$,#231,#253);
#12=(
REPRESENTATION_RELATIONSHIP($,$,#386,#385)
REPRESENTATION_RELATIONSHIP_WITH_TRANSFORMATION(#11)
SHAPE_REPRESENTATION_RELATIONSHIP()
);
#13=CONTEXT_DEPENDENT_SHAPE_REPRESENTATION(#12,#384);
#14=NEXT_ASSEMBLY_USAGE_OCCURRENCE('barre DRNHF2-BAR01:1',
'barre DRNHF2-BAR01:1','barre DRNHF2-BAR01:1',#388,#389,
'barre DRNHF2-BAR01:1');
#15=SHAPE_REPRESENTATION_RELATIONSHIP('SRR','None',#386,#16);
#16=ADVANCED_BREP_SHAPE_REPRESENTATION('',(#17),#372);
#17=MANIFOLD_SOLID_BREP('Solid1',#217);
#18=LINE('',#344,#30);
#19=LINE('',#346,#31);
#20=LINE('',#348,#32);
#21=LINE('',#349,#33);
#22=LINE('',#353,#34);
#23=LINE('',#354,#35);
#24=LINE('',#355,#36);
#25=LINE('',#358,#37);
#26=LINE('',#359,#38);
#27=LINE('',#362,#39);
#28=LINE('',#363,#40);
#29=LINE('',#365,#41);
#30=VECTOR('',#290,10.);
#31=VECTOR('',#291,10.);
#32=VECTOR('',#292,10.);
#33=VECTOR('',#293,10.);
#34=VECTOR('',#296,10.);
#35=VECTOR('',#297,10.);
#36=VECTOR('',#298,10.);
#37=VECTOR('',#301,10.);
#38=VECTOR('',#302,10.);
#39=VECTOR('',#305,10.);
#40=VECTOR('',#306,10.);
#41=VECTOR('',#309,10.);
#42=PLANE('',#247);
#43=PLANE('',#248);
#44=PLANE('',#249);
#45=PLANE('',#250);
#46=PLANE('',#251);
#47=PLANE('',#252);
#48=STYLED_ITEM('',(#402),#211);
#49=STYLED_ITEM('',(#402),#212);
#50=STYLED_ITEM('',(#402),#213);
#51=STYLED_ITEM('',(#402),#214);
#52=STYLED_ITEM('',(#402),#215);
#53=STYLED_ITEM('',(#402),#216);
#54=STYLED_ITEM('',(#402),#17);
#55=FACE_BOUND('',#82,.T.);
#56=FACE_BOUND('',#84,.T.);
#57=FACE_BOUND('',#86,.T.);
#58=FACE_BOUND('',#88,.T.);
#59=FACE_BOUND('',#90,.T.);
#60=FACE_BOUND('',#93,.T.);
#61=FACE_BOUND('',#94,.T.);
#62=FACE_BOUND('',#95,.T.);
#63=FACE_BOUND('',#97,.T.);
#64=FACE_BOUND('',#98,.T.);
#65=FACE_BOUND('',#100,.T.);
#66=FACE_BOUND('',#101,.T.);
#67=FACE_BOUND('',#102,.T.);
#68=FACE_BOUND('',#104,.T.);
#69=FACE_BOUND('',#105,.T.);
#70=FACE_OUTER_BOUND('',#81,.T.);
#71=FACE_OUTER_BOUND('',#83,.T.);
#72=FACE_OUTER_BOUND('',#85,.T.);
#73=FACE_OUTER_BOUND('',#87,.T.);
#74=FACE_OUTER_BOUND('',#89,.T.);
#75=FACE_OUTER_BOUND('',#91,.T.);
#76=FACE_OUTER_BOUND('',#92,.T.);
#77=FACE_OUTER_BOUND('',#96,.T.);
#78=FACE_OUTER_BOUND('',#99,.T.);
#79=FACE_OUTER_BOUND('',#103,.T.);
#80=FACE_OUTER_BOUND('',#106,.T.);
#81=EDGE_LOOP('',(#157));
#82=EDGE_LOOP('',(#158));
#83=EDGE_LOOP('',(#159));
#84=EDGE_LOOP('',(#160));
#85=EDGE_LOOP('',(#161));
#86=EDGE_LOOP('',(#162));
#87=EDGE_LOOP('',(#163));
#88=EDGE_LOOP('',(#164));
#89=EDGE_LOOP('',(#165));
#90=EDGE_LOOP('',(#166));
#91=EDGE_LOOP('',(#167,#168,#169,#170));
#92=EDGE_LOOP('',(#171,#172,#173,#174));
#93=EDGE_LOOP('',(#175));
#94=EDGE_LOOP('',(#176));
#95=EDGE_LOOP('',(#177));
#96=EDGE_LOOP('',(#178,#179,#180,#181));
#97=EDGE_LOOP('',(#182));
#98=EDGE_LOOP('',(#183));
#99=EDGE_LOOP('',(#184,#185,#186,#187));
#100=EDGE_LOOP('',(#188));
#101=EDGE_LOOP('',(#189));
#102=EDGE_LOOP('',(#190));
#103=EDGE_LOOP('',(#191,#192,#193,#194));
#104=EDGE_LOOP('',(#195));
#105=EDGE_LOOP('',(#196));
#106=EDGE_LOOP('',(#197,#198,#199,#200));
#107=CIRCLE('',#233,2.4585);
#108=CIRCLE('',#234,2.4585);
#109=CIRCLE('',#236,2.4585);
#110=CIRCLE('',#237,2.4585);
#111=CIRCLE('',#239,2.4585);
#112=CIRCLE('',#240,2.4585);
#113=CIRCLE('',#242,2.4585);
#114=CIRCLE('',#243,2.4585);
#115=CIRCLE('',#245,2.4585);
#116=CIRCLE('',#246,2.4585);
#117=VERTEX_POINT('',#317);
#118=VERTEX_POINT('',#319);
#119=VERTEX_POINT('',#322);
#120=VERTEX_POINT('',#324);
#121=VERTEX_POINT('',#327);
#122=VERTEX_POINT('',#329);
#123=VERTEX_POINT('',#332);
#124=VERTEX_POINT('',#334);
#125=VERTEX_POINT('',#337);
#126=VERTEX_POINT('',#339);
#127=VERTEX_POINT('',#342);
#128=VERTEX_POINT('',#343);
#129=VERTEX_POINT('',#345);
#130=VERTEX_POINT('',#347);
#131=VERTEX_POINT('',#351);
#132=VERTEX_POINT('',#352);
#133=VERTEX_POINT('',#357);
#134=VERTEX_POINT('',#361);
#135=EDGE_CURVE('',#117,#117,#107,.T.);
#136=EDGE_CURVE('',#118,#118,#108,.T.);
#137=EDGE_CURVE('',#119,#119,#109,.T.);
#138=EDGE_CURVE('',#120,#120,#110,.T.);
#139=EDGE_CURVE('',#121,#121,#111,.T.);
#140=EDGE_CURVE('',#122,#122,#112,.T.);
#141=EDGE_CURVE('',#123,#123,#113,.T.);
#142=EDGE_CURVE('',#124,#124,#114,.T.);
#143=EDGE_CURVE('',#125,#125,#115,.T.);
#144=EDGE_CURVE('',#126,#126,#116,.T.);
#145=EDGE_CURVE('',#127,#128,#18,.T.);
#146=EDGE_CURVE('',#129,#127,#19,.T.);
#147=EDGE_CURVE('',#130,#129,#20,.T.);
#148=EDGE_CURVE('',#128,#130,#21,.T.);
#149=EDGE_CURVE('',#131,#132,#22,.T.);
#150=EDGE_CURVE('',#132,#130,#23,.T.);
#151=EDGE_CURVE('',#131,#129,#24,.T.);
#152=EDGE_CURVE('',#132,#133,#25,.T.);
#153=EDGE_CURVE('',#133,#128,#26,.T.);
#154=EDGE_CURVE('',#133,#134,#27,.T.);
#155=EDGE_CURVE('',#127,#134,#28,.T.);
#156=EDGE_CURVE('',#134,#131,#29,.T.);
#157=ORIENTED_EDGE('',*,*,#135,.F.);
#158=ORIENTED_EDGE('',*,*,#136,.F.);
#159=ORIENTED_EDGE('',*,*,#137,.F.);
#160=ORIENTED_EDGE('',*,*,#138,.F.);
#161=ORIENTED_EDGE('',*,*,#139,.F.);
#162=ORIENTED_EDGE('',*,*,#140,.F.);
#163=ORIENTED_EDGE('',*,*,#141,.F.);
#164=ORIENTED_EDGE('',*,*,#142,.F.);
#165=ORIENTED_EDGE('',*,*,#143,.F.);
#166=ORIENTED_EDGE('',*,*,#144,.F.);
#167=ORIENTED_EDGE('',*,*,#145,.F.);
#168=ORIENTED_EDGE('',*,*,#146,.F.);
#169=ORIENTED_EDGE('',*,*,#147,.F.);
#170=ORIENTED_EDGE('',*,*,#148,.F.);
#171=ORIENTED_EDGE('',*,*,#149,.T.);
#172=ORIENTED_EDGE('',*,*,#150,.T.);
#173=ORIENTED_EDGE('',*,*,#147,.T.);
#174=ORIENTED_EDGE('',*,*,#151,.F.);
#175=ORIENTED_EDGE('',*,*,#139,.T.);
#176=ORIENTED_EDGE('',*,*,#141,.T.);
#177=ORIENTED_EDGE('',*,*,#143,.T.);
#178=ORIENTED_EDGE('',*,*,#152,.T.);
#179=ORIENTED_EDGE('',*,*,#153,.T.);
#180=ORIENTED_EDGE('',*,*,#148,.T.);
#181=ORIENTED_EDGE('',*,*,#150,.F.);
#182=ORIENTED_EDGE('',*,*,#138,.T.);
#183=ORIENTED_EDGE('',*,*,#136,.T.);
#184=ORIENTED_EDGE('',*,*,#154,.T.);
#185=ORIENTED_EDGE('',*,*,#155,.F.);
#186=ORIENTED_EDGE('',*,*,#145,.T.);
#187=ORIENTED_EDGE('',*,*,#153,.F.);
#188=ORIENTED_EDGE('',*,*,#140,.T.);
#189=ORIENTED_EDGE('',*,*,#142,.T.);
#190=ORIENTED_EDGE('',*,*,#144,.T.);
#191=ORIENTED_EDGE('',*,*,#156,.T.);
#192=ORIENTED_EDGE('',*,*,#151,.T.);
#193=ORIENTED_EDGE('',*,*,#146,.T.);
#194=ORIENTED_EDGE('',*,*,#155,.T.);
#195=ORIENTED_EDGE('',*,*,#135,.T.);
#196=ORIENTED_EDGE('',*,*,#137,.T.);
#197=ORIENTED_EDGE('',*,*,#149,.F.);
#198=ORIENTED_EDGE('',*,*,#156,.F.);
#199=ORIENTED_EDGE('',*,*,#154,.F.);
#200=ORIENTED_EDGE('',*,*,#152,.F.);
#201=CYLINDRICAL_SURFACE('',#232,2.4585);
#202=CYLINDRICAL_SURFACE('',#235,2.4585);
#203=CYLINDRICAL_SURFACE('',#238,2.4585);
#204=CYLINDRICAL_SURFACE('',#241,2.4585);
#205=CYLINDRICAL_SURFACE('',#244,2.4585);
#206=ADVANCED_FACE('',(#70,#55),#201,.F.);
#207=ADVANCED_FACE('',(#71,#56),#202,.F.);
#208=ADVANCED_FACE('',(#72,#57),#203,.F.);
#209=ADVANCED_FACE('',(#73,#58),#204,.F.);
#210=ADVANCED_FACE('',(#74,#59),#205,.F.);
#211=ADVANCED_FACE('',(#75),#42,.F.);
#212=ADVANCED_FACE('',(#76,#60,#61,#62),#43,.T.);
#213=ADVANCED_FACE('',(#77,#63,#64),#44,.T.);
#214=ADVANCED_FACE('',(#78,#65,#66,#67),#45,.T.);
#215=ADVANCED_FACE('',(#79,#68,#69),#46,.T.);
#216=ADVANCED_FACE('',(#80),#47,.T.);
#217=CLOSED_SHELL('',(#206,#207,#208,#209,#210,#211,#212,#213,#214,#215,
#216));
#218=DATE_TIME_ROLE('creation_date');
#219=DATE_TIME_ROLE('creation_date');
#220=APPLIED_DATE_AND_TIME_ASSIGNMENT(#222,#218,(#388));
#221=APPLIED_DATE_AND_TIME_ASSIGNMENT(#223,#219,(#389));
#222=DATE_AND_TIME(#224,#226);
#223=DATE_AND_TIME(#225,#227);
#224=CALENDAR_DATE(2011,1,5);
#225=CALENDAR_DATE(2014,18,6);
#226=LOCAL_TIME(14,36,50.,#228);
#227=LOCAL_TIME(6,49,34.,#229);
#228=COORDINATED_UNIVERSAL_TIME_OFFSET(0,0,.BEHIND.);
#229=COORDINATED_UNIVERSAL_TIME_OFFSET(0,0,.BEHIND.);
#230=AXIS2_PLACEMENT_3D('placement',#314,#254,#255);
#231=AXIS2_PLACEMENT_3D('placement',#315,#256,#257);
#232=AXIS2_PLACEMENT_3D('',#316,#258,#259);
#233=AXIS2_PLACEMENT_3D('',#318,#260,#261);
#234=AXIS2_PLACEMENT_3D('',#320,#262,#263);
#235=AXIS2_PLACEMENT_3D('',#321,#264,#265);
#236=AXIS2_PLACEMENT_3D('',#323,#266,#267);
#237=AXIS2_PLACEMENT_3D('',#325,#268,#269);
#238=AXIS2_PLACEMENT_3D('',#326,#270,#271);
#239=AXIS2_PLACEMENT_3D('',#328,#272,#273);
#240=AXIS2_PLACEMENT_3D('',#330,#274,#275);
#241=AXIS2_PLACEMENT_3D('',#331,#276,#277);
#242=AXIS2_PLACEMENT_3D('',#333,#278,#279);
#243=AXIS2_PLACEMENT_3D('',#335,#280,#281);
#244=AXIS2_PLACEMENT_3D('',#336,#282,#283);
#245=AXIS2_PLACEMENT_3D('',#338,#284,#285);
#246=AXIS2_PLACEMENT_3D('',#340,#286,#287);
#247=AXIS2_PLACEMENT_3D('',#341,#288,#289);
#248=AXIS2_PLACEMENT_3D('',#350,#294,#295);
#249=AXIS2_PLACEMENT_3D('',#356,#299,#300);
#250=AXIS2_PLACEMENT_3D('',#360,#303,#304);
#251=AXIS2_PLACEMENT_3D('',#364,#307,#308);
#252=AXIS2_PLACEMENT_3D('',#366,#310,#311);
#253=AXIS2_PLACEMENT_3D('',#367,#312,#313);
#254=DIRECTION('axis',(0.,0.,1.));
#255=DIRECTION('refdir',(1.,0.,0.));
#256=DIRECTION('axis',(0.,0.,1.));
#257=DIRECTION('refdir',(1.,0.,0.));
#258=DIRECTION('center_axis',(0.,1.,4.93038065763132E-32));
#259=DIRECTION('ref_axis',(1.,0.,2.58474011494712E-32));
#260=DIRECTION('center_axis',(0.,1.,4.93038065763132E-32));
#261=DIRECTION('ref_axis',(1.,0.,2.58474011494712E-32));
#262=DIRECTION('center_axis',(0.,-1.,-4.93038065763132E-32));
#263=DIRECTION('ref_axis',(1.,0.,2.58474011494712E-32));
#264=DIRECTION('center_axis',(0.,1.,4.93038065763132E-32));
#265=DIRECTION('ref_axis',(1.,0.,2.58474011494712E-32));
#266=DIRECTION('center_axis',(0.,1.,4.93038065763132E-32));
#267=DIRECTION('ref_axis',(1.,0.,2.58474011494712E-32));
#268=DIRECTION('center_axis',(0.,-1.,-4.93038065763132E-32));
#269=DIRECTION('ref_axis',(1.,0.,2.58474011494712E-32));
#270=DIRECTION('center_axis',(1.,0.,2.64715951619535E-32));
#271=DIRECTION('ref_axis',(2.42886641101518E-32,5.0136065259623E-32,-1.));
#272=DIRECTION('center_axis',(1.,5.18104078158406E-16,2.46519032881568E-32));
#273=DIRECTION('ref_axis',(2.42886641101518E-32,5.0136065259623E-32,-1.));
#274=DIRECTION('center_axis',(-1.,0.,-2.64715951619535E-32));
#275=DIRECTION('ref_axis',(2.42886641101518E-32,5.0136065259623E-32,-1.));
#276=DIRECTION('center_axis',(1.,0.,2.64715951619535E-32));
#277=DIRECTION('ref_axis',(2.42886641101518E-32,5.0136065259623E-32,-1.));
#278=DIRECTION('center_axis',(1.,5.18104078158406E-16,2.46519032881568E-32));
#279=DIRECTION('ref_axis',(2.42886641101518E-32,5.0136065259623E-32,-1.));
#280=DIRECTION('center_axis',(-1.,0.,-2.64715951619535E-32));
#281=DIRECTION('ref_axis',(2.42886641101518E-32,5.0136065259623E-32,-1.));
#282=DIRECTION('center_axis',(1.,0.,2.64715951619535E-32));
#283=DIRECTION('ref_axis',(2.42886641101518E-32,5.0136065259623E-32,-1.));
#284=DIRECTION('center_axis',(1.,5.18104078158406E-16,2.46519032881568E-32));
#285=DIRECTION('ref_axis',(2.42886641101518E-32,5.0136065259623E-32,-1.));
#286=DIRECTION('center_axis',(-1.,0.,-2.64715951619535E-32));
#287=DIRECTION('ref_axis',(2.42886641101518E-32,5.0136065259623E-32,-1.));
#288=DIRECTION('center_axis',(-2.28322114143597E-32,-4.93038065763132E-32,
1.));
#289=DIRECTION('ref_axis',(1.,0.,0.));
#290=DIRECTION('',(0.,1.,4.93038065763132E-32));
#291=DIRECTION('',(1.,0.,2.64715951619535E-32));
#292=DIRECTION('',(5.18104078158406E-16,-1.,-4.93038065763132E-32));
#293=DIRECTION('',(-1.,0.,-2.64715951619535E-32));
#294=DIRECTION('center_axis',(-1.,-5.18104078158406E-16,-2.46519032881568E-32));
#295=DIRECTION('ref_axis',(0.,0.,1.));
#296=DIRECTION('',(-5.18104078158406E-16,1.,4.93038065763132E-32));
#297=DIRECTION('',(2.28322114143597E-32,4.93038065763132E-32,-1.));
#298=DIRECTION('',(2.28322114143597E-32,4.93038065763132E-32,-1.));
#299=DIRECTION('center_axis',(0.,1.,4.93038065763132E-32));
#300=DIRECTION('ref_axis',(0.,0.,1.));
#301=DIRECTION('',(1.,0.,2.64715951619535E-32));
#302=DIRECTION('',(2.28322114143597E-32,4.93038065763132E-32,-1.));
#303=DIRECTION('center_axis',(1.,0.,2.64715951619535E-32));
#304=DIRECTION('ref_axis',(0.,0.,-1.));
#305=DIRECTION('',(0.,-1.,-4.93038065763132E-32));
#306=DIRECTION('',(-2.28322114143597E-32,-4.93038065763132E-32,1.));
#307=DIRECTION('center_axis',(0.,-1.,-4.93038065763132E-32));
#308=DIRECTION('ref_axis',(0.,0.,-1.));
#309=DIRECTION('',(-1.,0.,-2.64715951619535E-32));
#310=DIRECTION('center_axis',(-2.28322114143597E-32,-4.93038065763132E-32,
1.));
#311=DIRECTION('ref_axis',(1.,0.,0.));
#312=DIRECTION('',(6.12323399573673E-17,-1.,1.22464679914735E-16));
#313=DIRECTION('',(-1.,-6.12323399573672E-17,5.18104078158408E-16));
#314=CARTESIAN_POINT('',(0.,0.,0.));
#315=CARTESIAN_POINT('',(0.,0.,0.));
#316=CARTESIAN_POINT('Origin',(3.5527136788005E-14,-96.682532125112,22.5));
#317=CARTESIAN_POINT('',(-2.45849999999996,-7.5,22.5));
#318=CARTESIAN_POINT('Origin',(3.5527136788005E-14,-7.5,22.5));
#319=CARTESIAN_POINT('',(2.45850000000003,7.5,22.5));
#320=CARTESIAN_POINT('Origin',(3.5527136788005E-14,7.5,22.5));
#321=CARTESIAN_POINT('Origin',(3.5527136788005E-14,-96.682532125112,-22.5));
#322=CARTESIAN_POINT('',(-2.45849999999996,-7.5,-22.5));
#323=CARTESIAN_POINT('Origin',(3.5527136788005E-14,-7.5,-22.5));
#324=CARTESIAN_POINT('',(2.45850000000003,7.5,-22.5));
#325=CARTESIAN_POINT('Origin',(3.5527136788005E-14,7.5,-22.5));
#326=CARTESIAN_POINT('Origin',(-96.682532125112,2.22044604925031E-15,-5.17689969051289E-30));
#327=CARTESIAN_POINT('',(-7.49999999999998,2.22044604925031E-15,2.4585));
#328=CARTESIAN_POINT('Origin',(-7.49999999999998,2.22044604925031E-15,-2.46519032881566E-30));
#329=CARTESIAN_POINT('',(7.50000000000002,2.22044604925031E-15,-2.4585));
#330=CARTESIAN_POINT('Origin',(7.50000000000002,0.,-1.72563323017096E-30));
#331=CARTESIAN_POINT('Origin',(-96.682532125112,2.22044604925031E-15,45.));
#332=CARTESIAN_POINT('',(-7.49999999999998,2.22044604925031E-15,47.4585));
#333=CARTESIAN_POINT('Origin',(-7.49999999999998,2.22044604925031E-15,45.));
#334=CARTESIAN_POINT('',(7.50000000000002,2.22044604925031E-15,42.5415));
#335=CARTESIAN_POINT('Origin',(7.50000000000002,2.22044604925031E-15,45.));
#336=CARTESIAN_POINT('Origin',(-96.682532125112,2.22044604925031E-15,-45.));
#337=CARTESIAN_POINT('',(-7.49999999999998,2.22044604925031E-15,-42.5415));
#338=CARTESIAN_POINT('Origin',(-7.49999999999998,0.,-45.));
#339=CARTESIAN_POINT('',(7.50000000000002,2.22044604925031E-15,-47.4585));
#340=CARTESIAN_POINT('Origin',(7.50000000000002,0.,-45.));
#341=CARTESIAN_POINT('Origin',(2.66453525910038E-14,3.33066907387547E-15,
-51.));
#342=CARTESIAN_POINT('',(7.50000000000004,-7.5,-51.));
#343=CARTESIAN_POINT('',(7.50000000000004,7.5,-51.));
#344=CARTESIAN_POINT('',(7.50000000000004,7.5,-51.));
#345=CARTESIAN_POINT('',(-7.49999999999996,-7.5,-51.));
#346=CARTESIAN_POINT('',(7.50000000000004,-7.5,-51.));
#347=CARTESIAN_POINT('',(-7.49999999999996,7.50000000000001,-51.));
#348=CARTESIAN_POINT('',(-7.49999999999996,-7.5,-51.));
#349=CARTESIAN_POINT('',(-7.49999999999996,7.50000000000001,-51.));
#350=CARTESIAN_POINT('Origin',(-7.49999999999996,-7.5,-2.71170936169723E-30));
#351=CARTESIAN_POINT('',(-7.49999999999997,-7.5,51.));
#352=CARTESIAN_POINT('',(-7.49999999999998,7.5,51.));
#353=CARTESIAN_POINT('',(-7.49999999999997,-7.5,51.));
#354=CARTESIAN_POINT('',(-7.49999999999997,7.5,-2.27259733437694E-30));
#355=CARTESIAN_POINT('',(-7.49999999999996,-7.5,-2.71170936169723E-30));
#356=CARTESIAN_POINT('Origin',(-7.49999999999997,7.5,-2.27259733437694E-30));
#357=CARTESIAN_POINT('',(7.50000000000002,7.5,51.));
#358=CARTESIAN_POINT('',(-7.49999999999998,7.5,51.));
#359=CARTESIAN_POINT('',(7.50000000000003,7.5,-1.54074395550979E-30));
#360=CARTESIAN_POINT('Origin',(7.50000000000003,7.5,-1.54074395550979E-30));
#361=CARTESIAN_POINT('',(7.50000000000002,-7.5,51.));
#362=CARTESIAN_POINT('',(7.50000000000002,7.5,51.));
#363=CARTESIAN_POINT('',(7.50000000000004,-7.5,-1.97215226305253E-30));
#364=CARTESIAN_POINT('Origin',(7.50000000000004,-7.5,-1.97215226305253E-30));
#365=CARTESIAN_POINT('',(7.50000000000002,-7.5,51.));
#366=CARTESIAN_POINT('Origin',(1.77635683940025E-14,1.11022302462516E-15,
51.));
#367=CARTESIAN_POINT('',(62.4999999999999,4.78224575073101E-15,7.80000000049504));
#368=UNCERTAINTY_MEASURE_WITH_UNIT(LENGTH_MEASURE(0.01),#374,
'DISTANCE_ACCURACY_VALUE',
'Maximum model space distance between geometric entities at asserted c
onnectivities');
#369=UNCERTAINTY_MEASURE_WITH_UNIT(LENGTH_MEASURE(0.01),#374,
'DISTANCE_ACCURACY_VALUE',
'Maximum model space distance between geometric entities at asserted c
onnectivities');
#370=UNCERTAINTY_MEASURE_WITH_UNIT(LENGTH_MEASURE(1.E-6),#374,
'DISTANCE_ACCURACY_VALUE',
'Maximum model space distance between geometric entities at asserted c
onnectivities');
#371=(
GEOMETRIC_REPRESENTATION_CONTEXT(3)
GLOBAL_UNCERTAINTY_ASSIGNED_CONTEXT((#368))
GLOBAL_UNIT_ASSIGNED_CONTEXT((#374,#377,#375))
REPRESENTATION_CONTEXT('','3D')
);
#372=(
GEOMETRIC_REPRESENTATION_CONTEXT(3)
GLOBAL_UNCERTAINTY_ASSIGNED_CONTEXT((#369))
GLOBAL_UNIT_ASSIGNED_CONTEXT((#374,#377,#375))
REPRESENTATION_CONTEXT('','3D')
);
#373=(
GEOMETRIC_REPRESENTATION_CONTEXT(3)
GLOBAL_UNCERTAINTY_ASSIGNED_CONTEXT((#370))
GLOBAL_UNIT_ASSIGNED_CONTEXT((#374,#377,#375))
REPRESENTATION_CONTEXT('','3D')
);
#374=(
LENGTH_UNIT()
NAMED_UNIT(*)
SI_UNIT(.MILLI.,.METRE.)
);
#375=(
NAMED_UNIT(*)
SI_UNIT($,.STERADIAN.)
SOLID_ANGLE_UNIT()
);
#376=DIMENSIONAL_EXPONENTS(0.,0.,0.,0.,0.,0.,0.);
#377=(
CONVERSION_BASED_UNIT('degree',#379)
NAMED_UNIT(#376)
PLANE_ANGLE_UNIT()
);
#378=(
NAMED_UNIT(*)
PLANE_ANGLE_UNIT()
SI_UNIT($,.RADIAN.)
);
#379=PLANE_ANGLE_MEASURE_WITH_UNIT(PLANE_ANGLE_MEASURE(0.01745329252),#378);
#380=SHAPE_DEFINITION_REPRESENTATION(#382,#385);
#381=SHAPE_DEFINITION_REPRESENTATION(#383,#386);
#382=PRODUCT_DEFINITION_SHAPE('',$,#388);
#383=PRODUCT_DEFINITION_SHAPE('',$,#389);
#384=PRODUCT_DEFINITION_SHAPE($,$,#14);
#385=SHAPE_REPRESENTATION('',(#230,#253),#371);
#386=SHAPE_REPRESENTATION('',(#231),#372);
#387=PRODUCT_DEFINITION_CONTEXT('part definition',#395,'design');
#388=PRODUCT_DEFINITION('LCDFRPWR','boitier DENISE',#390,#387);
#389=PRODUCT_DEFINITION('PCB-SFPSYNC','barre',#391,#387);
#390=PRODUCT_DEFINITION_FORMATION('',$,#397);
#391=PRODUCT_DEFINITION_FORMATION('',$,#398);
#392=PRODUCT_RELATED_PRODUCT_CATEGORY('boitier DENISE','boitier DENISE',
(#397));
#393=PRODUCT_RELATED_PRODUCT_CATEGORY('barre','barre',(#398));
#394=APPLICATION_PROTOCOL_DEFINITION('international standard',
'automotive_design',2009,#395);
#395=APPLICATION_CONTEXT(
'Core Data for Automotive Mechanical Design Process');
#396=PRODUCT_CONTEXT('part definition',#395,'mechanical');
#397=PRODUCT('LCDFRPWR','boitier DENISE',$,(#396));
#398=PRODUCT('PCB-SFPSYNC','barre',$,(#396));
#399=PRESENTATION_STYLE_ASSIGNMENT((#403));
#400=PRESENTATION_STYLE_ASSIGNMENT((#404));
#401=PRESENTATION_STYLE_ASSIGNMENT((#405));
#402=PRESENTATION_STYLE_ASSIGNMENT((#406));
#403=SURFACE_STYLE_USAGE(.BOTH.,#407);
#404=SURFACE_STYLE_USAGE(.BOTH.,#408);
#405=SURFACE_STYLE_USAGE(.BOTH.,#409);
#406=SURFACE_STYLE_USAGE(.BOTH.,#410);
#407=SURFACE_SIDE_STYLE('',(#411));
#408=SURFACE_SIDE_STYLE('',(#412));
#409=SURFACE_SIDE_STYLE('',(#413));
#410=SURFACE_SIDE_STYLE('',(#414));
#411=SURFACE_STYLE_FILL_AREA(#415);
#412=SURFACE_STYLE_FILL_AREA(#416);
#413=SURFACE_STYLE_FILL_AREA(#417);
#414=SURFACE_STYLE_FILL_AREA(#418);
#415=FILL_AREA_STYLE('',(#419));
#416=FILL_AREA_STYLE('',(#420));
#417=FILL_AREA_STYLE('',(#421));
#418=FILL_AREA_STYLE('',(#422));
#419=FILL_AREA_STYLE_COLOUR('',#423);
#420=FILL_AREA_STYLE_COLOUR('',#424);
#421=FILL_AREA_STYLE_COLOUR('',#425);
#422=FILL_AREA_STYLE_COLOUR('',#426);
#423=COLOUR_RGB('',0.905882352941176,0.83921568627451,0.674509803921569);
#424=COLOUR_RGB('',0.956862745098039,0.956862745098039,0.956862745098039);
#425=COLOUR_RGB('',0.996078431372549,0.996078431372549,1.);
#426=COLOUR_RGB('',0.796078431372549,0.603921568627451,0.231372549019608);
ENDSEC;
END-ISO-10303-21;
