ISO-10303-21;
HEADER;
FILE_DESCRIPTION (( 'STEP AP203' ),
    '1' );
FILE_NAME ('orelha 2.STEP',
    '2018-10-30T02:07:49',
    ( '' ),
    ( '' ),
    'SwSTEP 2.0',
    'SolidWorks 2018',
    '' );
FILE_SCHEMA (( 'CONFIG_CONTROL_DESIGN' ));
ENDSEC;

DATA;
#1 = CALENDAR_DATE ( 2018, 29, 10 ) ;
#2 = DIRECTION ( 'NONE',  ( 1.000000000000000000, 0.0000000000000000000, 0.0000000000000000000 ) ) ;
#3 = COORDINATED_UNIVERSAL_TIME_OFFSET ( 3, 0, .BEHIND. ) ;
#4 = APPROVAL_STATUS ( 'not_yet_approved' ) ;
#5 = VECTOR ( 'NONE', #21, 1000.000000000000000 ) ;
#6 = ORIENTED_EDGE ( 'NONE', *, *, #97, .F. ) ;
#7 = CARTESIAN_POINT ( 'NONE',  ( -1120.801885476609641, 1478.036318644618859, 4.700000000000000178 ) ) ;
#8 = DATE_TIME_ROLE ( 'creation_date' ) ;
#9 = PERSON_AND_ORGANIZATION ( #34, #172 ) ;
#10 = EDGE_LOOP ( 'NONE', ( #74, #182, #266, #220 ) ) ;
#11 = CARTESIAN_POINT ( 'NONE',  ( -1120.801885476609641, 1478.036318644618859, 4.700000000000000178 ) ) ;
#12 = PRODUCT ( 'orelha 2', 'orelha 2', '', ( #101 ) ) ;
#13 = CARTESIAN_POINT ( 'NONE',  ( -1116.987265960993000, 1454.689872172186824, 4.700000000000000178 ) ) ;
#14 = ORIENTED_EDGE ( 'NONE', *, *, #158, .F. ) ;
#15 = AXIS2_PLACEMENT_3D ( 'NONE', #50, #104, #251 ) ;
#16 = ORIENTED_EDGE ( 'NONE', *, *, #97, .T. ) ;
#17 = CIRCLE ( 'NONE', #76, 5.200000000000093436 ) ;
#18 = CLOSED_SHELL ( 'NONE', ( #146, #239, #60, #208, #175, #213, #312, #275 ) ) ;
#19 = CC_DESIGN_DATE_AND_TIME_ASSIGNMENT ( #305, #8, ( #257 ) ) ;
#20 = VERTEX_POINT ( 'NONE', #112 ) ;
#21 = DIRECTION ( 'NONE',  ( -0.9869130098954556063, -0.1612535608881007776, 0.0000000000000000000 ) ) ;
#22 = DIRECTION ( 'NONE',  ( -1.000000000000000000, 0.0000000000000000000, 0.0000000000000000000 ) ) ;
#23 = CARTESIAN_POINT ( 'NONE',  ( -1116.987265960993000, 1454.689872172186824, 4.700000000000000178 ) ) ;
#24 = VERTEX_POINT ( 'NONE', #164 ) ;
#25 = AXIS2_PLACEMENT_3D ( 'NONE', #48, #199, #29 ) ;
#26 = DIRECTION ( 'NONE',  ( -0.0000000000000000000, -0.0000000000000000000, -1.000000000000000000 ) ) ;
#27 = DESIGN_CONTEXT ( 'detailed design', #125, 'design' ) ;
#28 = LINE ( 'NONE', #216, #209 ) ;
#29 = DIRECTION ( 'NONE',  ( -0.7733328948176440010, -0.6340001843792812952, 0.0000000000000000000 ) ) ;
#30 = PLANE ( 'NONE',  #15 ) ;
#31 = CARTESIAN_POINT ( 'NONE',  ( -1182.085788371213766, 1468.023027232113918, 4.700000000000000178 ) ) ;
#32 = CC_DESIGN_PERSON_AND_ORGANIZATION_ASSIGNMENT ( #85, #280, ( #247 ) ) ;
#33 = VECTOR ( 'NONE', #210, 1000.000000000000000 ) ;
#34 = PERSON ( 'UNSPECIFIED', 'UNSPECIFIED', 'UNSPECIFIED', ('UNSPECIFIED'), ('UNSPECIFIED'), ('UNSPECIFIED') ) ;
#35 = LINE ( 'NONE', #82, #204 ) ;
#36 = CALENDAR_DATE ( 2018, 29, 10 ) ;
#37 = AXIS2_PLACEMENT_3D ( 'NONE', #23, #26, #22 ) ;
#38 = VECTOR ( 'NONE', #311, 1000.000000000000000 ) ;
#39 = CYLINDRICAL_SURFACE ( 'NONE', #54, 23.65603273879735013 ) ;
#40 = EDGE_CURVE ( 'NONE', #302, #310, #35, .T. ) ;
#41 = DIRECTION ( 'NONE',  ( -0.0000000000000000000, -0.0000000000000000000, -1.000000000000000000 ) ) ;
#42 = LOCAL_TIME ( 23, 7, 49.00000000000000000, #59 ) ;
#43 = DATE_AND_TIME ( #261, #42 ) ;
#44 = ORIENTED_EDGE ( 'NONE', *, *, #62, .F. ) ;
#45 = CC_DESIGN_APPROVAL ( #195, ( #257 ) ) ;
#46 = LINE ( 'NONE', #89, #151 ) ;
#47 = ORIENTED_EDGE ( 'NONE', *, *, #291, .T. ) ;
#48 = CARTESIAN_POINT ( 'NONE',  ( -1136.713269990454137, 1407.928221177023261, 4.700000000000000178 ) ) ;
#49 = PLANE ( 'NONE',  #25 ) ;
#50 = CARTESIAN_POINT ( 'NONE',  ( -1116.987265960993000, 1454.689872172186824, 4.700000000000000178 ) ) ;
#51 = PERSON_AND_ORGANIZATION ( #34, #172 ) ;
#52 = COORDINATED_UNIVERSAL_TIME_OFFSET ( 3, 0, .BEHIND. ) ;
#53 = ORIENTED_EDGE ( 'NONE', *, *, #40, .T. ) ;
#54 = AXIS2_PLACEMENT_3D ( 'NONE', #268, #284, #313 ) ;
#55 = FACE_OUTER_BOUND ( 'NONE', #279, .T. ) ;
#56 = EDGE_CURVE ( 'NONE', #302, #80, #17, .T. ) ;
#57 = DIRECTION ( 'NONE',  ( 1.000000000000000000, 0.0000000000000000000, -0.0000000000000000000 ) ) ;
#58 = EDGE_CURVE ( 'NONE', #263, #310, #179, .T. ) ;
#59 = COORDINATED_UNIVERSAL_TIME_OFFSET ( 3, 0, .BEHIND. ) ;
#60 = ADVANCED_FACE ( 'NONE', ( #222, #270 ), #228, .F. ) ;
#61 = CARTESIAN_POINT ( 'NONE',  ( -1101.989336842913417, 1436.395883894391318, 4.700000000000000178 ) ) ;
#62 = EDGE_CURVE ( 'NONE', #126, #236, #109, .T. ) ;
#63 = CYLINDRICAL_SURFACE ( 'NONE', #37, 5.200000000000093436 ) ;
#64 = ORIENTED_EDGE ( 'NONE', *, *, #291, .F. ) ;
#65 = DIRECTION ( 'NONE',  ( 0.6025587498797430053, -0.7980745284391435046, 0.0000000000000000000 ) ) ;
#66 = DIRECTION ( 'NONE',  ( 1.000000000000000000, 0.0000000000000000000, 0.0000000000000000000 ) ) ;
#67 = CARTESIAN_POINT ( 'NONE',  ( -1116.987265960993000, 1454.689872172186824, -4.700000000000000178 ) ) ;
#68 = COORDINATED_UNIVERSAL_TIME_OFFSET ( 3, 0, .BEHIND. ) ;
#69 = ORIENTED_EDGE ( 'NONE', *, *, #165, .F. ) ;
#70 = AXIS2_PLACEMENT_3D ( 'NONE', #120, #240, #144 ) ;
#71 = VECTOR ( 'NONE', #65, 1000.000000000000114 ) ;
#72 = DIRECTION ( 'NONE',  ( 1.000000000000000000, 0.0000000000000000000, 0.0000000000000000000 ) ) ;
#73 = CARTESIAN_POINT ( 'NONE',  ( -1122.187265960993045, 1454.689872172186824, 4.700000000000000178 ) ) ;
#74 = ORIENTED_EDGE ( 'NONE', *, *, #200, .T. ) ;
#75 = PERSON_AND_ORGANIZATION ( #34, #172 ) ;
#76 = AXIS2_PLACEMENT_3D ( 'NONE', #13, #233, #227 ) ;
#77 = PERSON_AND_ORGANIZATION_ROLE ( 'creator' ) ;
#78 = DIRECTION ( 'NONE',  ( 0.0000000000000000000, 0.0000000000000000000, 1.000000000000000000 ) ) ;
#79 = ADVANCED_BREP_SHAPE_REPRESENTATION ( 'orelha 2', ( #260, #283 ), #103 ) ;
#80 = VERTEX_POINT ( 'NONE', #212 ) ;
#81 = CARTESIAN_POINT ( 'NONE',  ( -1116.987265960993000, 1454.689872172186824, -4.700000000000000178 ) ) ;
#82 = CARTESIAN_POINT ( 'NONE',  ( -1122.187265960993045, 1454.689872172186824, 4.700000000000000178 ) ) ;
#83 = VECTOR ( 'NONE', #41, 1000.000000000000000 ) ;
#84 = AXIS2_PLACEMENT_3D ( 'NONE', #87, #215, #66 ) ;
#85 = PERSON_AND_ORGANIZATION ( #34, #172 ) ;
#86 = LINE ( 'NONE', #92, #5 ) ;
#87 = CARTESIAN_POINT ( 'NONE',  ( -1116.987265960993000, 1454.689872172186824, 4.700000000000000178 ) ) ;
#88 = CC_DESIGN_PERSON_AND_ORGANIZATION_ASSIGNMENT ( #304, #278, ( #257 ) ) ;
#89 = CARTESIAN_POINT ( 'NONE',  ( -1120.801885476609641, 1478.036318644618859, -4.700000000000000178 ) ) ;
#90 = EDGE_CURVE ( 'NONE', #106, #91, #190, .T. ) ;
#91 = VERTEX_POINT ( 'NONE', #174 ) ;
#92 = CARTESIAN_POINT ( 'NONE',  ( -1120.801885476609641, 1478.036318644618859, 4.700000000000000178 ) ) ;
#93 = AXIS2_PLACEMENT_3D ( 'NONE', #136, #259, #111 ) ;
#94 = DIRECTION ( 'NONE',  ( -0.0000000000000000000, -0.0000000000000000000, -1.000000000000000000 ) ) ;
#95 = SHAPE_DEFINITION_REPRESENTATION ( #196, #79 ) ;
#96 = AXIS2_PLACEMENT_3D ( 'NONE', #282, #78, #178 ) ;
#97 = EDGE_CURVE ( 'NONE', #310, #263, #167, .T. ) ;
#98 = LINE ( 'NONE', #289, #33 ) ;
#99 = CARTESIAN_POINT ( 'NONE',  ( -1116.987265960993000, 1454.689872172186824, 4.700000000000000178 ) ) ;
#100 = ORIENTED_EDGE ( 'NONE', *, *, #40, .F. ) ;
#101 = MECHANICAL_CONTEXT ( 'NONE', #294, 'mechanical' ) ;
#102 = SECURITY_CLASSIFICATION_LEVEL ( 'unclassified' ) ;
#103 =( GEOMETRIC_REPRESENTATION_CONTEXT ( 3 ) GLOBAL_UNCERTAINTY_ASSIGNED_CONTEXT ( ( #127 ) ) GLOBAL_UNIT_ASSIGNED_CONTEXT ( ( #224, #256, #217 ) ) REPRESENTATION_CONTEXT ( 'NONE', 'WORKASPACE' ) );
#104 = DIRECTION ( 'NONE',  ( 0.0000000000000000000, 0.0000000000000000000, 1.000000000000000000 ) ) ;
#105 = ORIENTED_EDGE ( 'NONE', *, *, #307, .F. ) ;
#106 = VERTEX_POINT ( 'NONE', #265 ) ;
#107 = CC_DESIGN_PERSON_AND_ORGANIZATION_ASSIGNMENT ( #51, #77, ( #218 ) ) ;
#108 = DIRECTION ( 'NONE',  ( -0.0000000000000000000, -0.0000000000000000000, -1.000000000000000000 ) ) ;
#109 = LINE ( 'NONE', #177, #71 ) ;
#110 = ORIENTED_EDGE ( 'NONE', *, *, #200, .F. ) ;
#111 = DIRECTION ( 'NONE',  ( 1.000000000000000000, 0.0000000000000000000, 0.0000000000000000000 ) ) ;
#112 = CARTESIAN_POINT ( 'NONE',  ( -1120.801885476609641, 1478.036318644618859, -4.700000000000000178 ) ) ;
#113 = LOCAL_TIME ( 23, 7, 49.00000000000000000, #68 ) ;
#114 = DATE_AND_TIME ( #1, #113 ) ;
#115 = DIRECTION ( 'NONE',  ( 0.7733328948176440010, 0.6340001843792814062, 0.0000000000000000000 ) ) ;
#116 = EDGE_CURVE ( 'NONE', #298, #134, #86, .T. ) ;
#117 = LINE ( 'NONE', #7, #83 ) ;
#118 = DIRECTION ( 'NONE',  ( -0.9869130098954556063, -0.1612535608881007776, 0.0000000000000000000 ) ) ;
#119 = ORIENTED_EDGE ( 'NONE', *, *, #58, .T. ) ;
#120 = CARTESIAN_POINT ( 'NONE',  ( -1120.801885476609641, 1478.036318644618859, 4.700000000000000178 ) ) ;
#121 = CC_DESIGN_APPROVAL ( #149, ( #218 ) ) ;
#122 = APPROVAL_DATE_TIME ( #114, #149 ) ;
#123 = APPROVAL_DATE_TIME ( #197, #195 ) ;
#124 = ORIENTED_EDGE ( 'NONE', *, *, #281, .F. ) ;
#125 = APPLICATION_CONTEXT ( 'configuration controlled 3d designs of mechanical parts and assemblies' ) ;
#126 = VERTEX_POINT ( 'NONE', #286 ) ;
#127 = UNCERTAINTY_MEASURE_WITH_UNIT (LENGTH_MEASURE( 1.000000000000000082E-05 ), #224, 'distance_accuracy_value', 'NONE');
#128 = AXIS2_PLACEMENT_3D ( 'NONE', #81, #135, #57 ) ;
#129 = ORIENTED_EDGE ( 'NONE', *, *, #90, .T. ) ;
#130 = APPROVAL_STATUS ( 'not_yet_approved' ) ;
#131 = AXIS2_PLACEMENT_3D ( 'NONE', #67, #238, #2 ) ;
#132 = APPROVAL_PERSON_ORGANIZATION ( #9, #149, #223 ) ;
#133 = DATE_TIME_ROLE ( 'classification_date' ) ;
#134 = VERTEX_POINT ( 'NONE', #171 ) ;
#135 = DIRECTION ( 'NONE',  ( 0.0000000000000000000, 0.0000000000000000000, 1.000000000000000000 ) ) ;
#136 = CARTESIAN_POINT ( 'NONE',  ( -1116.987265960993000, 1454.689872172186824, -4.700000000000000178 ) ) ;
#137 = CALENDAR_DATE ( 2018, 29, 10 ) ;
#138 = ORIENTED_EDGE ( 'NONE', *, *, #158, .T. ) ;
#139 = ORIENTED_EDGE ( 'NONE', *, *, #56, .T. ) ;
#140 = CC_DESIGN_APPROVAL ( #192, ( #247 ) ) ;
#141 = ORIENTED_EDGE ( 'NONE', *, *, #230, .T. ) ;
#142 = PLANE ( 'NONE',  #181 ) ;
#143 = CC_DESIGN_PERSON_AND_ORGANIZATION_ASSIGNMENT ( #166, #156, ( #12 ) ) ;
#144 = DIRECTION ( 'NONE',  ( 0.9869130098954556063, 0.1612535608881007498, 0.0000000000000000000 ) ) ;
#145 = EDGE_CURVE ( 'NONE', #24, #236, #258, .T. ) ;
#146 = ADVANCED_FACE ( 'NONE', ( #264 ), #63, .F. ) ;
#147 = ORIENTED_EDGE ( 'NONE', *, *, #281, .T. ) ;
#148 = DIRECTION ( 'NONE',  ( 0.0000000000000000000, 0.0000000000000000000, 1.000000000000000000 ) ) ;
#149 = APPROVAL ( #130, 'UNSPECIFIED' ) ;
#150 = COORDINATED_UNIVERSAL_TIME_OFFSET ( 3, 0, .BEHIND. ) ;
#151 = VECTOR ( 'NONE', #118, 1000.000000000000000 ) ;
#152 = ORIENTED_EDGE ( 'NONE', *, *, #267, .F. ) ;
#153 = CARTESIAN_POINT ( 'NONE',  ( -1111.787265960992954, 1454.689872172186824, -4.700000000000000178 ) ) ;
#154 = FACE_OUTER_BOUND ( 'NONE', #10, .T. ) ;
#155 = ORIENTED_EDGE ( 'NONE', *, *, #244, .T. ) ;
#156 = PERSON_AND_ORGANIZATION_ROLE ( 'design_owner' ) ;
#157 = LOCAL_TIME ( 23, 7, 49.00000000000000000, #3 ) ;
#158 = EDGE_CURVE ( 'NONE', #236, #91, #193, .T. ) ;
#159 = FACE_OUTER_BOUND ( 'NONE', #207, .T. ) ;
#160 = APPROVAL_STATUS ( 'not_yet_approved' ) ;
#161 = CC_DESIGN_PERSON_AND_ORGANIZATION_ASSIGNMENT ( #75, #252, ( #218 ) ) ;
#162 = CIRCLE ( 'NONE', #300, 5.200000000000093436 ) ;
#163 = ORIENTED_EDGE ( 'NONE', *, *, #170, .F. ) ;
#164 = CARTESIAN_POINT ( 'NONE',  ( -1136.713269990454137, 1407.928221177023261, 4.700000000000000178 ) ) ;
#165 = EDGE_CURVE ( 'NONE', #24, #106, #28, .T. ) ;
#166 = PERSON_AND_ORGANIZATION ( #34, #172 ) ;
#167 = CIRCLE ( 'NONE', #131, 5.200000000000093436 ) ;
#168 = ORIENTED_EDGE ( 'NONE', *, *, #58, .F. ) ;
#169 = CC_DESIGN_DATE_AND_TIME_ASSIGNMENT ( #43, #133, ( #247 ) ) ;
#170 = EDGE_CURVE ( 'NONE', #80, #263, #98, .T. ) ;
#171 = CARTESIAN_POINT ( 'NONE',  ( -1182.085788371213766, 1468.023027232113918, 4.700000000000000178 ) ) ;
#172 = ORGANIZATION ( 'UNSPECIFIED', 'UNSPECIFIED', '' ) ;
#173 = ORIENTED_EDGE ( 'NONE', *, *, #145, .F. ) ;
#174 = CARTESIAN_POINT ( 'NONE',  ( -1101.989336842913417, 1436.395883894391318, -4.700000000000000178 ) ) ;
#175 = ADVANCED_FACE ( 'NONE', ( #159 ), #272, .F. ) ;
#176 = DIRECTION ( 'NONE',  ( -0.0000000000000000000, -0.0000000000000000000, -1.000000000000000000 ) ) ;
#177 = CARTESIAN_POINT ( 'NONE',  ( -1182.085788371213766, 1468.023027232113918, -4.700000000000000178 ) ) ;
#178 = DIRECTION ( 'NONE',  ( 1.000000000000000000, 0.0000000000000000000, 0.0000000000000000000 ) ) ;
#179 = CIRCLE ( 'NONE', #93, 5.200000000000093436 ) ;
#180 = EDGE_LOOP ( 'NONE', ( #16, #119 ) ) ;
#181 = AXIS2_PLACEMENT_3D ( 'NONE', #241, #308, #211 ) ;
#182 = ORIENTED_EDGE ( 'NONE', *, *, #116, .T. ) ;
#183 = EDGE_LOOP ( 'NONE', ( #138, #277, #69, #288 ) ) ;
#184 = APPLICATION_PROTOCOL_DEFINITION ( 'international standard', 'config_control_design', 1994, #294 ) ;
#185 = CC_DESIGN_SECURITY_CLASSIFICATION ( #247, ( #218 ) ) ;
#186 = CARTESIAN_POINT ( 'NONE',  ( -1182.085788371213766, 1468.023027232113918, 4.700000000000000178 ) ) ;
#187 = DIRECTION ( 'NONE',  ( 0.6025587498797430053, -0.7980745284391435046, 0.0000000000000000000 ) ) ;
#188 = FACE_OUTER_BOUND ( 'NONE', #183, .T. ) ;
#189 = LOCAL_TIME ( 23, 7, 49.00000000000000000, #52 ) ;
#190 = LINE ( 'NONE', #61, #38 ) ;
#191 = LINE ( 'NONE', #31, #253 ) ;
#192 = APPROVAL ( #160, 'UNSPECIFIED' ) ;
#193 = LINE ( 'NONE', #269, #226 ) ;
#194 = CARTESIAN_POINT ( 'NONE',  ( -1136.713269990454137, 1407.928221177023261, 4.700000000000000178 ) ) ;
#195 = APPROVAL ( #4, 'UNSPECIFIED' ) ;
#196 = PRODUCT_DEFINITION_SHAPE ( 'NONE', 'NONE',  #257 ) ;
#197 = DATE_AND_TIME ( #254, #157 ) ;
#198 = ORIENTED_EDGE ( 'NONE', *, *, #116, .F. ) ;
#199 = DIRECTION ( 'NONE',  ( -0.6340001843792812952, 0.7733328948176440010, 0.0000000000000000000 ) ) ;
#200 = EDGE_CURVE ( 'NONE', #106, #298, #309, .T. ) ;
#201 = DIRECTION ( 'NONE',  ( -1.000000000000000000, 0.0000000000000000000, 0.0000000000000000000 ) ) ;
#202 = APPROVAL_DATE_TIME ( #234, #192 ) ;
#203 = CARTESIAN_POINT ( 'NONE',  ( -1116.987265960993000, 1454.689872172186824, 4.700000000000000178 ) ) ;
#204 = VECTOR ( 'NONE', #108, 1000.000000000000000 ) ;
#205 = ORIENTED_EDGE ( 'NONE', *, *, #230, .F. ) ;
#206 = APPROVAL_PERSON_ORGANIZATION ( #271, #195, #221 ) ;
#207 = EDGE_LOOP ( 'NONE', ( #141, #64, #198, #155 ) ) ;
#208 = ADVANCED_FACE ( 'NONE', ( #55 ), #39, .T. ) ;
#209 = VECTOR ( 'NONE', #115, 1000.000000000000114 ) ;
#210 = DIRECTION ( 'NONE',  ( -0.0000000000000000000, -0.0000000000000000000, -1.000000000000000000 ) ) ;
#211 = DIRECTION ( 'NONE',  ( -0.6025587498797430053, 0.7980745284391435046, 0.0000000000000000000 ) ) ;
#212 = CARTESIAN_POINT ( 'NONE',  ( -1111.787265960992954, 1454.689872172186824, 4.700000000000000178 ) ) ;
#213 = ADVANCED_FACE ( 'NONE', ( #301 ), #142, .F. ) ;
#214 = FACE_BOUND ( 'NONE', #232, .T. ) ;
#215 = DIRECTION ( 'NONE',  ( 0.0000000000000000000, 0.0000000000000000000, 1.000000000000000000 ) ) ;
#216 = CARTESIAN_POINT ( 'NONE',  ( -1136.713269990454137, 1407.928221177023261, 4.700000000000000178 ) ) ;
#217 =( NAMED_UNIT ( * ) SI_UNIT ( $, .STERADIAN. ) SOLID_ANGLE_UNIT ( ) );
#218 = PRODUCT_DEFINITION_FORMATION_WITH_SPECIFIED_SOURCE ( 'ANY', '', #12, .NOT_KNOWN. ) ;
#219 = ORIENTED_EDGE ( 'NONE', *, *, #56, .F. ) ;
#220 = ORIENTED_EDGE ( 'NONE', *, *, #165, .T. ) ;
#221 = APPROVAL_ROLE ( '' ) ;
#222 = FACE_OUTER_BOUND ( 'NONE', #262, .T. ) ;
#223 = APPROVAL_ROLE ( '' ) ;
#224 =( LENGTH_UNIT ( ) NAMED_UNIT ( * ) SI_UNIT ( .MILLI., .METRE. ) );
#225 = APPROVAL_PERSON_ORGANIZATION ( #296, #192, #229 ) ;
#226 = VECTOR ( 'NONE', #242, 1000.000000000000114 ) ;
#227 = DIRECTION ( 'NONE',  ( 1.000000000000000000, 0.0000000000000000000, 0.0000000000000000000 ) ) ;
#228 = PLANE ( 'NONE',  #128 ) ;
#229 = APPROVAL_ROLE ( '' ) ;
#230 = EDGE_CURVE ( 'NONE', #20, #126, #46, .T. ) ;
#231 = FACE_OUTER_BOUND ( 'NONE', #235, .T. ) ;
#232 = EDGE_LOOP ( 'NONE', ( #219, #124 ) ) ;
#233 = DIRECTION ( 'NONE',  ( 0.0000000000000000000, 0.0000000000000000000, 1.000000000000000000 ) ) ;
#234 = DATE_AND_TIME ( #137, #297 ) ;
#235 = EDGE_LOOP ( 'NONE', ( #163, #147, #53, #168 ) ) ;
#236 = VERTEX_POINT ( 'NONE', #237 ) ;
#237 = CARTESIAN_POINT ( 'NONE',  ( -1136.713269990454137, 1407.928221177023261, -4.700000000000000178 ) ) ;
#238 = DIRECTION ( 'NONE',  ( 0.0000000000000000000, 0.0000000000000000000, 1.000000000000000000 ) ) ;
#239 = ADVANCED_FACE ( 'NONE', ( #154, #214 ), #30, .T. ) ;
#240 = DIRECTION ( 'NONE',  ( 0.1612535608881007498, -0.9869130098954556063, 0.0000000000000000000 ) ) ;
#241 = CARTESIAN_POINT ( 'NONE',  ( -1182.085788371213766, 1468.023027232113918, 4.700000000000000178 ) ) ;
#242 = DIRECTION ( 'NONE',  ( 0.7733328948176440010, 0.6340001843792814062, 0.0000000000000000000 ) ) ;
#243 = CARTESIAN_POINT ( 'NONE',  ( 0.0000000000000000000, 0.0000000000000000000, 0.0000000000000000000 ) ) ;
#244 = EDGE_CURVE ( 'NONE', #298, #20, #117, .T. ) ;
#245 = VECTOR ( 'NONE', #299, 1000.000000000000000 ) ;
#246 = ORIENTED_EDGE ( 'NONE', *, *, #267, .T. ) ;
#247 = SECURITY_CLASSIFICATION ( '', '', #102 ) ;
#248 = CYLINDRICAL_SURFACE ( 'NONE', #303, 5.200000000000093436 ) ;
#249 = EDGE_LOOP ( 'NONE', ( #287, #173, #105, #47 ) ) ;
#250 = ORIENTED_EDGE ( 'NONE', *, *, #170, .T. ) ;
#251 = DIRECTION ( 'NONE',  ( 1.000000000000000000, 0.0000000000000000000, -0.0000000000000000000 ) ) ;
#252 = PERSON_AND_ORGANIZATION_ROLE ( 'design_supplier' ) ;
#253 = VECTOR ( 'NONE', #187, 1000.000000000000114 ) ;
#254 = CALENDAR_DATE ( 2018, 29, 10 ) ;
#255 = EDGE_LOOP ( 'NONE', ( #139, #250, #6, #100 ) ) ;
#256 =( NAMED_UNIT ( * ) PLANE_ANGLE_UNIT ( ) SI_UNIT ( $, .RADIAN. ) );
#257 = PRODUCT_DEFINITION ( 'UNKNOWN', '', #218, #27 ) ;
#258 = LINE ( 'NONE', #194, #292 ) ;
#259 = DIRECTION ( 'NONE',  ( 0.0000000000000000000, 0.0000000000000000000, 1.000000000000000000 ) ) ;
#260 = MANIFOLD_SOLID_BREP ( 'Ressalto-extrusão1', #18 ) ;
#261 = CALENDAR_DATE ( 2018, 29, 10 ) ;
#262 = EDGE_LOOP ( 'NONE', ( #152, #14, #44, #205 ) ) ;
#263 = VERTEX_POINT ( 'NONE', #153 ) ;
#264 = FACE_OUTER_BOUND ( 'NONE', #255, .T. ) ;
#265 = CARTESIAN_POINT ( 'NONE',  ( -1101.989336842913417, 1436.395883894391318, 4.700000000000000178 ) ) ;
#266 = ORIENTED_EDGE ( 'NONE', *, *, #307, .T. ) ;
#267 = EDGE_CURVE ( 'NONE', #91, #20, #293, .T. ) ;
#268 = CARTESIAN_POINT ( 'NONE',  ( -1116.987265960993000, 1454.689872172186824, 4.700000000000000178 ) ) ;
#269 = CARTESIAN_POINT ( 'NONE',  ( -1136.713269990454137, 1407.928221177023261, -4.700000000000000178 ) ) ;
#270 = FACE_BOUND ( 'NONE', #180, .T. ) ;
#271 = PERSON_AND_ORGANIZATION ( #34, #172 ) ;
#272 = PLANE ( 'NONE',  #70 ) ;
#273 = DIRECTION ( 'NONE',  ( 1.000000000000000000, 0.0000000000000000000, 0.0000000000000000000 ) ) ;
#274 = PRODUCT_RELATED_PRODUCT_CATEGORY ( 'detail', '', ( #12 ) ) ;
#275 = ADVANCED_FACE ( 'NONE', ( #231 ), #248, .F. ) ;
#276 = DIRECTION ( 'NONE',  ( 0.0000000000000000000, 0.0000000000000000000, 1.000000000000000000 ) ) ;
#277 = ORIENTED_EDGE ( 'NONE', *, *, #90, .F. ) ;
#278 = PERSON_AND_ORGANIZATION_ROLE ( 'creator' ) ;
#279 = EDGE_LOOP ( 'NONE', ( #246, #306, #110, #129 ) ) ;
#280 = PERSON_AND_ORGANIZATION_ROLE ( 'classification_officer' ) ;
#281 = EDGE_CURVE ( 'NONE', #80, #302, #162, .T. ) ;
#282 = CARTESIAN_POINT ( 'NONE',  ( -1116.987265960993000, 1454.689872172186824, -4.700000000000000178 ) ) ;
#283 = AXIS2_PLACEMENT_3D ( 'NONE', #243, #276, #273 ) ;
#284 = DIRECTION ( 'NONE',  ( -0.0000000000000000000, -0.0000000000000000000, -1.000000000000000000 ) ) ;
#285 = LINE ( 'NONE', #186, #245 ) ;
#286 = CARTESIAN_POINT ( 'NONE',  ( -1182.085788371213766, 1468.023027232113918, -4.700000000000000178 ) ) ;
#287 = ORIENTED_EDGE ( 'NONE', *, *, #62, .T. ) ;
#288 = ORIENTED_EDGE ( 'NONE', *, *, #145, .T. ) ;
#289 = CARTESIAN_POINT ( 'NONE',  ( -1111.787265960992954, 1454.689872172186824, 4.700000000000000178 ) ) ;
#290 = APPLICATION_PROTOCOL_DEFINITION ( 'international standard', 'config_control_design', 1994, #125 ) ;
#291 = EDGE_CURVE ( 'NONE', #134, #126, #285, .T. ) ;
#292 = VECTOR ( 'NONE', #176, 1000.000000000000000 ) ;
#293 = CIRCLE ( 'NONE', #96, 23.65603273879735013 ) ;
#294 = APPLICATION_CONTEXT ( 'configuration controlled 3d designs of mechanical parts and assemblies' ) ;
#295 = CARTESIAN_POINT ( 'NONE',  ( -1122.187265960993045, 1454.689872172186824, -4.700000000000000178 ) ) ;
#296 = PERSON_AND_ORGANIZATION ( #34, #172 ) ;
#297 = LOCAL_TIME ( 23, 7, 49.00000000000000000, #150 ) ;
#298 = VERTEX_POINT ( 'NONE', #11 ) ;
#299 = DIRECTION ( 'NONE',  ( -0.0000000000000000000, -0.0000000000000000000, -1.000000000000000000 ) ) ;
#300 = AXIS2_PLACEMENT_3D ( 'NONE', #99, #148, #72 ) ;
#301 = FACE_OUTER_BOUND ( 'NONE', #249, .T. ) ;
#302 = VERTEX_POINT ( 'NONE', #73 ) ;
#303 = AXIS2_PLACEMENT_3D ( 'NONE', #203, #94, #201 ) ;
#304 = PERSON_AND_ORGANIZATION ( #34, #172 ) ;
#305 = DATE_AND_TIME ( #36, #189 ) ;
#306 = ORIENTED_EDGE ( 'NONE', *, *, #244, .F. ) ;
#307 = EDGE_CURVE ( 'NONE', #134, #24, #191, .T. ) ;
#308 = DIRECTION ( 'NONE',  ( 0.7980745284391435046, 0.6025587498797430053, -0.0000000000000000000 ) ) ;
#309 = CIRCLE ( 'NONE', #84, 23.65603273879735013 ) ;
#310 = VERTEX_POINT ( 'NONE', #295 ) ;
#311 = DIRECTION ( 'NONE',  ( -0.0000000000000000000, -0.0000000000000000000, -1.000000000000000000 ) ) ;
#312 = ADVANCED_FACE ( 'NONE', ( #188 ), #49, .F. ) ;
#313 = DIRECTION ( 'NONE',  ( -1.000000000000000000, 0.0000000000000000000, 0.0000000000000000000 ) ) ;
ENDSEC;
END-ISO-10303-21;
