ISO-10303-21;
HEADER;
/* Generated by software containing ST-Developer
 * from STEP Tools, Inc. (www.steptools.com) 
 */

FILE_DESCRIPTION(
/* description */ (''),
/* implementation_level */ '2;1');

FILE_NAME(
/* name */ 
'C:/Users/Fabien/Desktop/tr speed/Nouveau dossier (2)/poid.step',
/* time_stamp */ '2021-03-30T22:46:32+02:00',
/* author */ (''),
/* organization */ (''),
/* preprocessor_version */ 'ST-DEVELOPER v18.1',
/* originating_system */ 'Autodesk Translation Framework v9.10.0.1330',

/* authorisation */ '');

FILE_SCHEMA (('AUTOMOTIVE_DESIGN { 1 0 10303 214 3 1 1 }'));
ENDSEC;

DATA;
#10=MECHANICAL_DESIGN_GEOMETRIC_PRESENTATION_REPRESENTATION('',(#13),#454);
#11=SHAPE_REPRESENTATION_RELATIONSHIP('SRR','None',#461,#12);
#12=ADVANCED_BREP_SHAPE_REPRESENTATION('',(#14),#453);
#13=STYLED_ITEM('',(#470),#14);
#14=MANIFOLD_SOLID_BREP('Corps1',#232);
#15=PLANE('',#259);
#16=PLANE('',#260);
#17=PLANE('',#261);
#18=PLANE('',#262);
#19=PLANE('',#263);
#20=PLANE('',#264);
#21=FACE_BOUND('',#46,.T.);
#22=FACE_BOUND('',#47,.T.);
#23=FACE_BOUND('',#51,.T.);
#24=FACE_BOUND('',#54,.T.);
#25=FACE_BOUND('',#56,.T.);
#26=FACE_BOUND('',#57,.T.);
#27=FACE_BOUND('',#58,.T.);
#28=FACE_BOUND('',#60,.T.);
#29=FACE_BOUND('',#61,.T.);
#30=FACE_BOUND('',#62,.T.);
#31=FACE_OUTER_BOUND('',#42,.T.);
#32=FACE_OUTER_BOUND('',#43,.T.);
#33=FACE_OUTER_BOUND('',#44,.T.);
#34=FACE_OUTER_BOUND('',#45,.T.);
#35=FACE_OUTER_BOUND('',#48,.T.);
#36=FACE_OUTER_BOUND('',#49,.T.);
#37=FACE_OUTER_BOUND('',#50,.T.);
#38=FACE_OUTER_BOUND('',#52,.T.);
#39=FACE_OUTER_BOUND('',#53,.T.);
#40=FACE_OUTER_BOUND('',#55,.T.);
#41=FACE_OUTER_BOUND('',#59,.T.);
#42=EDGE_LOOP('',(#158,#159,#160,#161,#162));
#43=EDGE_LOOP('',(#163,#164,#165,#166,#167));
#44=EDGE_LOOP('',(#168,#169,#170,#171));
#45=EDGE_LOOP('',(#172,#173,#174,#175));
#46=EDGE_LOOP('',(#176,#177));
#47=EDGE_LOOP('',(#178,#179));
#48=EDGE_LOOP('',(#180,#181,#182,#183));
#49=EDGE_LOOP('',(#184,#185,#186,#187));
#50=EDGE_LOOP('',(#188,#189,#190,#191));
#51=EDGE_LOOP('',(#192));
#52=EDGE_LOOP('',(#193,#194,#195,#196));
#53=EDGE_LOOP('',(#197,#198,#199,#200));
#54=EDGE_LOOP('',(#201));
#55=EDGE_LOOP('',(#202,#203,#204,#205));
#56=EDGE_LOOP('',(#206));
#57=EDGE_LOOP('',(#207));
#58=EDGE_LOOP('',(#208));
#59=EDGE_LOOP('',(#209,#210,#211,#212));
#60=EDGE_LOOP('',(#213));
#61=EDGE_LOOP('',(#214));
#62=EDGE_LOOP('',(#215));
#63=B_SPLINE_CURVE_WITH_KNOTS('',3,(#329,#330,#331,#332,#333,#334,#335,
#336,#337,#338,#339,#340,#341,#342,#343,#344,#345,#346,#347,#348,#349,#350,
#351,#352,#353,#354),.UNSPECIFIED.,.F.,.F.,(4,2,2,2,2,2,2,2,2,2,2,2,4),
(0.,0.238770214162426,0.477540428324853,0.716022113124114,0.954503797923376,
1.19298548272264,1.4314671675219,1.67023738168433,1.90900759584675,2.14777781000918,
2.3865480241716,2.62502970897087,2.86351139377013),.UNSPECIFIED.);
#64=B_SPLINE_CURVE_WITH_KNOTS('',3,(#355,#356,#357,#358,#359,#360,#361,
#362,#363,#364),.UNSPECIFIED.,.F.,.F.,(4,2,2,2,4),(2.86351139377013,3.10199307856939,
3.34047476336865,3.57924497753108,3.8180151916935),.UNSPECIFIED.);
#65=B_SPLINE_CURVE_WITH_KNOTS('',3,(#368,#369,#370,#371,#372,#373,#374,
#375,#376,#377),.UNSPECIFIED.,.F.,.F.,(4,2,2,2,4),(0.,0.238770214162426,
0.477540428324853,0.716022113124115,0.954503797923376),.UNSPECIFIED.);
#66=B_SPLINE_CURVE_WITH_KNOTS('',3,(#378,#379,#380,#381,#382,#383,#384,
#385,#386,#387,#388,#389,#390,#391,#392,#393,#394,#395,#396,#397,#398,#399,
#400,#401,#402,#403),.UNSPECIFIED.,.F.,.F.,(4,2,2,2,2,2,2,2,2,2,2,2,4),
(0.954503797923376,1.19298548272264,1.4314671675219,1.67023738168433,1.90900759584675,
2.14777781000918,2.38654802417161,2.62502970897087,2.86351139377013,3.10199307856939,
3.34047476336865,3.57924497753108,3.8180151916935),.UNSPECIFIED.);
#67=LINE('',#327,#84);
#68=LINE('',#405,#85);
#69=LINE('',#411,#86);
#70=LINE('',#417,#87);
#71=LINE('',#423,#88);
#72=LINE('',#428,#89);
#73=LINE('',#430,#90);
#74=LINE('',#432,#91);
#75=LINE('',#433,#92);
#76=LINE('',#436,#93);
#77=LINE('',#438,#94);
#78=LINE('',#439,#95);
#79=LINE('',#442,#96);
#80=LINE('',#444,#97);
#81=LINE('',#445,#98);
#82=LINE('',#447,#99);
#83=LINE('',#448,#100);
#84=VECTOR('',#271,6.25);
#85=VECTOR('',#274,6.25);
#86=VECTOR('',#281,12.5);
#87=VECTOR('',#288,15.);
#88=VECTOR('',#295,12.5);
#89=VECTOR('',#300,10.);
#90=VECTOR('',#301,10.);
#91=VECTOR('',#302,10.);
#92=VECTOR('',#303,10.);
#93=VECTOR('',#306,10.);
#94=VECTOR('',#307,10.);
#95=VECTOR('',#308,10.);
#96=VECTOR('',#311,10.);
#97=VECTOR('',#312,10.);
#98=VECTOR('',#313,10.);
#99=VECTOR('',#316,10.);
#100=VECTOR('',#317,10.);
#101=CIRCLE('',#247,6.25);
#102=CIRCLE('',#249,6.25);
#103=CIRCLE('',#251,12.5);
#104=CIRCLE('',#252,12.5);
#105=CIRCLE('',#254,15.);
#106=CIRCLE('',#255,15.);
#107=CIRCLE('',#257,12.5);
#108=CIRCLE('',#258,12.5);
#109=VERTEX_POINT('',#324);
#110=VERTEX_POINT('',#326);
#111=VERTEX_POINT('',#328);
#112=VERTEX_POINT('',#366);
#113=VERTEX_POINT('',#367);
#114=VERTEX_POINT('',#404);
#115=VERTEX_POINT('',#408);
#116=VERTEX_POINT('',#410);
#117=VERTEX_POINT('',#414);
#118=VERTEX_POINT('',#416);
#119=VERTEX_POINT('',#420);
#120=VERTEX_POINT('',#422);
#121=VERTEX_POINT('',#426);
#122=VERTEX_POINT('',#427);
#123=VERTEX_POINT('',#429);
#124=VERTEX_POINT('',#431);
#125=VERTEX_POINT('',#435);
#126=VERTEX_POINT('',#437);
#127=VERTEX_POINT('',#441);
#128=VERTEX_POINT('',#443);
#129=EDGE_CURVE('',#109,#109,#101,.T.);
#130=EDGE_CURVE('',#109,#110,#67,.T.);
#131=EDGE_CURVE('',#111,#110,#63,.T.);
#132=EDGE_CURVE('',#110,#111,#64,.T.);
#133=EDGE_CURVE('',#112,#113,#65,.T.);
#134=EDGE_CURVE('',#113,#112,#66,.T.);
#135=EDGE_CURVE('',#113,#114,#68,.T.);
#136=EDGE_CURVE('',#114,#114,#102,.T.);
#137=EDGE_CURVE('',#115,#115,#103,.T.);
#138=EDGE_CURVE('',#115,#116,#69,.T.);
#139=EDGE_CURVE('',#116,#116,#104,.T.);
#140=EDGE_CURVE('',#117,#117,#105,.T.);
#141=EDGE_CURVE('',#117,#118,#70,.T.);
#142=EDGE_CURVE('',#118,#118,#106,.T.);
#143=EDGE_CURVE('',#119,#119,#107,.T.);
#144=EDGE_CURVE('',#119,#120,#71,.T.);
#145=EDGE_CURVE('',#120,#120,#108,.T.);
#146=EDGE_CURVE('',#121,#122,#72,.T.);
#147=EDGE_CURVE('',#121,#123,#73,.T.);
#148=EDGE_CURVE('',#124,#123,#74,.T.);
#149=EDGE_CURVE('',#122,#124,#75,.T.);
#150=EDGE_CURVE('',#122,#125,#76,.T.);
#151=EDGE_CURVE('',#126,#124,#77,.T.);
#152=EDGE_CURVE('',#125,#126,#78,.T.);
#153=EDGE_CURVE('',#125,#127,#79,.T.);
#154=EDGE_CURVE('',#128,#126,#80,.T.);
#155=EDGE_CURVE('',#127,#128,#81,.T.);
#156=EDGE_CURVE('',#127,#121,#82,.T.);
#157=EDGE_CURVE('',#123,#128,#83,.T.);
#158=ORIENTED_EDGE('',*,*,#129,.F.);
#159=ORIENTED_EDGE('',*,*,#130,.T.);
#160=ORIENTED_EDGE('',*,*,#131,.F.);
#161=ORIENTED_EDGE('',*,*,#132,.F.);
#162=ORIENTED_EDGE('',*,*,#130,.F.);
#163=ORIENTED_EDGE('',*,*,#133,.F.);
#164=ORIENTED_EDGE('',*,*,#134,.F.);
#165=ORIENTED_EDGE('',*,*,#135,.T.);
#166=ORIENTED_EDGE('',*,*,#136,.F.);
#167=ORIENTED_EDGE('',*,*,#135,.F.);
#168=ORIENTED_EDGE('',*,*,#137,.F.);
#169=ORIENTED_EDGE('',*,*,#138,.T.);
#170=ORIENTED_EDGE('',*,*,#139,.T.);
#171=ORIENTED_EDGE('',*,*,#138,.F.);
#172=ORIENTED_EDGE('',*,*,#140,.F.);
#173=ORIENTED_EDGE('',*,*,#141,.T.);
#174=ORIENTED_EDGE('',*,*,#142,.T.);
#175=ORIENTED_EDGE('',*,*,#141,.F.);
#176=ORIENTED_EDGE('',*,*,#133,.T.);
#177=ORIENTED_EDGE('',*,*,#134,.T.);
#178=ORIENTED_EDGE('',*,*,#131,.T.);
#179=ORIENTED_EDGE('',*,*,#132,.T.);
#180=ORIENTED_EDGE('',*,*,#143,.F.);
#181=ORIENTED_EDGE('',*,*,#144,.T.);
#182=ORIENTED_EDGE('',*,*,#145,.T.);
#183=ORIENTED_EDGE('',*,*,#144,.F.);
#184=ORIENTED_EDGE('',*,*,#146,.F.);
#185=ORIENTED_EDGE('',*,*,#147,.T.);
#186=ORIENTED_EDGE('',*,*,#148,.F.);
#187=ORIENTED_EDGE('',*,*,#149,.F.);
#188=ORIENTED_EDGE('',*,*,#150,.F.);
#189=ORIENTED_EDGE('',*,*,#149,.T.);
#190=ORIENTED_EDGE('',*,*,#151,.F.);
#191=ORIENTED_EDGE('',*,*,#152,.F.);
#192=ORIENTED_EDGE('',*,*,#136,.T.);
#193=ORIENTED_EDGE('',*,*,#153,.F.);
#194=ORIENTED_EDGE('',*,*,#152,.T.);
#195=ORIENTED_EDGE('',*,*,#154,.F.);
#196=ORIENTED_EDGE('',*,*,#155,.F.);
#197=ORIENTED_EDGE('',*,*,#156,.F.);
#198=ORIENTED_EDGE('',*,*,#155,.T.);
#199=ORIENTED_EDGE('',*,*,#157,.F.);
#200=ORIENTED_EDGE('',*,*,#147,.F.);
#201=ORIENTED_EDGE('',*,*,#129,.T.);
#202=ORIENTED_EDGE('',*,*,#157,.T.);
#203=ORIENTED_EDGE('',*,*,#154,.T.);
#204=ORIENTED_EDGE('',*,*,#151,.T.);
#205=ORIENTED_EDGE('',*,*,#148,.T.);
#206=ORIENTED_EDGE('',*,*,#143,.T.);
#207=ORIENTED_EDGE('',*,*,#140,.T.);
#208=ORIENTED_EDGE('',*,*,#137,.T.);
#209=ORIENTED_EDGE('',*,*,#156,.T.);
#210=ORIENTED_EDGE('',*,*,#146,.T.);
#211=ORIENTED_EDGE('',*,*,#150,.T.);
#212=ORIENTED_EDGE('',*,*,#153,.T.);
#213=ORIENTED_EDGE('',*,*,#145,.F.);
#214=ORIENTED_EDGE('',*,*,#142,.F.);
#215=ORIENTED_EDGE('',*,*,#139,.F.);
#216=CYLINDRICAL_SURFACE('',#246,6.25);
#217=CYLINDRICAL_SURFACE('',#248,6.25);
#218=CYLINDRICAL_SURFACE('',#250,12.5);
#219=CYLINDRICAL_SURFACE('',#253,15.);
#220=CYLINDRICAL_SURFACE('',#256,12.5);
#221=ADVANCED_FACE('',(#31),#216,.F.);
#222=ADVANCED_FACE('',(#32),#217,.F.);
#223=ADVANCED_FACE('',(#33),#218,.F.);
#224=ADVANCED_FACE('',(#34,#21,#22),#219,.F.);
#225=ADVANCED_FACE('',(#35),#220,.F.);
#226=ADVANCED_FACE('',(#36),#15,.T.);
#227=ADVANCED_FACE('',(#37,#23),#16,.T.);
#228=ADVANCED_FACE('',(#38),#17,.T.);
#229=ADVANCED_FACE('',(#39,#24),#18,.T.);
#230=ADVANCED_FACE('',(#40,#25,#26,#27),#19,.T.);
#231=ADVANCED_FACE('',(#41,#28,#29,#30),#20,.F.);
#232=CLOSED_SHELL('',(#221,#222,#223,#224,#225,#226,#227,#228,#229,#230,
#231));
#233=DERIVED_UNIT_ELEMENT(#235,1.);
#234=DERIVED_UNIT_ELEMENT(#456,-3.);
#235=(
MASS_UNIT()
NAMED_UNIT(*)
SI_UNIT(.KILO.,.GRAM.)
);
#236=DERIVED_UNIT((#233,#234));
#237=MEASURE_REPRESENTATION_ITEM('density measure',
POSITIVE_RATIO_MEASURE(7850.),#236);
#238=PROPERTY_DEFINITION_REPRESENTATION(#243,#240);
#239=PROPERTY_DEFINITION_REPRESENTATION(#244,#241);
#240=REPRESENTATION('material name',(#242),#453);
#241=REPRESENTATION('density',(#237),#453);
#242=DESCRIPTIVE_REPRESENTATION_ITEM('Acier','Acier');
#243=PROPERTY_DEFINITION('material property','material name',#463);
#244=PROPERTY_DEFINITION('material property','density of part',#463);
#245=AXIS2_PLACEMENT_3D('placement',#322,#265,#266);
#246=AXIS2_PLACEMENT_3D('',#323,#267,#268);
#247=AXIS2_PLACEMENT_3D('',#325,#269,#270);
#248=AXIS2_PLACEMENT_3D('',#365,#272,#273);
#249=AXIS2_PLACEMENT_3D('',#406,#275,#276);
#250=AXIS2_PLACEMENT_3D('',#407,#277,#278);
#251=AXIS2_PLACEMENT_3D('',#409,#279,#280);
#252=AXIS2_PLACEMENT_3D('',#412,#282,#283);
#253=AXIS2_PLACEMENT_3D('',#413,#284,#285);
#254=AXIS2_PLACEMENT_3D('',#415,#286,#287);
#255=AXIS2_PLACEMENT_3D('',#418,#289,#290);
#256=AXIS2_PLACEMENT_3D('',#419,#291,#292);
#257=AXIS2_PLACEMENT_3D('',#421,#293,#294);
#258=AXIS2_PLACEMENT_3D('',#424,#296,#297);
#259=AXIS2_PLACEMENT_3D('',#425,#298,#299);
#260=AXIS2_PLACEMENT_3D('',#434,#304,#305);
#261=AXIS2_PLACEMENT_3D('',#440,#309,#310);
#262=AXIS2_PLACEMENT_3D('',#446,#314,#315);
#263=AXIS2_PLACEMENT_3D('',#449,#318,#319);
#264=AXIS2_PLACEMENT_3D('',#450,#320,#321);
#265=DIRECTION('axis',(0.,0.,1.));
#266=DIRECTION('refdir',(1.,0.,0.));
#267=DIRECTION('center_axis',(-8.88178419700125E-17,1.,0.));
#268=DIRECTION('ref_axis',(0.,0.,-1.));
#269=DIRECTION('center_axis',(-8.88178419700125E-17,1.,0.));
#270=DIRECTION('ref_axis',(0.,0.,-1.));
#271=DIRECTION('',(-8.88178419700125E-17,1.,0.));
#272=DIRECTION('center_axis',(-8.88178419700125E-17,1.,0.));
#273=DIRECTION('ref_axis',(0.,0.,-1.));
#274=DIRECTION('',(-8.88178419700125E-17,1.,0.));
#275=DIRECTION('center_axis',(0.,-1.,0.));
#276=DIRECTION('ref_axis',(0.,0.,-1.));
#277=DIRECTION('center_axis',(0.,0.,1.));
#278=DIRECTION('ref_axis',(1.,0.,0.));
#279=DIRECTION('center_axis',(0.,0.,-1.));
#280=DIRECTION('ref_axis',(1.,0.,0.));
#281=DIRECTION('',(0.,0.,-1.));
#282=DIRECTION('center_axis',(0.,0.,-1.));
#283=DIRECTION('ref_axis',(1.,0.,0.));
#284=DIRECTION('center_axis',(0.,0.,1.));
#285=DIRECTION('ref_axis',(1.,0.,0.));
#286=DIRECTION('center_axis',(0.,0.,-1.));
#287=DIRECTION('ref_axis',(1.,0.,0.));
#288=DIRECTION('',(0.,0.,-1.));
#289=DIRECTION('center_axis',(0.,0.,-1.));
#290=DIRECTION('ref_axis',(1.,0.,0.));
#291=DIRECTION('center_axis',(0.,0.,1.));
#292=DIRECTION('ref_axis',(1.,0.,0.));
#293=DIRECTION('center_axis',(0.,0.,-1.));
#294=DIRECTION('ref_axis',(1.,0.,0.));
#295=DIRECTION('',(0.,0.,-1.));
#296=DIRECTION('center_axis',(0.,0.,-1.));
#297=DIRECTION('ref_axis',(1.,0.,0.));
#298=DIRECTION('center_axis',(-1.,0.,0.));
#299=DIRECTION('ref_axis',(0.,-1.,0.));
#300=DIRECTION('',(0.,1.,0.));
#301=DIRECTION('',(0.,0.,1.));
#302=DIRECTION('',(0.,-1.,0.));
#303=DIRECTION('',(0.,0.,1.));
#304=DIRECTION('center_axis',(0.,1.,0.));
#305=DIRECTION('ref_axis',(-1.,0.,0.));
#306=DIRECTION('',(1.,0.,0.));
#307=DIRECTION('',(-1.,0.,0.));
#308=DIRECTION('',(0.,0.,1.));
#309=DIRECTION('center_axis',(1.,0.,0.));
#310=DIRECTION('ref_axis',(0.,1.,0.));
#311=DIRECTION('',(0.,-1.,0.));
#312=DIRECTION('',(0.,1.,0.));
#313=DIRECTION('',(0.,0.,1.));
#314=DIRECTION('center_axis',(8.88178419700125E-17,-1.,0.));
#315=DIRECTION('ref_axis',(1.,8.88178419700125E-17,0.));
#316=DIRECTION('',(-1.,-8.88178419700125E-17,0.));
#317=DIRECTION('',(1.,8.88178419700125E-17,0.));
#318=DIRECTION('center_axis',(0.,0.,1.));
#319=DIRECTION('ref_axis',(1.,0.,0.));
#320=DIRECTION('center_axis',(0.,0.,1.));
#321=DIRECTION('ref_axis',(1.,0.,0.));
#322=CARTESIAN_POINT('',(0.,0.,0.));
#323=CARTESIAN_POINT('Origin',(105.,-15.,12.5));
#324=CARTESIAN_POINT('',(105.,-60.,18.75));
#325=CARTESIAN_POINT('Origin',(105.,-60.,12.5));
#326=CARTESIAN_POINT('',(105.,-40.,18.75));
#327=CARTESIAN_POINT('',(105.,-15.,18.75));
#328=CARTESIAN_POINT('',(98.75,-38.6358901432946,12.5));
#329=CARTESIAN_POINT('Ctrl Pts',(98.75,-38.6358901432946,12.5));
#330=CARTESIAN_POINT('Ctrl Pts',(98.75,-38.6358901432946,11.7040992861252));
#331=CARTESIAN_POINT('Ctrl Pts',(98.9110568112209,-38.7129557764254,10.8629584555881));
#332=CARTESIAN_POINT('Ctrl Pts',(99.5516079702081,-38.9798211889585,9.32664696035073));
#333=CARTESIAN_POINT('Ctrl Pts',(100.030711423478,-39.1646486246391,8.63045381168979));
#334=CARTESIAN_POINT('Ctrl Pts',(101.129789348637,-39.5035088655747,7.53137588653133));
#335=CARTESIAN_POINT('Ctrl Pts',(101.826230128332,-39.6810623610862,7.05177079488161));
#336=CARTESIAN_POINT('Ctrl Pts',(103.363522442023,-39.9307852622148,6.41083263285841));
#337=CARTESIAN_POINT('Ctrl Pts',(104.205061050669,-40.,6.25));
#338=CARTESIAN_POINT('Ctrl Pts',(105.794938949331,-40.,6.25));
#339=CARTESIAN_POINT('Ctrl Pts',(106.636477557977,-39.9307852622148,6.41083263285841));
#340=CARTESIAN_POINT('Ctrl Pts',(108.173769871668,-39.6810623610862,7.05177079488161));
#341=CARTESIAN_POINT('Ctrl Pts',(108.870210651363,-39.5035088655747,7.53137588653133));
#342=CARTESIAN_POINT('Ctrl Pts',(109.969288576522,-39.1646486246391,8.63045381168979));
#343=CARTESIAN_POINT('Ctrl Pts',(110.448392029792,-38.9798211889585,9.32664696035073));
#344=CARTESIAN_POINT('Ctrl Pts',(111.088943188779,-38.7129557764254,10.8629584555881));
#345=CARTESIAN_POINT('Ctrl Pts',(111.25,-38.6358901432946,11.7040992861252));
#346=CARTESIAN_POINT('Ctrl Pts',(111.25,-38.6358901432946,13.2959007138748));
#347=CARTESIAN_POINT('Ctrl Pts',(111.088943188779,-38.7129557764254,14.1370415444119));
#348=CARTESIAN_POINT('Ctrl Pts',(110.448392029792,-38.9798211889585,15.6733530396493));
#349=CARTESIAN_POINT('Ctrl Pts',(109.969288576522,-39.1646486246391,16.3695461883102));
#350=CARTESIAN_POINT('Ctrl Pts',(108.870210651363,-39.5035088655747,17.4686241134687));
#351=CARTESIAN_POINT('Ctrl Pts',(108.173769871668,-39.6810623610862,17.9482292051184));
#352=CARTESIAN_POINT('Ctrl Pts',(106.636477557977,-39.9307852622148,18.5891673671416));
#353=CARTESIAN_POINT('Ctrl Pts',(105.794938949331,-40.,18.75));
#354=CARTESIAN_POINT('Ctrl Pts',(105.,-40.,18.75));
#355=CARTESIAN_POINT('Ctrl Pts',(105.,-40.,18.75));
#356=CARTESIAN_POINT('Ctrl Pts',(104.205061050669,-40.,18.75));
#357=CARTESIAN_POINT('Ctrl Pts',(103.363522442023,-39.9307852622148,18.5891673671416));
#358=CARTESIAN_POINT('Ctrl Pts',(101.826230128332,-39.6810623610862,17.9482292051184));
#359=CARTESIAN_POINT('Ctrl Pts',(101.129789348637,-39.5035088655747,17.4686241134687));
#360=CARTESIAN_POINT('Ctrl Pts',(100.030711423478,-39.1646486246391,16.3695461883102));
#361=CARTESIAN_POINT('Ctrl Pts',(99.5516079702081,-38.9798211889585,15.6733530396493));
#362=CARTESIAN_POINT('Ctrl Pts',(98.9110568112209,-38.7129557764254,14.1370415444119));
#363=CARTESIAN_POINT('Ctrl Pts',(98.75,-38.6358901432946,13.2959007138748));
#364=CARTESIAN_POINT('Ctrl Pts',(98.75,-38.6358901432946,12.5));
#365=CARTESIAN_POINT('Origin',(105.,-15.,12.5));
#366=CARTESIAN_POINT('',(98.75,-11.3641098567054,12.5));
#367=CARTESIAN_POINT('',(105.,-10.,18.75));
#368=CARTESIAN_POINT('Ctrl Pts',(98.75,-11.3641098567054,12.5));
#369=CARTESIAN_POINT('Ctrl Pts',(98.75,-11.3641098567054,13.2959007138748));
#370=CARTESIAN_POINT('Ctrl Pts',(98.9110568112209,-11.2870442235746,14.1370415444119));
#371=CARTESIAN_POINT('Ctrl Pts',(99.5516079702081,-11.0201788110415,15.6733530396493));
#372=CARTESIAN_POINT('Ctrl Pts',(100.030711423478,-10.8353513753609,16.3695461883102));
#373=CARTESIAN_POINT('Ctrl Pts',(101.129789348637,-10.4964911344253,17.4686241134687));
#374=CARTESIAN_POINT('Ctrl Pts',(101.826230128332,-10.3189376389138,17.9482292051184));
#375=CARTESIAN_POINT('Ctrl Pts',(103.363522442023,-10.0692147377852,18.5891673671416));
#376=CARTESIAN_POINT('Ctrl Pts',(104.205061050669,-10.,18.75));
#377=CARTESIAN_POINT('Ctrl Pts',(105.,-10.,18.75));
#378=CARTESIAN_POINT('Ctrl Pts',(105.,-10.,18.75));
#379=CARTESIAN_POINT('Ctrl Pts',(105.794938949331,-10.,18.75));
#380=CARTESIAN_POINT('Ctrl Pts',(106.636477557977,-10.0692147377852,18.5891673671416));
#381=CARTESIAN_POINT('Ctrl Pts',(108.173769871668,-10.3189376389138,17.9482292051184));
#382=CARTESIAN_POINT('Ctrl Pts',(108.870210651363,-10.4964911344253,17.4686241134687));
#383=CARTESIAN_POINT('Ctrl Pts',(109.969288576522,-10.8353513753609,16.3695461883102));
#384=CARTESIAN_POINT('Ctrl Pts',(110.448392029792,-11.0201788110415,15.6733530396493));
#385=CARTESIAN_POINT('Ctrl Pts',(111.088943188779,-11.2870442235746,14.1370415444119));
#386=CARTESIAN_POINT('Ctrl Pts',(111.25,-11.3641098567054,13.2959007138748));
#387=CARTESIAN_POINT('Ctrl Pts',(111.25,-11.3641098567054,11.7040992861252));
#388=CARTESIAN_POINT('Ctrl Pts',(111.088943188779,-11.2870442235746,10.8629584555881));
#389=CARTESIAN_POINT('Ctrl Pts',(110.448392029792,-11.0201788110415,9.32664696035073));
#390=CARTESIAN_POINT('Ctrl Pts',(109.969288576522,-10.8353513753609,8.63045381168979));
#391=CARTESIAN_POINT('Ctrl Pts',(108.870210651363,-10.4964911344253,7.53137588653133));
#392=CARTESIAN_POINT('Ctrl Pts',(108.173769871668,-10.3189376389138,7.05177079488161));
#393=CARTESIAN_POINT('Ctrl Pts',(106.636477557977,-10.0692147377852,6.41083263285841));
#394=CARTESIAN_POINT('Ctrl Pts',(105.794938949331,-10.,6.25));
#395=CARTESIAN_POINT('Ctrl Pts',(104.205061050669,-10.,6.25));
#396=CARTESIAN_POINT('Ctrl Pts',(103.363522442023,-10.0692147377852,6.41083263285841));
#397=CARTESIAN_POINT('Ctrl Pts',(101.826230128332,-10.3189376389138,7.05177079488161));
#398=CARTESIAN_POINT('Ctrl Pts',(101.129789348637,-10.4964911344253,7.53137588653133));
#399=CARTESIAN_POINT('Ctrl Pts',(100.030711423478,-10.8353513753609,8.63045381168979));
#400=CARTESIAN_POINT('Ctrl Pts',(99.5516079702081,-11.0201788110415,9.32664696035073));
#401=CARTESIAN_POINT('Ctrl Pts',(98.9110568112209,-11.2870442235746,10.8629584555881));
#402=CARTESIAN_POINT('Ctrl Pts',(98.75,-11.3641098567054,11.7040992861252));
#403=CARTESIAN_POINT('Ctrl Pts',(98.75,-11.3641098567054,12.5));
#404=CARTESIAN_POINT('',(105.,9.99999999999999,18.75));
#405=CARTESIAN_POINT('',(105.,-15.,18.75));
#406=CARTESIAN_POINT('Origin',(105.,9.99999999999999,12.5));
#407=CARTESIAN_POINT('Origin',(30.,-25.,0.));
#408=CARTESIAN_POINT('',(17.5,-25.,25.));
#409=CARTESIAN_POINT('Origin',(30.,-25.,25.));
#410=CARTESIAN_POINT('',(17.5,-25.,0.));
#411=CARTESIAN_POINT('',(17.5,-25.,0.));
#412=CARTESIAN_POINT('Origin',(30.,-25.,0.));
#413=CARTESIAN_POINT('Origin',(105.,-25.,0.));
#414=CARTESIAN_POINT('',(90.,-25.,25.));
#415=CARTESIAN_POINT('Origin',(105.,-25.,25.));
#416=CARTESIAN_POINT('',(90.,-25.,0.));
#417=CARTESIAN_POINT('',(90.,-25.,0.));
#418=CARTESIAN_POINT('Origin',(105.,-25.,0.));
#419=CARTESIAN_POINT('Origin',(180.,-25.,0.));
#420=CARTESIAN_POINT('',(167.5,-25.,25.));
#421=CARTESIAN_POINT('Origin',(180.,-25.,25.));
#422=CARTESIAN_POINT('',(167.5,-25.,0.));
#423=CARTESIAN_POINT('',(167.5,-25.,0.));
#424=CARTESIAN_POINT('Origin',(180.,-25.,0.));
#425=CARTESIAN_POINT('Origin',(5.,10.,0.));
#426=CARTESIAN_POINT('',(5.,-60.,0.));
#427=CARTESIAN_POINT('',(5.,10.,0.));
#428=CARTESIAN_POINT('',(5.,-60.,0.));
#429=CARTESIAN_POINT('',(5.,-60.,25.));
#430=CARTESIAN_POINT('',(5.,-60.,0.));
#431=CARTESIAN_POINT('',(5.,10.,25.));
#432=CARTESIAN_POINT('',(5.,-60.,25.));
#433=CARTESIAN_POINT('',(5.,10.,0.));
#434=CARTESIAN_POINT('Origin',(205.,10.,0.));
#435=CARTESIAN_POINT('',(205.,10.,0.));
#436=CARTESIAN_POINT('',(5.,10.,0.));
#437=CARTESIAN_POINT('',(205.,10.,25.));
#438=CARTESIAN_POINT('',(5.,10.,25.));
#439=CARTESIAN_POINT('',(205.,10.,0.));
#440=CARTESIAN_POINT('Origin',(205.,-60.,0.));
#441=CARTESIAN_POINT('',(205.,-60.,0.));
#442=CARTESIAN_POINT('',(205.,10.,0.));
#443=CARTESIAN_POINT('',(205.,-60.,25.));
#444=CARTESIAN_POINT('',(205.,10.,25.));
#445=CARTESIAN_POINT('',(205.,-60.,0.));
#446=CARTESIAN_POINT('Origin',(5.,-60.,0.));
#447=CARTESIAN_POINT('',(205.,-60.,0.));
#448=CARTESIAN_POINT('',(205.,-60.,25.));
#449=CARTESIAN_POINT('Origin',(105.,-25.,25.));
#450=CARTESIAN_POINT('Origin',(105.,-25.,0.));
#451=UNCERTAINTY_MEASURE_WITH_UNIT(LENGTH_MEASURE(0.01),#455,
'DISTANCE_ACCURACY_VALUE',
'Maximum model space distance between geometric entities at asserted c
onnectivities');
#452=UNCERTAINTY_MEASURE_WITH_UNIT(LENGTH_MEASURE(0.01),#455,
'DISTANCE_ACCURACY_VALUE',
'Maximum model space distance between geometric entities at asserted c
onnectivities');
#453=(
GEOMETRIC_REPRESENTATION_CONTEXT(3)
GLOBAL_UNCERTAINTY_ASSIGNED_CONTEXT((#451))
GLOBAL_UNIT_ASSIGNED_CONTEXT((#455,#457,#458))
REPRESENTATION_CONTEXT('','3D')
);
#454=(
GEOMETRIC_REPRESENTATION_CONTEXT(3)
GLOBAL_UNCERTAINTY_ASSIGNED_CONTEXT((#452))
GLOBAL_UNIT_ASSIGNED_CONTEXT((#455,#457,#458))
REPRESENTATION_CONTEXT('','3D')
);
#455=(
LENGTH_UNIT()
NAMED_UNIT(*)
SI_UNIT(.MILLI.,.METRE.)
);
#456=(
LENGTH_UNIT()
NAMED_UNIT(*)
SI_UNIT($,.METRE.)
);
#457=(
NAMED_UNIT(*)
PLANE_ANGLE_UNIT()
SI_UNIT($,.RADIAN.)
);
#458=(
NAMED_UNIT(*)
SI_UNIT($,.STERADIAN.)
SOLID_ANGLE_UNIT()
);
#459=SHAPE_DEFINITION_REPRESENTATION(#460,#461);
#460=PRODUCT_DEFINITION_SHAPE('',$,#463);
#461=SHAPE_REPRESENTATION('',(#245),#453);
#462=PRODUCT_DEFINITION_CONTEXT('part definition',#467,'design');
#463=PRODUCT_DEFINITION('Sans nom','Sans nom v1',#464,#462);
#464=PRODUCT_DEFINITION_FORMATION('',$,#469);
#465=PRODUCT_RELATED_PRODUCT_CATEGORY('Sans nom v1','Sans nom v1',(#469));
#466=APPLICATION_PROTOCOL_DEFINITION('international standard',
'automotive_design',2009,#467);
#467=APPLICATION_CONTEXT(
'Core Data for Automotive Mechanical Design Process');
#468=PRODUCT_CONTEXT('part definition',#467,'mechanical');
#469=PRODUCT('Sans nom','Sans nom v1',$,(#468));
#470=PRESENTATION_STYLE_ASSIGNMENT((#471));
#471=SURFACE_STYLE_USAGE(.BOTH.,#472);
#472=SURFACE_SIDE_STYLE('',(#473));
#473=SURFACE_STYLE_FILL_AREA(#474);
#474=FILL_AREA_STYLE('Acier - Satin\X\E9',(#475));
#475=FILL_AREA_STYLE_COLOUR('Acier - Satin\X\E9',#476);
#476=COLOUR_RGB('Acier - Satin\X\E9',0.627450980392157,0.627450980392157,
0.627450980392157);
ENDSEC;
END-ISO-10303-21;
