ISO-10303-21;
HEADER;
/* Generated by software containing ST-Developer
 * from STEP Tools, Inc. (www.steptools.com) 
 */

FILE_DESCRIPTION(
/* description */ (''),
/* implementation_level */ '2;1');

FILE_NAME(
/* name */ 'C:/Users/Fabien/Downloads/Sans nom v5.step',
/* time_stamp */ '2021-03-21T23:30:18+01:00',
/* author */ (''),
/* organization */ (''),
/* preprocessor_version */ 'ST-DEVELOPER v18.1',
/* originating_system */ 'Autodesk Translation Framework v9.10.0.1330',

/* authorisation */ '');

FILE_SCHEMA (('AUTOMOTIVE_DESIGN { 1 0 10303 214 3 1 1 }'));
ENDSEC;

DATA;
#10=MECHANICAL_DESIGN_GEOMETRIC_PRESENTATION_REPRESENTATION('',(#19,#20),
#591);
#11=ITEM_DEFINED_TRANSFORMATION($,$,#375,#397);
#12=(
REPRESENTATION_RELATIONSHIP($,$,#602,#601)
REPRESENTATION_RELATIONSHIP_WITH_TRANSFORMATION(#11)
SHAPE_REPRESENTATION_RELATIONSHIP()
);
#13=CONTEXT_DEPENDENT_SHAPE_REPRESENTATION(#12,#600);
#14=NEXT_ASSEMBLY_USAGE_OCCURRENCE('Composant2:1','Composant2:1',
'Composant2:1',#604,#605,'Composant2:1');
#15=SHAPE_REPRESENTATION_RELATIONSHIP('SRR','None',#602,#17);
#16=SHAPE_REPRESENTATION_RELATIONSHIP('SRR','None',#601,#18);
#17=ADVANCED_BREP_SHAPE_REPRESENTATION('',(#21),#590);
#18=ADVANCED_BREP_SHAPE_REPRESENTATION('',(#22),#589);
#19=STYLED_ITEM('',(#615),#21);
#20=STYLED_ITEM('',(#615),#22);
#21=MANIFOLD_SOLID_BREP('Corps7',#360);
#22=MANIFOLD_SOLID_BREP('Corps6',#361);
#23=FACE_BOUND('',#72,.T.);
#24=FACE_BOUND('',#74,.T.);
#25=FACE_BOUND('',#84,.T.);
#26=FACE_BOUND('',#86,.T.);
#27=PLANE('',#379);
#28=PLANE('',#380);
#29=PLANE('',#381);
#30=PLANE('',#382);
#31=PLANE('',#383);
#32=PLANE('',#384);
#33=PLANE('',#385);
#34=PLANE('',#386);
#35=PLANE('',#387);
#36=PLANE('',#388);
#37=PLANE('',#389);
#38=PLANE('',#390);
#39=PLANE('',#391);
#40=PLANE('',#392);
#41=PLANE('',#393);
#42=PLANE('',#394);
#43=PLANE('',#395);
#44=PLANE('',#396);
#45=FACE_OUTER_BOUND('',#64,.T.);
#46=FACE_OUTER_BOUND('',#65,.T.);
#47=FACE_OUTER_BOUND('',#66,.T.);
#48=FACE_OUTER_BOUND('',#67,.T.);
#49=FACE_OUTER_BOUND('',#68,.T.);
#50=FACE_OUTER_BOUND('',#69,.T.);
#51=FACE_OUTER_BOUND('',#70,.T.);
#52=FACE_OUTER_BOUND('',#71,.T.);
#53=FACE_OUTER_BOUND('',#73,.T.);
#54=FACE_OUTER_BOUND('',#75,.T.);
#55=FACE_OUTER_BOUND('',#76,.T.);
#56=FACE_OUTER_BOUND('',#77,.T.);
#57=FACE_OUTER_BOUND('',#78,.T.);
#58=FACE_OUTER_BOUND('',#79,.T.);
#59=FACE_OUTER_BOUND('',#80,.T.);
#60=FACE_OUTER_BOUND('',#81,.T.);
#61=FACE_OUTER_BOUND('',#82,.T.);
#62=FACE_OUTER_BOUND('',#83,.T.);
#63=FACE_OUTER_BOUND('',#85,.T.);
#64=EDGE_LOOP('',(#250,#251,#252,#253));
#65=EDGE_LOOP('',(#254,#255,#256,#257));
#66=EDGE_LOOP('',(#258,#259,#260,#261));
#67=EDGE_LOOP('',(#262,#263,#264,#265));
#68=EDGE_LOOP('',(#266,#267,#268,#269));
#69=EDGE_LOOP('',(#270,#271,#272,#273));
#70=EDGE_LOOP('',(#274,#275,#276,#277));
#71=EDGE_LOOP('',(#278,#279,#280,#281,#282,#283));
#72=EDGE_LOOP('',(#284));
#73=EDGE_LOOP('',(#285,#286,#287,#288,#289,#290));
#74=EDGE_LOOP('',(#291));
#75=EDGE_LOOP('',(#292,#293,#294,#295));
#76=EDGE_LOOP('',(#296,#297,#298,#299));
#77=EDGE_LOOP('',(#300,#301,#302,#303));
#78=EDGE_LOOP('',(#304,#305,#306,#307));
#79=EDGE_LOOP('',(#308,#309,#310,#311));
#80=EDGE_LOOP('',(#312,#313,#314,#315));
#81=EDGE_LOOP('',(#316,#317,#318,#319));
#82=EDGE_LOOP('',(#320,#321,#322,#323));
#83=EDGE_LOOP('',(#324,#325,#326,#327));
#84=EDGE_LOOP('',(#328,#329,#330,#331));
#85=EDGE_LOOP('',(#332,#333,#334,#335));
#86=EDGE_LOOP('',(#336,#337,#338,#339));
#87=LINE('',#495,#130);
#88=LINE('',#500,#131);
#89=LINE('',#502,#132);
#90=LINE('',#504,#133);
#91=LINE('',#505,#134);
#92=LINE('',#508,#135);
#93=LINE('',#510,#136);
#94=LINE('',#511,#137);
#95=LINE('',#514,#138);
#96=LINE('',#516,#139);
#97=LINE('',#517,#140);
#98=LINE('',#520,#141);
#99=LINE('',#522,#142);
#100=LINE('',#523,#143);
#101=LINE('',#526,#144);
#102=LINE('',#528,#145);
#103=LINE('',#529,#146);
#104=LINE('',#531,#147);
#105=LINE('',#532,#148);
#106=LINE('',#538,#149);
#107=LINE('',#540,#150);
#108=LINE('',#542,#151);
#109=LINE('',#543,#152);
#110=LINE('',#546,#153);
#111=LINE('',#548,#154);
#112=LINE('',#549,#155);
#113=LINE('',#552,#156);
#114=LINE('',#554,#157);
#115=LINE('',#555,#158);
#116=LINE('',#557,#159);
#117=LINE('',#558,#160);
#118=LINE('',#562,#161);
#119=LINE('',#564,#162);
#120=LINE('',#566,#163);
#121=LINE('',#567,#164);
#122=LINE('',#570,#165);
#123=LINE('',#572,#166);
#124=LINE('',#573,#167);
#125=LINE('',#576,#168);
#126=LINE('',#578,#169);
#127=LINE('',#579,#170);
#128=LINE('',#581,#171);
#129=LINE('',#582,#172);
#130=VECTOR('',#406,5.);
#131=VECTOR('',#411,10.);
#132=VECTOR('',#412,10.);
#133=VECTOR('',#413,10.);
#134=VECTOR('',#414,10.);
#135=VECTOR('',#417,10.);
#136=VECTOR('',#418,10.);
#137=VECTOR('',#419,10.);
#138=VECTOR('',#422,10.);
#139=VECTOR('',#423,10.);
#140=VECTOR('',#424,10.);
#141=VECTOR('',#427,10.);
#142=VECTOR('',#428,10.);
#143=VECTOR('',#429,10.);
#144=VECTOR('',#432,10.);
#145=VECTOR('',#433,10.);
#146=VECTOR('',#434,10.);
#147=VECTOR('',#437,10.);
#148=VECTOR('',#438,10.);
#149=VECTOR('',#445,10.);
#150=VECTOR('',#446,10.);
#151=VECTOR('',#447,10.);
#152=VECTOR('',#448,10.);
#153=VECTOR('',#451,10.);
#154=VECTOR('',#452,10.);
#155=VECTOR('',#453,10.);
#156=VECTOR('',#456,10.);
#157=VECTOR('',#457,10.);
#158=VECTOR('',#458,10.);
#159=VECTOR('',#461,10.);
#160=VECTOR('',#462,10.);
#161=VECTOR('',#465,10.);
#162=VECTOR('',#466,10.);
#163=VECTOR('',#467,10.);
#164=VECTOR('',#468,10.);
#165=VECTOR('',#471,10.);
#166=VECTOR('',#472,10.);
#167=VECTOR('',#473,10.);
#168=VECTOR('',#476,10.);
#169=VECTOR('',#477,10.);
#170=VECTOR('',#478,10.);
#171=VECTOR('',#481,10.);
#172=VECTOR('',#482,10.);
#173=CIRCLE('',#377,5.);
#174=CIRCLE('',#378,5.);
#175=VERTEX_POINT('',#492);
#176=VERTEX_POINT('',#494);
#177=VERTEX_POINT('',#498);
#178=VERTEX_POINT('',#499);
#179=VERTEX_POINT('',#501);
#180=VERTEX_POINT('',#503);
#181=VERTEX_POINT('',#507);
#182=VERTEX_POINT('',#509);
#183=VERTEX_POINT('',#513);
#184=VERTEX_POINT('',#515);
#185=VERTEX_POINT('',#519);
#186=VERTEX_POINT('',#521);
#187=VERTEX_POINT('',#525);
#188=VERTEX_POINT('',#527);
#189=VERTEX_POINT('',#536);
#190=VERTEX_POINT('',#537);
#191=VERTEX_POINT('',#539);
#192=VERTEX_POINT('',#541);
#193=VERTEX_POINT('',#545);
#194=VERTEX_POINT('',#547);
#195=VERTEX_POINT('',#551);
#196=VERTEX_POINT('',#553);
#197=VERTEX_POINT('',#560);
#198=VERTEX_POINT('',#561);
#199=VERTEX_POINT('',#563);
#200=VERTEX_POINT('',#565);
#201=VERTEX_POINT('',#569);
#202=VERTEX_POINT('',#571);
#203=VERTEX_POINT('',#575);
#204=VERTEX_POINT('',#577);
#205=EDGE_CURVE('',#175,#175,#173,.T.);
#206=EDGE_CURVE('',#175,#176,#87,.T.);
#207=EDGE_CURVE('',#176,#176,#174,.T.);
#208=EDGE_CURVE('',#177,#178,#88,.T.);
#209=EDGE_CURVE('',#177,#179,#89,.T.);
#210=EDGE_CURVE('',#180,#179,#90,.T.);
#211=EDGE_CURVE('',#178,#180,#91,.T.);
#212=EDGE_CURVE('',#178,#181,#92,.T.);
#213=EDGE_CURVE('',#182,#180,#93,.T.);
#214=EDGE_CURVE('',#181,#182,#94,.T.);
#215=EDGE_CURVE('',#181,#183,#95,.T.);
#216=EDGE_CURVE('',#184,#182,#96,.T.);
#217=EDGE_CURVE('',#183,#184,#97,.T.);
#218=EDGE_CURVE('',#185,#183,#98,.T.);
#219=EDGE_CURVE('',#186,#184,#99,.T.);
#220=EDGE_CURVE('',#185,#186,#100,.T.);
#221=EDGE_CURVE('',#187,#185,#101,.T.);
#222=EDGE_CURVE('',#188,#186,#102,.T.);
#223=EDGE_CURVE('',#187,#188,#103,.T.);
#224=EDGE_CURVE('',#187,#177,#104,.T.);
#225=EDGE_CURVE('',#179,#188,#105,.T.);
#226=EDGE_CURVE('',#189,#190,#106,.T.);
#227=EDGE_CURVE('',#190,#191,#107,.T.);
#228=EDGE_CURVE('',#192,#191,#108,.T.);
#229=EDGE_CURVE('',#189,#192,#109,.T.);
#230=EDGE_CURVE('',#193,#189,#110,.T.);
#231=EDGE_CURVE('',#194,#192,#111,.T.);
#232=EDGE_CURVE('',#193,#194,#112,.T.);
#233=EDGE_CURVE('',#195,#193,#113,.T.);
#234=EDGE_CURVE('',#196,#194,#114,.T.);
#235=EDGE_CURVE('',#195,#196,#115,.T.);
#236=EDGE_CURVE('',#190,#195,#116,.T.);
#237=EDGE_CURVE('',#191,#196,#117,.T.);
#238=EDGE_CURVE('',#197,#198,#118,.T.);
#239=EDGE_CURVE('',#197,#199,#119,.T.);
#240=EDGE_CURVE('',#200,#199,#120,.T.);
#241=EDGE_CURVE('',#198,#200,#121,.T.);
#242=EDGE_CURVE('',#198,#201,#122,.T.);
#243=EDGE_CURVE('',#202,#200,#123,.T.);
#244=EDGE_CURVE('',#201,#202,#124,.T.);
#245=EDGE_CURVE('',#201,#203,#125,.T.);
#246=EDGE_CURVE('',#204,#202,#126,.T.);
#247=EDGE_CURVE('',#203,#204,#127,.T.);
#248=EDGE_CURVE('',#203,#197,#128,.T.);
#249=EDGE_CURVE('',#199,#204,#129,.T.);
#250=ORIENTED_EDGE('',*,*,#205,.F.);
#251=ORIENTED_EDGE('',*,*,#206,.T.);
#252=ORIENTED_EDGE('',*,*,#207,.F.);
#253=ORIENTED_EDGE('',*,*,#206,.F.);
#254=ORIENTED_EDGE('',*,*,#208,.F.);
#255=ORIENTED_EDGE('',*,*,#209,.T.);
#256=ORIENTED_EDGE('',*,*,#210,.F.);
#257=ORIENTED_EDGE('',*,*,#211,.F.);
#258=ORIENTED_EDGE('',*,*,#212,.F.);
#259=ORIENTED_EDGE('',*,*,#211,.T.);
#260=ORIENTED_EDGE('',*,*,#213,.F.);
#261=ORIENTED_EDGE('',*,*,#214,.F.);
#262=ORIENTED_EDGE('',*,*,#215,.F.);
#263=ORIENTED_EDGE('',*,*,#214,.T.);
#264=ORIENTED_EDGE('',*,*,#216,.F.);
#265=ORIENTED_EDGE('',*,*,#217,.F.);
#266=ORIENTED_EDGE('',*,*,#218,.T.);
#267=ORIENTED_EDGE('',*,*,#217,.T.);
#268=ORIENTED_EDGE('',*,*,#219,.F.);
#269=ORIENTED_EDGE('',*,*,#220,.F.);
#270=ORIENTED_EDGE('',*,*,#221,.T.);
#271=ORIENTED_EDGE('',*,*,#220,.T.);
#272=ORIENTED_EDGE('',*,*,#222,.F.);
#273=ORIENTED_EDGE('',*,*,#223,.F.);
#274=ORIENTED_EDGE('',*,*,#224,.F.);
#275=ORIENTED_EDGE('',*,*,#223,.T.);
#276=ORIENTED_EDGE('',*,*,#225,.F.);
#277=ORIENTED_EDGE('',*,*,#209,.F.);
#278=ORIENTED_EDGE('',*,*,#225,.T.);
#279=ORIENTED_EDGE('',*,*,#222,.T.);
#280=ORIENTED_EDGE('',*,*,#219,.T.);
#281=ORIENTED_EDGE('',*,*,#216,.T.);
#282=ORIENTED_EDGE('',*,*,#213,.T.);
#283=ORIENTED_EDGE('',*,*,#210,.T.);
#284=ORIENTED_EDGE('',*,*,#205,.T.);
#285=ORIENTED_EDGE('',*,*,#224,.T.);
#286=ORIENTED_EDGE('',*,*,#208,.T.);
#287=ORIENTED_EDGE('',*,*,#212,.T.);
#288=ORIENTED_EDGE('',*,*,#215,.T.);
#289=ORIENTED_EDGE('',*,*,#218,.F.);
#290=ORIENTED_EDGE('',*,*,#221,.F.);
#291=ORIENTED_EDGE('',*,*,#207,.T.);
#292=ORIENTED_EDGE('',*,*,#226,.T.);
#293=ORIENTED_EDGE('',*,*,#227,.T.);
#294=ORIENTED_EDGE('',*,*,#228,.F.);
#295=ORIENTED_EDGE('',*,*,#229,.F.);
#296=ORIENTED_EDGE('',*,*,#230,.T.);
#297=ORIENTED_EDGE('',*,*,#229,.T.);
#298=ORIENTED_EDGE('',*,*,#231,.F.);
#299=ORIENTED_EDGE('',*,*,#232,.F.);
#300=ORIENTED_EDGE('',*,*,#233,.T.);
#301=ORIENTED_EDGE('',*,*,#232,.T.);
#302=ORIENTED_EDGE('',*,*,#234,.F.);
#303=ORIENTED_EDGE('',*,*,#235,.F.);
#304=ORIENTED_EDGE('',*,*,#236,.T.);
#305=ORIENTED_EDGE('',*,*,#235,.T.);
#306=ORIENTED_EDGE('',*,*,#237,.F.);
#307=ORIENTED_EDGE('',*,*,#227,.F.);
#308=ORIENTED_EDGE('',*,*,#238,.F.);
#309=ORIENTED_EDGE('',*,*,#239,.T.);
#310=ORIENTED_EDGE('',*,*,#240,.F.);
#311=ORIENTED_EDGE('',*,*,#241,.F.);
#312=ORIENTED_EDGE('',*,*,#242,.F.);
#313=ORIENTED_EDGE('',*,*,#241,.T.);
#314=ORIENTED_EDGE('',*,*,#243,.F.);
#315=ORIENTED_EDGE('',*,*,#244,.F.);
#316=ORIENTED_EDGE('',*,*,#245,.F.);
#317=ORIENTED_EDGE('',*,*,#244,.T.);
#318=ORIENTED_EDGE('',*,*,#246,.F.);
#319=ORIENTED_EDGE('',*,*,#247,.F.);
#320=ORIENTED_EDGE('',*,*,#248,.F.);
#321=ORIENTED_EDGE('',*,*,#247,.T.);
#322=ORIENTED_EDGE('',*,*,#249,.F.);
#323=ORIENTED_EDGE('',*,*,#239,.F.);
#324=ORIENTED_EDGE('',*,*,#249,.T.);
#325=ORIENTED_EDGE('',*,*,#246,.T.);
#326=ORIENTED_EDGE('',*,*,#243,.T.);
#327=ORIENTED_EDGE('',*,*,#240,.T.);
#328=ORIENTED_EDGE('',*,*,#237,.T.);
#329=ORIENTED_EDGE('',*,*,#234,.T.);
#330=ORIENTED_EDGE('',*,*,#231,.T.);
#331=ORIENTED_EDGE('',*,*,#228,.T.);
#332=ORIENTED_EDGE('',*,*,#248,.T.);
#333=ORIENTED_EDGE('',*,*,#238,.T.);
#334=ORIENTED_EDGE('',*,*,#242,.T.);
#335=ORIENTED_EDGE('',*,*,#245,.T.);
#336=ORIENTED_EDGE('',*,*,#236,.F.);
#337=ORIENTED_EDGE('',*,*,#226,.F.);
#338=ORIENTED_EDGE('',*,*,#230,.F.);
#339=ORIENTED_EDGE('',*,*,#233,.F.);
#340=CYLINDRICAL_SURFACE('',#376,5.);
#341=ADVANCED_FACE('',(#45),#340,.F.);
#342=ADVANCED_FACE('',(#46),#27,.T.);
#343=ADVANCED_FACE('',(#47),#28,.T.);
#344=ADVANCED_FACE('',(#48),#29,.T.);
#345=ADVANCED_FACE('',(#49),#30,.T.);
#346=ADVANCED_FACE('',(#50),#31,.T.);
#347=ADVANCED_FACE('',(#51),#32,.T.);
#348=ADVANCED_FACE('',(#52,#23),#33,.T.);
#349=ADVANCED_FACE('',(#53,#24),#34,.F.);
#350=ADVANCED_FACE('',(#54),#35,.T.);
#351=ADVANCED_FACE('',(#55),#36,.T.);
#352=ADVANCED_FACE('',(#56),#37,.T.);
#353=ADVANCED_FACE('',(#57),#38,.T.);
#354=ADVANCED_FACE('',(#58),#39,.T.);
#355=ADVANCED_FACE('',(#59),#40,.T.);
#356=ADVANCED_FACE('',(#60),#41,.T.);
#357=ADVANCED_FACE('',(#61),#42,.T.);
#358=ADVANCED_FACE('',(#62,#25),#43,.T.);
#359=ADVANCED_FACE('',(#63,#26),#44,.F.);
#360=CLOSED_SHELL('',(#341,#342,#343,#344,#345,#346,#347,#348,#349));
#361=CLOSED_SHELL('',(#350,#351,#352,#353,#354,#355,#356,#357,#358,#359));
#362=DERIVED_UNIT_ELEMENT(#364,1.);
#363=DERIVED_UNIT_ELEMENT(#593,-3.);
#364=(
MASS_UNIT()
NAMED_UNIT(*)
SI_UNIT(.KILO.,.GRAM.)
);
#365=DERIVED_UNIT((#362,#363));
#366=MEASURE_REPRESENTATION_ITEM('density measure',
POSITIVE_RATIO_MEASURE(7850.),#365);
#367=PROPERTY_DEFINITION_REPRESENTATION(#372,#369);
#368=PROPERTY_DEFINITION_REPRESENTATION(#373,#370);
#369=REPRESENTATION('material name',(#371),#590);
#370=REPRESENTATION('density',(#366),#590);
#371=DESCRIPTIVE_REPRESENTATION_ITEM('Acier','Acier');
#372=PROPERTY_DEFINITION('material property','material name',#605);
#373=PROPERTY_DEFINITION('material property','density of part',#605);
#374=AXIS2_PLACEMENT_3D('placement',#489,#398,#399);
#375=AXIS2_PLACEMENT_3D('placement',#490,#400,#401);
#376=AXIS2_PLACEMENT_3D('',#491,#402,#403);
#377=AXIS2_PLACEMENT_3D('',#493,#404,#405);
#378=AXIS2_PLACEMENT_3D('',#496,#407,#408);
#379=AXIS2_PLACEMENT_3D('',#497,#409,#410);
#380=AXIS2_PLACEMENT_3D('',#506,#415,#416);
#381=AXIS2_PLACEMENT_3D('',#512,#420,#421);
#382=AXIS2_PLACEMENT_3D('',#518,#425,#426);
#383=AXIS2_PLACEMENT_3D('',#524,#430,#431);
#384=AXIS2_PLACEMENT_3D('',#530,#435,#436);
#385=AXIS2_PLACEMENT_3D('',#533,#439,#440);
#386=AXIS2_PLACEMENT_3D('',#534,#441,#442);
#387=AXIS2_PLACEMENT_3D('',#535,#443,#444);
#388=AXIS2_PLACEMENT_3D('',#544,#449,#450);
#389=AXIS2_PLACEMENT_3D('',#550,#454,#455);
#390=AXIS2_PLACEMENT_3D('',#556,#459,#460);
#391=AXIS2_PLACEMENT_3D('',#559,#463,#464);
#392=AXIS2_PLACEMENT_3D('',#568,#469,#470);
#393=AXIS2_PLACEMENT_3D('',#574,#474,#475);
#394=AXIS2_PLACEMENT_3D('',#580,#479,#480);
#395=AXIS2_PLACEMENT_3D('',#583,#483,#484);
#396=AXIS2_PLACEMENT_3D('',#584,#485,#486);
#397=AXIS2_PLACEMENT_3D('',#585,#487,#488);
#398=DIRECTION('axis',(0.,0.,1.));
#399=DIRECTION('refdir',(1.,0.,0.));
#400=DIRECTION('axis',(0.,0.,1.));
#401=DIRECTION('refdir',(1.,0.,0.));
#402=DIRECTION('center_axis',(0.,0.,-1.));
#403=DIRECTION('ref_axis',(1.,0.,0.));
#404=DIRECTION('center_axis',(0.,0.,-1.));
#405=DIRECTION('ref_axis',(1.,0.,0.));
#406=DIRECTION('',(0.,0.,-1.));
#407=DIRECTION('center_axis',(0.,0.,1.));
#408=DIRECTION('ref_axis',(1.,0.,0.));
#409=DIRECTION('center_axis',(-1.,0.,0.));
#410=DIRECTION('ref_axis',(0.,-1.,0.));
#411=DIRECTION('',(0.,1.,0.));
#412=DIRECTION('',(0.,0.,1.));
#413=DIRECTION('',(0.,-1.,0.));
#414=DIRECTION('',(0.,0.,1.));
#415=DIRECTION('center_axis',(-0.825277629714829,-0.564727220782099,0.));
#416=DIRECTION('ref_axis',(0.564727220782099,-0.825277629714829,0.));
#417=DIRECTION('',(-0.564727220782099,0.825277629714829,0.));
#418=DIRECTION('',(0.564727220782099,-0.825277629714829,0.));
#419=DIRECTION('',(0.,0.,1.));
#420=DIRECTION('center_axis',(0.,1.,0.));
#421=DIRECTION('ref_axis',(-1.,0.,0.));
#422=DIRECTION('',(1.,0.,0.));
#423=DIRECTION('',(-1.,0.,0.));
#424=DIRECTION('',(0.,0.,1.));
#425=DIRECTION('center_axis',(0.825277629714829,-0.564727220782099,0.));
#426=DIRECTION('ref_axis',(0.564727220782099,0.825277629714829,0.));
#427=DIRECTION('',(0.564727220782099,0.825277629714829,0.));
#428=DIRECTION('',(0.564727220782099,0.825277629714829,0.));
#429=DIRECTION('',(0.,0.,1.));
#430=DIRECTION('center_axis',(1.,0.,0.));
#431=DIRECTION('ref_axis',(0.,1.,0.));
#432=DIRECTION('',(0.,1.,0.));
#433=DIRECTION('',(0.,1.,0.));
#434=DIRECTION('',(0.,0.,1.));
#435=DIRECTION('center_axis',(0.,-1.,0.));
#436=DIRECTION('ref_axis',(1.,0.,0.));
#437=DIRECTION('',(-1.,0.,0.));
#438=DIRECTION('',(1.,0.,0.));
#439=DIRECTION('center_axis',(0.,0.,1.));
#440=DIRECTION('ref_axis',(1.,0.,0.));
#441=DIRECTION('center_axis',(0.,0.,1.));
#442=DIRECTION('ref_axis',(1.,0.,0.));
#443=DIRECTION('center_axis',(0.,1.,0.));
#444=DIRECTION('ref_axis',(-1.,0.,0.));
#445=DIRECTION('',(-1.,0.,0.));
#446=DIRECTION('',(0.,0.,1.));
#447=DIRECTION('',(-1.,0.,0.));
#448=DIRECTION('',(0.,0.,1.));
#449=DIRECTION('center_axis',(-1.,0.,0.));
#450=DIRECTION('ref_axis',(0.,-1.,0.));
#451=DIRECTION('',(0.,-1.,0.));
#452=DIRECTION('',(0.,-1.,0.));
#453=DIRECTION('',(0.,0.,1.));
#454=DIRECTION('center_axis',(0.,-1.,0.));
#455=DIRECTION('ref_axis',(1.,0.,0.));
#456=DIRECTION('',(1.,0.,0.));
#457=DIRECTION('',(1.,0.,0.));
#458=DIRECTION('',(0.,0.,1.));
#459=DIRECTION('center_axis',(1.,0.,0.));
#460=DIRECTION('ref_axis',(0.,1.,0.));
#461=DIRECTION('',(0.,1.,0.));
#462=DIRECTION('',(0.,1.,0.));
#463=DIRECTION('center_axis',(1.,0.,0.));
#464=DIRECTION('ref_axis',(0.,1.,0.));
#465=DIRECTION('',(0.,-1.,0.));
#466=DIRECTION('',(0.,0.,1.));
#467=DIRECTION('',(0.,1.,0.));
#468=DIRECTION('',(0.,0.,1.));
#469=DIRECTION('center_axis',(0.,-1.,0.));
#470=DIRECTION('ref_axis',(1.,0.,0.));
#471=DIRECTION('',(-1.,0.,0.));
#472=DIRECTION('',(1.,0.,0.));
#473=DIRECTION('',(0.,0.,1.));
#474=DIRECTION('center_axis',(-1.,0.,0.));
#475=DIRECTION('ref_axis',(0.,-1.,0.));
#476=DIRECTION('',(0.,1.,0.));
#477=DIRECTION('',(0.,-1.,0.));
#478=DIRECTION('',(0.,0.,1.));
#479=DIRECTION('center_axis',(0.,1.,0.));
#480=DIRECTION('ref_axis',(-1.,0.,0.));
#481=DIRECTION('',(1.,0.,0.));
#482=DIRECTION('',(-1.,0.,0.));
#483=DIRECTION('center_axis',(0.,0.,1.));
#484=DIRECTION('ref_axis',(1.,0.,0.));
#485=DIRECTION('center_axis',(0.,0.,1.));
#486=DIRECTION('ref_axis',(-1.,0.,0.));
#487=DIRECTION('',(0.,0.,1.));
#488=DIRECTION('',(1.,0.,0.));
#489=CARTESIAN_POINT('',(0.,0.,0.));
#490=CARTESIAN_POINT('',(0.,0.,0.));
#491=CARTESIAN_POINT('Origin',(126.665418730234,24.4359828618669,2.5));
#492=CARTESIAN_POINT('',(121.665418730234,24.4359828618669,5.));
#493=CARTESIAN_POINT('Origin',(126.665418730234,24.4359828618669,5.));
#494=CARTESIAN_POINT('',(121.665418730234,24.4359828618669,0.));
#495=CARTESIAN_POINT('',(121.665418730234,24.4359828618669,2.5));
#496=CARTESIAN_POINT('Origin',(126.665418730234,24.4359828618669,0.));
#497=CARTESIAN_POINT('Origin',(101.665418730234,45.6959776784365,0.));
#498=CARTESIAN_POINT('',(101.665418730234,-0.650587533295761,0.));
#499=CARTESIAN_POINT('',(101.665418730234,45.6959776784365,0.));
#500=CARTESIAN_POINT('',(101.665418730234,-0.650587533295761,0.));
#501=CARTESIAN_POINT('',(101.665418730234,-0.650587533295761,5.));
#502=CARTESIAN_POINT('',(101.665418730234,-0.650587533295761,0.));
#503=CARTESIAN_POINT('',(101.665418730234,45.6959776784365,5.));
#504=CARTESIAN_POINT('',(101.665418730234,-0.650587533295761,5.));
#505=CARTESIAN_POINT('',(101.665418730234,45.6959776784365,0.));
#506=CARTESIAN_POINT('Origin',(99.1654187302336,49.3494124667042,0.));
#507=CARTESIAN_POINT('',(99.1654187302336,49.3494124667042,0.));
#508=CARTESIAN_POINT('',(101.665418730234,45.6959776784365,0.));
#509=CARTESIAN_POINT('',(99.1654187302336,49.3494124667042,5.));
#510=CARTESIAN_POINT('',(101.665418730234,45.6959776784365,5.));
#511=CARTESIAN_POINT('',(99.1654187302336,49.3494124667042,0.));
#512=CARTESIAN_POINT('Origin',(154.165418730234,49.3494124667043,0.));
#513=CARTESIAN_POINT('',(154.165418730234,49.3494124667042,0.));
#514=CARTESIAN_POINT('',(101.665418730234,49.3494124667043,0.));
#515=CARTESIAN_POINT('',(154.165418730234,49.3494124667042,5.));
#516=CARTESIAN_POINT('',(101.665418730234,49.3494124667043,5.));
#517=CARTESIAN_POINT('',(154.165418730234,49.3494124667042,0.));
#518=CARTESIAN_POINT('Origin',(151.665418730234,45.6959776784365,0.));
#519=CARTESIAN_POINT('',(151.665418730234,45.6959776784365,0.));
#520=CARTESIAN_POINT('',(151.665418730234,45.6959776784365,0.));
#521=CARTESIAN_POINT('',(151.665418730234,45.6959776784365,5.));
#522=CARTESIAN_POINT('',(151.665418730234,45.6959776784365,5.));
#523=CARTESIAN_POINT('',(151.665418730234,45.6959776784365,0.));
#524=CARTESIAN_POINT('Origin',(151.665418730234,-0.650587533295761,0.));
#525=CARTESIAN_POINT('',(151.665418730234,-0.650587533295761,0.));
#526=CARTESIAN_POINT('',(151.665418730234,-0.650587533295761,0.));
#527=CARTESIAN_POINT('',(151.665418730234,-0.650587533295761,5.));
#528=CARTESIAN_POINT('',(151.665418730234,-0.650587533295761,5.));
#529=CARTESIAN_POINT('',(151.665418730234,-0.650587533295761,0.));
#530=CARTESIAN_POINT('Origin',(101.665418730234,-0.650587533295761,0.));
#531=CARTESIAN_POINT('',(151.665418730234,-0.650587533295761,0.));
#532=CARTESIAN_POINT('',(151.665418730234,-0.650587533295761,5.));
#533=CARTESIAN_POINT('Origin',(126.665418730234,24.3494124667042,5.));
#534=CARTESIAN_POINT('Origin',(126.665418730234,24.3494124667042,0.));
#535=CARTESIAN_POINT('Origin',(48.247917144304,1.52916135065097,200.));
#536=CARTESIAN_POINT('',(48.247917144304,1.52916135065097,200.));
#537=CARTESIAN_POINT('',(3.247917144304,1.52916135065096,200.));
#538=CARTESIAN_POINT('',(3.247917144304,1.52916135065097,200.));
#539=CARTESIAN_POINT('',(3.247917144304,1.52916135065096,400.));
#540=CARTESIAN_POINT('',(3.247917144304,1.52916135065096,200.));
#541=CARTESIAN_POINT('',(48.247917144304,1.52916135065097,400.));
#542=CARTESIAN_POINT('',(3.247917144304,1.52916135065097,400.));
#543=CARTESIAN_POINT('',(48.247917144304,1.52916135065097,200.));
#544=CARTESIAN_POINT('Origin',(48.247917144304,46.529161350651,200.));
#545=CARTESIAN_POINT('',(48.247917144304,46.529161350651,200.));
#546=CARTESIAN_POINT('',(48.247917144304,1.52916135065097,200.));
#547=CARTESIAN_POINT('',(48.247917144304,46.529161350651,400.));
#548=CARTESIAN_POINT('',(48.247917144304,1.52916135065097,400.));
#549=CARTESIAN_POINT('',(48.247917144304,46.529161350651,200.));
#550=CARTESIAN_POINT('Origin',(3.247917144304,46.529161350651,200.));
#551=CARTESIAN_POINT('',(3.247917144304,46.529161350651,200.));
#552=CARTESIAN_POINT('',(48.247917144304,46.529161350651,200.));
#553=CARTESIAN_POINT('',(3.247917144304,46.529161350651,400.));
#554=CARTESIAN_POINT('',(48.247917144304,46.529161350651,400.));
#555=CARTESIAN_POINT('',(3.247917144304,46.529161350651,200.));
#556=CARTESIAN_POINT('Origin',(3.247917144304,1.52916135065096,200.));
#557=CARTESIAN_POINT('',(3.247917144304,46.529161350651,200.));
#558=CARTESIAN_POINT('',(3.247917144304,46.529161350651,400.));
#559=CARTESIAN_POINT('Origin',(53.247917144304,-3.47083864934904,200.));
#560=CARTESIAN_POINT('',(53.247917144304,51.529161350651,200.));
#561=CARTESIAN_POINT('',(53.247917144304,-3.47083864934903,200.));
#562=CARTESIAN_POINT('',(53.247917144304,51.529161350651,200.));
#563=CARTESIAN_POINT('',(53.247917144304,51.529161350651,400.));
#564=CARTESIAN_POINT('',(53.247917144304,51.529161350651,200.));
#565=CARTESIAN_POINT('',(53.247917144304,-3.47083864934903,400.));
#566=CARTESIAN_POINT('',(53.247917144304,51.529161350651,400.));
#567=CARTESIAN_POINT('',(53.247917144304,-3.47083864934903,200.));
#568=CARTESIAN_POINT('Origin',(-1.752082855696,-3.47083864934903,200.));
#569=CARTESIAN_POINT('',(-1.752082855696,-3.47083864934903,200.));
#570=CARTESIAN_POINT('',(53.247917144304,-3.47083864934903,200.));
#571=CARTESIAN_POINT('',(-1.752082855696,-3.47083864934903,400.));
#572=CARTESIAN_POINT('',(53.247917144304,-3.47083864934903,400.));
#573=CARTESIAN_POINT('',(-1.752082855696,-3.47083864934903,200.));
#574=CARTESIAN_POINT('Origin',(-1.752082855696,51.529161350651,200.));
#575=CARTESIAN_POINT('',(-1.752082855696,51.529161350651,200.));
#576=CARTESIAN_POINT('',(-1.752082855696,-3.47083864934903,200.));
#577=CARTESIAN_POINT('',(-1.752082855696,51.529161350651,400.));
#578=CARTESIAN_POINT('',(-1.752082855696,-3.47083864934903,400.));
#579=CARTESIAN_POINT('',(-1.752082855696,51.529161350651,200.));
#580=CARTESIAN_POINT('Origin',(53.247917144304,51.529161350651,200.));
#581=CARTESIAN_POINT('',(-1.752082855696,51.529161350651,200.));
#582=CARTESIAN_POINT('',(-1.752082855696,51.529161350651,400.));
#583=CARTESIAN_POINT('Origin',(25.747917144304,24.029161350651,400.));
#584=CARTESIAN_POINT('Origin',(25.747917144304,24.029161350651,200.));
#585=CARTESIAN_POINT('',(-100.91750158593,-52.8202511160533,320.));
#586=UNCERTAINTY_MEASURE_WITH_UNIT(LENGTH_MEASURE(0.01),#592,
'DISTANCE_ACCURACY_VALUE',
'Maximum model space distance between geometric entities at asserted c
onnectivities');
#587=UNCERTAINTY_MEASURE_WITH_UNIT(LENGTH_MEASURE(0.01),#592,
'DISTANCE_ACCURACY_VALUE',
'Maximum model space distance between geometric entities at asserted c
onnectivities');
#588=UNCERTAINTY_MEASURE_WITH_UNIT(LENGTH_MEASURE(0.01),#592,
'DISTANCE_ACCURACY_VALUE',
'Maximum model space distance between geometric entities at asserted c
onnectivities');
#589=(
GEOMETRIC_REPRESENTATION_CONTEXT(3)
GLOBAL_UNCERTAINTY_ASSIGNED_CONTEXT((#586))
GLOBAL_UNIT_ASSIGNED_CONTEXT((#592,#594,#595))
REPRESENTATION_CONTEXT('','3D')
);
#590=(
GEOMETRIC_REPRESENTATION_CONTEXT(3)
GLOBAL_UNCERTAINTY_ASSIGNED_CONTEXT((#587))
GLOBAL_UNIT_ASSIGNED_CONTEXT((#592,#594,#595))
REPRESENTATION_CONTEXT('','3D')
);
#591=(
GEOMETRIC_REPRESENTATION_CONTEXT(3)
GLOBAL_UNCERTAINTY_ASSIGNED_CONTEXT((#588))
GLOBAL_UNIT_ASSIGNED_CONTEXT((#592,#594,#595))
REPRESENTATION_CONTEXT('','3D')
);
#592=(
LENGTH_UNIT()
NAMED_UNIT(*)
SI_UNIT(.MILLI.,.METRE.)
);
#593=(
LENGTH_UNIT()
NAMED_UNIT(*)
SI_UNIT($,.METRE.)
);
#594=(
NAMED_UNIT(*)
PLANE_ANGLE_UNIT()
SI_UNIT($,.RADIAN.)
);
#595=(
NAMED_UNIT(*)
SI_UNIT($,.STERADIAN.)
SOLID_ANGLE_UNIT()
);
#596=SHAPE_DEFINITION_REPRESENTATION(#598,#601);
#597=SHAPE_DEFINITION_REPRESENTATION(#599,#602);
#598=PRODUCT_DEFINITION_SHAPE('',$,#604);
#599=PRODUCT_DEFINITION_SHAPE('',$,#605);
#600=PRODUCT_DEFINITION_SHAPE($,$,#14);
#601=SHAPE_REPRESENTATION('',(#374,#397),#589);
#602=SHAPE_REPRESENTATION('',(#375),#590);
#603=PRODUCT_DEFINITION_CONTEXT('part definition',#611,'design');
#604=PRODUCT_DEFINITION('Sans nom','Sans nom v5',#606,#603);
#605=PRODUCT_DEFINITION('Composant2','Composant2',#607,#603);
#606=PRODUCT_DEFINITION_FORMATION('',$,#613);
#607=PRODUCT_DEFINITION_FORMATION('',$,#614);
#608=PRODUCT_RELATED_PRODUCT_CATEGORY('Sans nom v5','Sans nom v5',(#613));
#609=PRODUCT_RELATED_PRODUCT_CATEGORY('Composant2','Composant2',(#614));
#610=APPLICATION_PROTOCOL_DEFINITION('international standard',
'automotive_design',2009,#611);
#611=APPLICATION_CONTEXT(
'Core Data for Automotive Mechanical Design Process');
#612=PRODUCT_CONTEXT('part definition',#611,'mechanical');
#613=PRODUCT('Sans nom','Sans nom v5',$,(#612));
#614=PRODUCT('Composant2','Composant2',$,(#612));
#615=PRESENTATION_STYLE_ASSIGNMENT((#616));
#616=SURFACE_STYLE_USAGE(.BOTH.,#617);
#617=SURFACE_SIDE_STYLE('',(#618));
#618=SURFACE_STYLE_FILL_AREA(#619);
#619=FILL_AREA_STYLE('Acier - Satin\X\E9',(#620));
#620=FILL_AREA_STYLE_COLOUR('Acier - Satin\X\E9',#621);
#621=COLOUR_RGB('Acier - Satin\X\E9',0.627450980392157,0.627450980392157,
0.627450980392157);
ENDSEC;
END-ISO-10303-21;
