ISO-10303-21;
HEADER;
FILE_DESCRIPTION (( 'STEP AP203' ),
    '1' );
FILE_NAME ('orelha 3.STEP',
    '2018-10-30T02:07:27',
    ( '' ),
    ( '' ),
    'SwSTEP 2.0',
    'SolidWorks 2018',
    '' );
FILE_SCHEMA (( 'CONFIG_CONTROL_DESIGN' ));
ENDSEC;

DATA;
#1 = CC_DESIGN_APPROVAL ( #265, ( #274 ) ) ;
#2 = DIRECTION ( 'NONE',  ( -0.0000000000000000000, -0.0000000000000000000, -1.000000000000000000 ) ) ;
#3 = CARTESIAN_POINT ( 'NONE',  ( 5.683667813507288891, 11.75610286578506702, -4.700000000000000178 ) ) ;
#4 = ORIENTED_EDGE ( 'NONE', *, *, #128, .T. ) ;
#5 = DIRECTION ( 'NONE',  ( 0.0000000000000000000, -1.000000000000000000, 0.0000000000000000000 ) ) ;
#6 = EDGE_CURVE ( 'NONE', #76, #26, #300, .T. ) ;
#7 = PLANE ( 'NONE',  #144 ) ;
#8 = CALENDAR_DATE ( 2018, 29, 10 ) ;
#9 = VECTOR ( 'NONE', #66, 1000.000000000000000 ) ;
#10 = ADVANCED_FACE ( 'NONE', ( #225 ), #169, .F. ) ;
#11 = DIRECTION ( 'NONE',  ( 1.000000000000000000, 0.0000000000000000000, 0.0000000000000000000 ) ) ;
#12 = ORIENTED_EDGE ( 'NONE', *, *, #150, .T. ) ;
#13 = DIRECTION ( 'NONE',  ( -0.0000000000000000000, 0.0000000000000000000, -1.000000000000000000 ) ) ;
#14 = ORIENTED_EDGE ( 'NONE', *, *, #176, .F. ) ;
#15 = EDGE_CURVE ( 'NONE', #273, #185, #113, .T. ) ;
#16 = APPROVAL_PERSON_ORGANIZATION ( #178, #265, #259 ) ;
#17 = CYLINDRICAL_SURFACE ( 'NONE', #237, 15.00000000000000000 ) ;
#18 = EDGE_LOOP ( 'NONE', ( #281, #153 ) ) ;
#19 = CARTESIAN_POINT ( 'NONE',  ( -24.31633218649270844, -8.988601546948782328, 4.700000000000000178 ) ) ;
#20 = APPROVAL_DATE_TIME ( #33, #265 ) ;
#21 = DIRECTION ( 'NONE',  ( 1.000000000000000000, 0.0000000000000000000, -0.0000000000000000000 ) ) ;
#22 = VERTEX_POINT ( 'NONE', #213 ) ;
#23 =( LENGTH_UNIT ( ) NAMED_UNIT ( * ) SI_UNIT ( .MILLI., .METRE. ) );
#24 = APPROVAL_ROLE ( '' ) ;
#25 = AXIS2_PLACEMENT_3D ( 'NONE', #193, #195, #219 ) ;
#26 = VERTEX_POINT ( 'NONE', #3 ) ;
#27 = PLANE ( 'NONE',  #288 ) ;
#28 = ADVANCED_FACE ( 'NONE', ( #50 ), #7, .F. ) ;
#29 = VECTOR ( 'NONE', #94, 1000.000000000000000 ) ;
#30 = ORIENTED_EDGE ( 'NONE', *, *, #67, .T. ) ;
#31 = ADVANCED_FACE ( 'NONE', ( #126, #293 ), #27, .F. ) ;
#32 = CARTESIAN_POINT ( 'NONE',  ( -24.31633218649270844, 11.75610286578506702, 4.700000000000000178 ) ) ;
#33 = DATE_AND_TIME ( #8, #239 ) ;
#34 = PLANE ( 'NONE',  #223 ) ;
#35 = VECTOR ( 'NONE', #200, 1000.000000000000000 ) ;
#36 = AXIS2_PLACEMENT_3D ( 'NONE', #261, #311, #120 ) ;
#37 = DIRECTION ( 'NONE',  ( -0.0000000000000000000, -0.0000000000000000000, -1.000000000000000000 ) ) ;
#38 = CIRCLE ( 'NONE', #187, 15.00000000000000000 ) ;
#39 = VERTEX_POINT ( 'NONE', #148 ) ;
#40 = AXIS2_PLACEMENT_3D ( 'NONE', #222, #199, #21 ) ;
#41 = DIRECTION ( 'NONE',  ( 1.000000000000000000, 0.0000000000000000000, 0.0000000000000000000 ) ) ;
#42 = PERSON_AND_ORGANIZATION ( #278, #131 ) ;
#43 = LINE ( 'NONE', #172, #179 ) ;
#44 = DIRECTION ( 'NONE',  ( 1.000000000000000000, 0.0000000000000000000, 0.0000000000000000000 ) ) ;
#45 = APPROVAL_ROLE ( '' ) ;
#46 = APPROVAL_STATUS ( 'not_yet_approved' ) ;
#47 = FACE_OUTER_BOUND ( 'NONE', #180, .T. ) ;
#48 = ORIENTED_EDGE ( 'NONE', *, *, #277, .T. ) ;
#49 = COORDINATED_UNIVERSAL_TIME_OFFSET ( 3, 0, .BEHIND. ) ;
#50 = FACE_OUTER_BOUND ( 'NONE', #287, .T. ) ;
#51 = ORIENTED_EDGE ( 'NONE', *, *, #15, .F. ) ;
#52 = ORIENTED_EDGE ( 'NONE', *, *, #82, .T. ) ;
#53 = EDGE_CURVE ( 'NONE', #212, #158, #230, .T. ) ;
#54 = DIRECTION ( 'NONE',  ( 0.0000000000000000000, 0.0000000000000000000, 1.000000000000000000 ) ) ;
#55 = DIRECTION ( 'NONE',  ( 0.0000000000000000000, 0.0000000000000000000, 1.000000000000000000 ) ) ;
#56 = VERTEX_POINT ( 'NONE', #129 ) ;
#57 = DIRECTION ( 'NONE',  ( 1.000000000000000000, 0.0000000000000000000, 0.0000000000000000000 ) ) ;
#58 = DIRECTION ( 'NONE',  ( -0.0000000000000000000, -0.0000000000000000000, -1.000000000000000000 ) ) ;
#59 = COORDINATED_UNIVERSAL_TIME_OFFSET ( 3, 0, .BEHIND. ) ;
#60 = LINE ( 'NONE', #171, #167 ) ;
#61 = ORIENTED_EDGE ( 'NONE', *, *, #6, .F. ) ;
#62 = AXIS2_PLACEMENT_3D ( 'NONE', #295, #214, #78 ) ;
#63 = CALENDAR_DATE ( 2018, 29, 10 ) ;
#64 = ORIENTED_EDGE ( 'NONE', *, *, #165, .F. ) ;
#65 = APPROVAL ( #46, 'UNSPECIFIED' ) ;
#66 = DIRECTION ( 'NONE',  ( -0.0000000000000000000, -0.0000000000000000000, -1.000000000000000000 ) ) ;
#67 = EDGE_CURVE ( 'NONE', #39, #22, #83, .T. ) ;
#68 =( NAMED_UNIT ( * ) SI_UNIT ( $, .STERADIAN. ) SOLID_ANGLE_UNIT ( ) );
#69 = PERSON_AND_ORGANIZATION ( #278, #131 ) ;
#70 = ORIENTED_EDGE ( 'NONE', *, *, #165, .T. ) ;
#71 = PERSON_AND_ORGANIZATION_ROLE ( 'creator' ) ;
#72 = SECURITY_CLASSIFICATION ( '', '', #186 ) ;
#73 = PERSON_AND_ORGANIZATION_ROLE ( 'design_supplier' ) ;
#74 = DATE_AND_TIME ( #63, #312 ) ;
#75 = FACE_OUTER_BOUND ( 'NONE', #191, .T. ) ;
#76 = VERTEX_POINT ( 'NONE', #245 ) ;
#77 = CARTESIAN_POINT ( 'NONE',  ( -9.316332186492710221, 11.75610286578506702, -4.700000000000000178 ) ) ;
#78 = DIRECTION ( 'NONE',  ( -1.000000000000000000, 0.0000000000000000000, 0.0000000000000000000 ) ) ;
#79 = ORIENTED_EDGE ( 'NONE', *, *, #190, .F. ) ;
#80 = PRODUCT_RELATED_PRODUCT_CATEGORY ( 'detail', '', ( #95 ) ) ;
#81 = CARTESIAN_POINT ( 'NONE',  ( 5.683667813507288891, -8.988601546948782328, 4.700000000000000178 ) ) ;
#82 = EDGE_CURVE ( 'NONE', #56, #208, #60, .T. ) ;
#83 = CIRCLE ( 'NONE', #203, 5.199999999999999289 ) ;
#84 = CARTESIAN_POINT ( 'NONE',  ( -9.316332186492710221, 11.75610286578506702, 4.700000000000000178 ) ) ;
#85 = MANIFOLD_SOLID_BREP ( 'Ressalto-extrusão1', #103 ) ;
#86 = FACE_OUTER_BOUND ( 'NONE', #136, .T. ) ;
#87 = AXIS2_PLACEMENT_3D ( 'NONE', #233, #308, #162 ) ;
#88 = CARTESIAN_POINT ( 'NONE',  ( -9.316332186492710221, 11.75610286578506702, 4.700000000000000178 ) ) ;
#89 = LOCAL_TIME ( 23, 7, 27.00000000000000000, #59 ) ;
#90 = PLANE ( 'NONE',  #181 ) ;
#91 = EDGE_LOOP ( 'NONE', ( #70, #301 ) ) ;
#92 = ORIENTED_EDGE ( 'NONE', *, *, #133, .T. ) ;
#93 = APPLICATION_CONTEXT ( 'configuration controlled 3d designs of mechanical parts and assemblies' ) ;
#94 = DIRECTION ( 'NONE',  ( -0.0000000000000000000, -0.0000000000000000000, -1.000000000000000000 ) ) ;
#95 = PRODUCT ( 'orelha 3', 'orelha 3', '', ( #188 ) ) ;
#96 = LINE ( 'NONE', #205, #224 ) ;
#97 = ORIENTED_EDGE ( 'NONE', *, *, #15, .T. ) ;
#98 =( NAMED_UNIT ( * ) PLANE_ANGLE_UNIT ( ) SI_UNIT ( $, .RADIAN. ) );
#99 = COORDINATED_UNIVERSAL_TIME_OFFSET ( 3, 0, .BEHIND. ) ;
#100 = LINE ( 'NONE', #107, #35 ) ;
#101 = FACE_OUTER_BOUND ( 'NONE', #218, .T. ) ;
#102 = ADVANCED_BREP_SHAPE_REPRESENTATION ( 'orelha 3', ( #85, #36 ), #216 ) ;
#103 = CLOSED_SHELL ( 'NONE', ( #10, #269, #31, #248, #215, #244, #28, #135 ) ) ;
#104 = DIRECTION ( 'NONE',  ( 0.0000000000000000000, -1.000000000000000000, 0.0000000000000000000 ) ) ;
#105 = CALENDAR_DATE ( 2018, 29, 10 ) ;
#106 = ORIENTED_EDGE ( 'NONE', *, *, #176, .T. ) ;
#107 = CARTESIAN_POINT ( 'NONE',  ( 5.683667813507288891, -8.988601546948782328, -4.700000000000000178 ) ) ;
#108 = CC_DESIGN_APPROVAL ( #65, ( #72 ) ) ;
#109 = CARTESIAN_POINT ( 'NONE',  ( 5.683667813507288891, -8.988601546948782328, -4.700000000000000178 ) ) ;
#110 = CARTESIAN_POINT ( 'NONE',  ( -9.316332186492710221, 11.75610286578506702, -4.700000000000000178 ) ) ;
#111 = APPROVAL_DATE_TIME ( #247, #65 ) ;
#112 = EDGE_CURVE ( 'NONE', #208, #253, #142, .T. ) ;
#113 = LINE ( 'NONE', #32, #267 ) ;
#114 = APPROVAL_DATE_TIME ( #74, #241 ) ;
#115 = ORIENTED_EDGE ( 'NONE', *, *, #112, .F. ) ;
#116 = EDGE_CURVE ( 'NONE', #39, #212, #43, .T. ) ;
#117 = APPLICATION_PROTOCOL_DEFINITION ( 'international standard', 'config_control_design', 1994, #238 ) ;
#118 = VECTOR ( 'NONE', #152, 1000.000000000000000 ) ;
#119 = VERTEX_POINT ( 'NONE', #155 ) ;
#120 = DIRECTION ( 'NONE',  ( 1.000000000000000000, 0.0000000000000000000, 0.0000000000000000000 ) ) ;
#121 = CC_DESIGN_PERSON_AND_ORGANIZATION_ASSIGNMENT ( #266, #209, ( #95 ) ) ;
#122 = APPROVAL_STATUS ( 'not_yet_approved' ) ;
#123 = ORIENTED_EDGE ( 'NONE', *, *, #116, .T. ) ;
#124 = CARTESIAN_POINT ( 'NONE',  ( 5.683667813507288891, 11.75610286578506702, 4.700000000000000178 ) ) ;
#125 = CC_DESIGN_DATE_AND_TIME_ASSIGNMENT ( #290, #143, ( #72 ) ) ;
#126 = FACE_OUTER_BOUND ( 'NONE', #282, .T. ) ;
#127 = ORIENTED_EDGE ( 'NONE', *, *, #268, .F. ) ;
#128 = EDGE_CURVE ( 'NONE', #253, #26, #100, .T. ) ;
#129 = CARTESIAN_POINT ( 'NONE',  ( -24.31633218649270844, 11.75610286578506702, -4.700000000000000178 ) ) ;
#130 = DIRECTION ( 'NONE',  ( -1.000000000000000000, 0.0000000000000000000, 0.0000000000000000000 ) ) ;
#131 = ORGANIZATION ( 'UNSPECIFIED', 'UNSPECIFIED', '' ) ;
#132 = DIRECTION ( 'NONE',  ( 0.0000000000000000000, 1.000000000000000000, 0.0000000000000000000 ) ) ;
#133 = EDGE_CURVE ( 'NONE', #22, #39, #201, .T. ) ;
#134 = PERSON_AND_ORGANIZATION ( #278, #131 ) ;
#135 = ADVANCED_FACE ( 'NONE', ( #47 ), #286, .F. ) ;
#136 = EDGE_LOOP ( 'NONE', ( #52, #127, #51, #48 ) ) ;
#137 = ORIENTED_EDGE ( 'NONE', *, *, #116, .F. ) ;
#138 = DIRECTION ( 'NONE',  ( 0.0000000000000000000, 0.0000000000000000000, 1.000000000000000000 ) ) ;
#139 = DESIGN_CONTEXT ( 'detailed design', #93, 'design' ) ;
#140 = LINE ( 'NONE', #202, #29 ) ;
#141 = CARTESIAN_POINT ( 'NONE',  ( -9.316332186492710221, 11.75610286578506702, 4.700000000000000178 ) ) ;
#142 = LINE ( 'NONE', #270, #118 ) ;
#143 = DATE_TIME_ROLE ( 'classification_date' ) ;
#144 = AXIS2_PLACEMENT_3D ( 'NONE', #81, #130, #55 ) ;
#145 = DATE_TIME_ROLE ( 'creation_date' ) ;
#146 = VECTOR ( 'NONE', #132, 1000.000000000000000 ) ;
#147 = VECTOR ( 'NONE', #2, 1000.000000000000000 ) ;
#148 = CARTESIAN_POINT ( 'NONE',  ( -4.116332186492710932, 11.75610286578506702, 4.700000000000000178 ) ) ;
#149 = CIRCLE ( 'NONE', #87, 15.00000000000000000 ) ;
#150 = EDGE_CURVE ( 'NONE', #22, #158, #96, .T. ) ;
#151 = DIRECTION ( 'NONE',  ( 1.000000000000000000, 0.0000000000000000000, -0.0000000000000000000 ) ) ;
#152 = DIRECTION ( 'NONE',  ( 1.000000000000000000, 0.0000000000000000000, 0.0000000000000000000 ) ) ;
#153 = ORIENTED_EDGE ( 'NONE', *, *, #67, .F. ) ;
#154 = DIRECTION ( 'NONE',  ( 0.0000000000000000000, 1.000000000000000000, 0.0000000000000000000 ) ) ;
#155 = CARTESIAN_POINT ( 'NONE',  ( 5.683667813507288891, -8.988601546948782328, 4.700000000000000178 ) ) ;
#156 = CARTESIAN_POINT ( 'NONE',  ( -14.51633218649270951, 11.75610286578506702, -4.700000000000000178 ) ) ;
#157 = AXIS2_PLACEMENT_3D ( 'NONE', #88, #58, #304 ) ;
#158 = VERTEX_POINT ( 'NONE', #156 ) ;
#159 = DIRECTION ( 'NONE',  ( -0.0000000000000000000, -0.0000000000000000000, -1.000000000000000000 ) ) ;
#160 = ORIENTED_EDGE ( 'NONE', *, *, #190, .T. ) ;
#161 = EDGE_CURVE ( 'NONE', #185, #119, #217, .T. ) ;
#162 = DIRECTION ( 'NONE',  ( 1.000000000000000000, 0.0000000000000000000, 0.0000000000000000000 ) ) ;
#163 = ORIENTED_EDGE ( 'NONE', *, *, #150, .F. ) ;
#164 = EDGE_LOOP ( 'NONE', ( #106, #294, #173, #243 ) ) ;
#165 = EDGE_CURVE ( 'NONE', #158, #212, #249, .T. ) ;
#166 = LOCAL_TIME ( 23, 7, 27.00000000000000000, #271 ) ;
#167 = VECTOR ( 'NONE', #104, 1000.000000000000000 ) ;
#168 = APPROVAL_PERSON_ORGANIZATION ( #228, #65, #24 ) ;
#169 = CYLINDRICAL_SURFACE ( 'NONE', #62, 5.200000000000000178 ) ;
#170 = AXIS2_PLACEMENT_3D ( 'NONE', #110, #251, #11 ) ;
#171 = CARTESIAN_POINT ( 'NONE',  ( -24.31633218649270844, 11.75610286578506702, -4.700000000000000178 ) ) ;
#172 = CARTESIAN_POINT ( 'NONE',  ( -4.116332186492710932, 11.75610286578506702, 4.700000000000000178 ) ) ;
#173 = ORIENTED_EDGE ( 'NONE', *, *, #302, .F. ) ;
#174 = CARTESIAN_POINT ( 'NONE',  ( 5.683667813507288891, -8.988601546948782328, 4.700000000000000178 ) ) ;
#175 = CARTESIAN_POINT ( 'NONE',  ( -24.31633218649270844, -8.988601546948782328, 4.700000000000000178 ) ) ;
#176 = EDGE_CURVE ( 'NONE', #26, #56, #38, .T. ) ;
#177 = DIRECTION ( 'NONE',  ( 0.0000000000000000000, -0.0000000000000000000, 1.000000000000000000 ) ) ;
#178 = PERSON_AND_ORGANIZATION ( #278, #131 ) ;
#179 = VECTOR ( 'NONE', #221, 1000.000000000000000 ) ;
#180 = EDGE_LOOP ( 'NONE', ( #137, #30, #12, #303 ) ) ;
#181 = AXIS2_PLACEMENT_3D ( 'NONE', #254, #154, #177 ) ;
#182 = VECTOR ( 'NONE', #256, 1000.000000000000000 ) ;
#183 = DIRECTION ( 'NONE',  ( 0.0000000000000000000, 0.0000000000000000000, 1.000000000000000000 ) ) ;
#184 = CALENDAR_DATE ( 2018, 29, 10 ) ;
#185 = VERTEX_POINT ( 'NONE', #250 ) ;
#186 = SECURITY_CLASSIFICATION_LEVEL ( 'unclassified' ) ;
#187 = AXIS2_PLACEMENT_3D ( 'NONE', #283, #138, #41 ) ;
#188 = MECHANICAL_CONTEXT ( 'NONE', #238, 'mechanical' ) ;
#189 = SHAPE_DEFINITION_REPRESENTATION ( #284, #102 ) ;
#190 = EDGE_CURVE ( 'NONE', #119, #76, #240, .T. ) ;
#191 = EDGE_LOOP ( 'NONE', ( #263, #97, #236, #160 ) ) ;
#192 = EDGE_LOOP ( 'NONE', ( #92, #123, #64, #163 ) ) ;
#193 = CARTESIAN_POINT ( 'NONE',  ( -9.316332186492710221, 11.75610286578506702, -4.700000000000000178 ) ) ;
#194 = UNCERTAINTY_MEASURE_WITH_UNIT (LENGTH_MEASURE( 1.000000000000000082E-05 ), #23, 'distance_accuracy_value', 'NONE');
#195 = DIRECTION ( 'NONE',  ( 0.0000000000000000000, 0.0000000000000000000, 1.000000000000000000 ) ) ;
#196 = APPROVAL_PERSON_ORGANIZATION ( #234, #241, #45 ) ;
#197 = PRODUCT_DEFINITION ( 'UNKNOWN', '', #274, #139 ) ;
#198 = DIRECTION ( 'NONE',  ( 0.0000000000000000000, 0.0000000000000000000, 1.000000000000000000 ) ) ;
#199 = DIRECTION ( 'NONE',  ( 0.0000000000000000000, 0.0000000000000000000, 1.000000000000000000 ) ) ;
#200 = DIRECTION ( 'NONE',  ( 0.0000000000000000000, 1.000000000000000000, 0.0000000000000000000 ) ) ;
#201 = CIRCLE ( 'NONE', #280, 5.199999999999999289 ) ;
#202 = CARTESIAN_POINT ( 'NONE',  ( -24.31633218649270844, 11.75610286578506702, 4.700000000000000178 ) ) ;
#203 = AXIS2_PLACEMENT_3D ( 'NONE', #220, #198, #57 ) ;
#204 = FACE_BOUND ( 'NONE', #18, .T. ) ;
#205 = CARTESIAN_POINT ( 'NONE',  ( -14.51633218649270951, 11.75610286578506702, 4.700000000000000178 ) ) ;
#206 = CARTESIAN_POINT ( 'NONE',  ( -24.31633218649270844, 11.75610286578506702, 4.700000000000000178 ) ) ;
#207 = DATE_AND_TIME ( #105, #166 ) ;
#208 = VERTEX_POINT ( 'NONE', #299 ) ;
#209 = PERSON_AND_ORGANIZATION_ROLE ( 'design_owner' ) ;
#210 = LINE ( 'NONE', #175, #262 ) ;
#211 = CC_DESIGN_APPROVAL ( #241, ( #197 ) ) ;
#212 = VERTEX_POINT ( 'NONE', #272 ) ;
#213 = CARTESIAN_POINT ( 'NONE',  ( -14.51633218649270951, 11.75610286578506702, 4.700000000000000178 ) ) ;
#214 = DIRECTION ( 'NONE',  ( -0.0000000000000000000, -0.0000000000000000000, -1.000000000000000000 ) ) ;
#215 = ADVANCED_FACE ( 'NONE', ( #86 ), #34, .F. ) ;
#216 =( GEOMETRIC_REPRESENTATION_CONTEXT ( 3 ) GLOBAL_UNCERTAINTY_ASSIGNED_CONTEXT ( ( #194 ) ) GLOBAL_UNIT_ASSIGNED_CONTEXT ( ( #23, #98, #68 ) ) REPRESENTATION_CONTEXT ( 'NONE', 'WORKASPACE' ) );
#217 = LINE ( 'NONE', #19, #182 ) ;
#218 = EDGE_LOOP ( 'NONE', ( #260, #313, #307, #297 ) ) ;
#219 = DIRECTION ( 'NONE',  ( 1.000000000000000000, 0.0000000000000000000, 0.0000000000000000000 ) ) ;
#220 = CARTESIAN_POINT ( 'NONE',  ( -9.316332186492710221, 11.75610286578506702, 4.700000000000000178 ) ) ;
#221 = DIRECTION ( 'NONE',  ( -0.0000000000000000000, -0.0000000000000000000, -1.000000000000000000 ) ) ;
#222 = CARTESIAN_POINT ( 'NONE',  ( -9.316332186492710221, 11.75610286578506702, 4.700000000000000178 ) ) ;
#223 = AXIS2_PLACEMENT_3D ( 'NONE', #206, #229, #13 ) ;
#224 = VECTOR ( 'NONE', #159, 1000.000000000000000 ) ;
#225 = FACE_OUTER_BOUND ( 'NONE', #192, .T. ) ;
#226 = CC_DESIGN_SECURITY_CLASSIFICATION ( #72, ( #274 ) ) ;
#227 = CC_DESIGN_PERSON_AND_ORGANIZATION_ASSIGNMENT ( #134, #71, ( #197 ) ) ;
#228 = PERSON_AND_ORGANIZATION ( #278, #131 ) ;
#229 = DIRECTION ( 'NONE',  ( 1.000000000000000000, 0.0000000000000000000, -0.0000000000000000000 ) ) ;
#230 = CIRCLE ( 'NONE', #25, 5.199999999999999289 ) ;
#231 = DIRECTION ( 'NONE',  ( -1.000000000000000000, 0.0000000000000000000, 0.0000000000000000000 ) ) ;
#232 = CC_DESIGN_PERSON_AND_ORGANIZATION_ASSIGNMENT ( #69, #73, ( #274 ) ) ;
#233 = CARTESIAN_POINT ( 'NONE',  ( -9.316332186492710221, 11.75610286578506702, 4.700000000000000178 ) ) ;
#234 = PERSON_AND_ORGANIZATION ( #278, #131 ) ;
#235 = ORIENTED_EDGE ( 'NONE', *, *, #82, .F. ) ;
#236 = ORIENTED_EDGE ( 'NONE', *, *, #161, .T. ) ;
#237 = AXIS2_PLACEMENT_3D ( 'NONE', #141, #279, #231 ) ;
#238 = APPLICATION_CONTEXT ( 'configuration controlled 3d designs of mechanical parts and assemblies' ) ;
#239 = LOCAL_TIME ( 23, 7, 27.00000000000000000, #49 ) ;
#240 = LINE ( 'NONE', #257, #146 ) ;
#241 = APPROVAL ( #264, 'UNSPECIFIED' ) ;
#242 = ORIENTED_EDGE ( 'NONE', *, *, #128, .F. ) ;
#243 = ORIENTED_EDGE ( 'NONE', *, *, #6, .T. ) ;
#244 = ADVANCED_FACE ( 'NONE', ( #101 ), #90, .F. ) ;
#245 = CARTESIAN_POINT ( 'NONE',  ( 5.683667813507288891, 11.75610286578506702, 4.700000000000000178 ) ) ;
#246 = CC_DESIGN_DATE_AND_TIME_ASSIGNMENT ( #207, #145, ( #197 ) ) ;
#247 = DATE_AND_TIME ( #305, #89 ) ;
#248 = ADVANCED_FACE ( 'NONE', ( #291 ), #17, .T. ) ;
#249 = CIRCLE ( 'NONE', #170, 5.199999999999999289 ) ;
#250 = CARTESIAN_POINT ( 'NONE',  ( -24.31633218649270844, -8.988601546948782328, 4.700000000000000178 ) ) ;
#251 = DIRECTION ( 'NONE',  ( 0.0000000000000000000, 0.0000000000000000000, 1.000000000000000000 ) ) ;
#252 = COORDINATED_UNIVERSAL_TIME_OFFSET ( 3, 0, .BEHIND. ) ;
#253 = VERTEX_POINT ( 'NONE', #109 ) ;
#254 = CARTESIAN_POINT ( 'NONE',  ( -24.31633218649270844, -8.988601546948782328, 4.700000000000000178 ) ) ;
#255 = EDGE_CURVE ( 'NONE', #119, #253, #276, .T. ) ;
#256 = DIRECTION ( 'NONE',  ( 1.000000000000000000, 0.0000000000000000000, 0.0000000000000000000 ) ) ;
#257 = CARTESIAN_POINT ( 'NONE',  ( 5.683667813507288891, -8.988601546948782328, 4.700000000000000178 ) ) ;
#258 = PERSON_AND_ORGANIZATION ( #278, #131 ) ;
#259 = APPROVAL_ROLE ( '' ) ;
#260 = ORIENTED_EDGE ( 'NONE', *, *, #112, .T. ) ;
#261 = CARTESIAN_POINT ( 'NONE',  ( 0.0000000000000000000, 0.0000000000000000000, 0.0000000000000000000 ) ) ;
#262 = VECTOR ( 'NONE', #37, 1000.000000000000000 ) ;
#263 = ORIENTED_EDGE ( 'NONE', *, *, #302, .T. ) ;
#264 = APPROVAL_STATUS ( 'not_yet_approved' ) ;
#265 = APPROVAL ( #122, 'UNSPECIFIED' ) ;
#266 = PERSON_AND_ORGANIZATION ( #278, #131 ) ;
#267 = VECTOR ( 'NONE', #5, 1000.000000000000000 ) ;
#268 = EDGE_CURVE ( 'NONE', #185, #208, #210, .T. ) ;
#269 = ADVANCED_FACE ( 'NONE', ( #75, #204 ), #275, .T. ) ;
#270 = CARTESIAN_POINT ( 'NONE',  ( -24.31633218649270844, -8.988601546948782328, -4.700000000000000178 ) ) ;
#271 = COORDINATED_UNIVERSAL_TIME_OFFSET ( 3, 0, .BEHIND. ) ;
#272 = CARTESIAN_POINT ( 'NONE',  ( -4.116332186492710932, 11.75610286578506702, -4.700000000000000178 ) ) ;
#273 = VERTEX_POINT ( 'NONE', #298 ) ;
#274 = PRODUCT_DEFINITION_FORMATION_WITH_SPECIFIED_SOURCE ( 'ANY', '', #95, .NOT_KNOWN. ) ;
#275 = PLANE ( 'NONE',  #40 ) ;
#276 = LINE ( 'NONE', #174, #9 ) ;
#277 = EDGE_CURVE ( 'NONE', #273, #56, #140, .T. ) ;
#278 = PERSON ( 'UNSPECIFIED', 'UNSPECIFIED', 'UNSPECIFIED', ('UNSPECIFIED'), ('UNSPECIFIED'), ('UNSPECIFIED') ) ;
#279 = DIRECTION ( 'NONE',  ( -0.0000000000000000000, -0.0000000000000000000, -1.000000000000000000 ) ) ;
#280 = AXIS2_PLACEMENT_3D ( 'NONE', #84, #183, #44 ) ;
#281 = ORIENTED_EDGE ( 'NONE', *, *, #133, .F. ) ;
#282 = EDGE_LOOP ( 'NONE', ( #14, #242, #115, #235 ) ) ;
#283 = CARTESIAN_POINT ( 'NONE',  ( -9.316332186492710221, 11.75610286578506702, -4.700000000000000178 ) ) ;
#284 = PRODUCT_DEFINITION_SHAPE ( 'NONE', 'NONE',  #197 ) ;
#285 = APPLICATION_PROTOCOL_DEFINITION ( 'international standard', 'config_control_design', 1994, #93 ) ;
#286 = CYLINDRICAL_SURFACE ( 'NONE', #157, 5.200000000000000178 ) ;
#287 = EDGE_LOOP ( 'NONE', ( #4, #61, #79, #306 ) ) ;
#288 = AXIS2_PLACEMENT_3D ( 'NONE', #77, #54, #151 ) ;
#289 = PERSON_AND_ORGANIZATION_ROLE ( 'creator' ) ;
#290 = DATE_AND_TIME ( #184, #296 ) ;
#291 = FACE_OUTER_BOUND ( 'NONE', #164, .T. ) ;
#292 = CC_DESIGN_PERSON_AND_ORGANIZATION_ASSIGNMENT ( #258, #289, ( #274 ) ) ;
#293 = FACE_BOUND ( 'NONE', #91, .T. ) ;
#294 = ORIENTED_EDGE ( 'NONE', *, *, #277, .F. ) ;
#295 = CARTESIAN_POINT ( 'NONE',  ( -9.316332186492710221, 11.75610286578506702, 4.700000000000000178 ) ) ;
#296 = LOCAL_TIME ( 23, 7, 27.00000000000000000, #252 ) ;
#297 = ORIENTED_EDGE ( 'NONE', *, *, #268, .T. ) ;
#298 = CARTESIAN_POINT ( 'NONE',  ( -24.31633218649270844, 11.75610286578506702, 4.700000000000000178 ) ) ;
#299 = CARTESIAN_POINT ( 'NONE',  ( -24.31633218649270844, -8.988601546948782328, -4.700000000000000178 ) ) ;
#300 = LINE ( 'NONE', #124, #147 ) ;
#301 = ORIENTED_EDGE ( 'NONE', *, *, #53, .T. ) ;
#302 = EDGE_CURVE ( 'NONE', #76, #273, #149, .T. ) ;
#303 = ORIENTED_EDGE ( 'NONE', *, *, #53, .F. ) ;
#304 = DIRECTION ( 'NONE',  ( -1.000000000000000000, 0.0000000000000000000, 0.0000000000000000000 ) ) ;
#305 = CALENDAR_DATE ( 2018, 29, 10 ) ;
#306 = ORIENTED_EDGE ( 'NONE', *, *, #255, .T. ) ;
#307 = ORIENTED_EDGE ( 'NONE', *, *, #161, .F. ) ;
#308 = DIRECTION ( 'NONE',  ( 0.0000000000000000000, 0.0000000000000000000, 1.000000000000000000 ) ) ;
#309 = PERSON_AND_ORGANIZATION_ROLE ( 'classification_officer' ) ;
#310 = CC_DESIGN_PERSON_AND_ORGANIZATION_ASSIGNMENT ( #42, #309, ( #72 ) ) ;
#311 = DIRECTION ( 'NONE',  ( 0.0000000000000000000, 0.0000000000000000000, 1.000000000000000000 ) ) ;
#312 = LOCAL_TIME ( 23, 7, 27.00000000000000000, #99 ) ;
#313 = ORIENTED_EDGE ( 'NONE', *, *, #255, .F. ) ;
ENDSEC;
END-ISO-10303-21;
