ISO-10303-21;
HEADER;
FILE_DESCRIPTION (( 'STEP AP214' ),
    '1' );
FILE_NAME ('Pion mob.STEP',
    '2021-06-04T07:59:51',
    ( '' ),
    ( '' ),
    'SwSTEP 2.0',
    'SolidWorks 2017',
    '' );
FILE_SCHEMA (( 'AUTOMOTIVE_DESIGN' ));
ENDSEC;

DATA;
#1 = DIRECTION ( 'NONE',  ( 1.000000000000000000, 0.0000000000000000000, 0.0000000000000000000 ) ) ;
#2 = CARTESIAN_POINT ( 'NONE',  ( 0.0000000000000000000, 0.0000000000000000000, 0.0000000000000000000 ) ) ;
#3 = PLANE ( 'NONE',  #111 ) ;
#4 = CARTESIAN_POINT ( 'NONE',  ( 13.79999999999999900, 4.099999999999999600, 0.0000000000000000000 ) ) ;
#5 = CYLINDRICAL_SURFACE ( 'NONE', #288, 1.950000000000000000 ) ;
#6 = MECHANICAL_DESIGN_GEOMETRIC_PRESENTATION_REPRESENTATION (  '', ( #85 ), #221 ) ;
#7 = ORIENTED_EDGE ( 'NONE', *, *, #187, .T. ) ;
#8 = CYLINDRICAL_SURFACE ( 'NONE', #24, 1.950000000000000000 ) ;
#9 = EDGE_CURVE ( 'NONE', #83, #201, #300, .T. ) ;
#10 = ADVANCED_FACE ( 'NONE', ( #244 ), #261, .T. ) ;
#11 = DIRECTION ( 'NONE',  ( -1.000000000000000000, -0.0000000000000000000, -0.0000000000000000000 ) ) ;
#12 = VECTOR ( 'NONE', #242, 1000.000000000000000 ) ;
#13 = DIRECTION ( 'NONE',  ( -1.000000000000000000, -0.0000000000000000000, -0.0000000000000000000 ) ) ;
#14 = CARTESIAN_POINT ( 'NONE',  ( 5.000000000000000000, 0.0000000000000000000, 0.0000000000000000000 ) ) ;
#15 = CARTESIAN_POINT ( 'NONE',  ( 0.0000000000000000000, 0.0000000000000000000, 4.099999999999999600 ) ) ;
#16 = EDGE_LOOP ( 'NONE', ( #34, #191, #137, #216 ) ) ;
#17 = DIRECTION ( 'NONE',  ( -1.000000000000000000, -0.0000000000000000000, -0.0000000000000000000 ) ) ;
#18 =( NAMED_UNIT ( * ) SI_UNIT ( $, .STERADIAN. ) SOLID_ANGLE_UNIT ( ) );
#19 = DIRECTION ( 'NONE',  ( -1.000000000000000000, 0.0000000000000000000, -0.0000000000000000000 ) ) ;
#20 = DIRECTION ( 'NONE',  ( 0.0000000000000000000, 0.0000000000000000000, 1.000000000000000000 ) ) ;
#21 = APPLICATION_CONTEXT ( 'automotive_design' ) ;
#22 = CARTESIAN_POINT ( 'NONE',  ( 0.0000000000000000000, 0.0000000000000000000, 0.0000000000000000000 ) ) ;
#23 = ORIENTED_EDGE ( 'NONE', *, *, #68, .F. ) ;
#24 = AXIS2_PLACEMENT_3D ( 'NONE', #270, #106, #208 ) ;
#25 = LINE ( 'NONE', #246, #140 ) ;
#26 = DIRECTION ( 'NONE',  ( 0.0000000000000000000, 0.0000000000000000000, 1.000000000000000000 ) ) ;
#27 = CIRCLE ( 'NONE', #180, 4.099999999999999600 ) ;
#28 = ORIENTED_EDGE ( 'NONE', *, *, #293, .T. ) ;
#29 = ORIENTED_EDGE ( 'NONE', *, *, #122, .T. ) ;
#30 = ORIENTED_EDGE ( 'NONE', *, *, #172, .T. ) ;
#31 = DIRECTION ( 'NONE',  ( -1.000000000000000000, -0.0000000000000000000, -0.0000000000000000000 ) ) ;
#32 = CARTESIAN_POINT ( 'NONE',  ( 0.0000000000000000000, 0.0000000000000000000, 0.0000000000000000000 ) ) ;
#33 = EDGE_LOOP ( 'NONE', ( #290, #164 ) ) ;
#34 = ORIENTED_EDGE ( 'NONE', *, *, #71, .T. ) ;
#35 = DIRECTION ( 'NONE',  ( -1.000000000000000000, -0.0000000000000000000, -0.0000000000000000000 ) ) ;
#36 = AXIS2_PLACEMENT_3D ( 'NONE', #275, #138, #61 ) ;
#37 = SURFACE_SIDE_STYLE ('',( #51 ) ) ;
#38 = PLANE ( 'NONE',  #167 ) ;
#39 = AXIS2_PLACEMENT_3D ( 'NONE', #93, #35, #239 ) ;
#40 = ORIENTED_EDGE ( 'NONE', *, *, #139, .F. ) ;
#41 = LINE ( 'NONE', #203, #75 ) ;
#42 = CARTESIAN_POINT ( 'NONE',  ( 13.79999999999999900, 0.0000000000000000000, 4.099999999999999600 ) ) ;
#43 = FILL_AREA_STYLE_COLOUR ( '', #86 ) ;
#44 = FILL_AREA_STYLE_COLOUR ( '', #102 ) ;
#45 = VERTEX_POINT ( 'NONE', #70 ) ;
#46 = APPLICATION_CONTEXT ( 'automotive_design' ) ;
#47 = EDGE_CURVE ( 'NONE', #89, #188, #128, .T. ) ;
#48 = DIRECTION ( 'NONE',  ( -1.000000000000000000, -0.0000000000000000000, -0.0000000000000000000 ) ) ;
#49 = CARTESIAN_POINT ( 'NONE',  ( 5.000000000000000000, 0.0000000000000000000, 4.099999999999999600 ) ) ;
#50 = ORIENTED_EDGE ( 'NONE', *, *, #245, .F. ) ;
#51 = SURFACE_STYLE_FILL_AREA ( #205 ) ;
#52 = VERTEX_POINT ( 'NONE', #58 ) ;
#53 = PRODUCT ( 'Pion mob', 'Pion mob', '', ( #183 ) ) ;
#54 = AXIS2_PLACEMENT_3D ( 'NONE', #159, #110, #80 ) ;
#55 = ORIENTED_EDGE ( 'NONE', *, *, #122, .F. ) ;
#56 = FACE_BOUND ( 'NONE', #224, .T. ) ;
#57 = CARTESIAN_POINT ( 'NONE',  ( 18.80000000000000100, 0.0000000000000000000, 0.0000000000000000000 ) ) ;
#58 = CARTESIAN_POINT ( 'NONE',  ( 5.000000000000000000, 5.021051876504147400E-016, -4.099999999999999600 ) ) ;
#59 = ORIENTED_EDGE ( 'NONE', *, *, #272, .F. ) ;
#60 = DIRECTION ( 'NONE',  ( 0.0000000000000000000, 0.0000000000000000000, 1.000000000000000000 ) ) ;
#61 = DIRECTION ( 'NONE',  ( 0.0000000000000000000, 0.0000000000000000000, 1.000000000000000000 ) ) ;
#62 = LINE ( 'NONE', #15, #248 ) ;
#63 = DIRECTION ( 'NONE',  ( -1.000000000000000000, 0.0000000000000000000, -0.0000000000000000000 ) ) ;
#64 = PLANE ( 'NONE',  #236 ) ;
#65 =( GEOMETRIC_REPRESENTATION_CONTEXT ( 3 ) GLOBAL_UNCERTAINTY_ASSIGNED_CONTEXT ( ( #121 ) ) GLOBAL_UNIT_ASSIGNED_CONTEXT ( ( #107, #112, #84 ) ) REPRESENTATION_CONTEXT ( 'NONE', 'WORKASPACE' ) );
#66 = CARTESIAN_POINT ( 'NONE',  ( 0.0000000000000000000, 0.0000000000000000000, 0.0000000000000000000 ) ) ;
#67 = VECTOR ( 'NONE', #11, 1000.000000000000000 ) ;
#68 = EDGE_CURVE ( 'NONE', #83, #179, #133, .T. ) ;
#69 = EDGE_LOOP ( 'NONE', ( #28, #226 ) ) ;
#70 = CARTESIAN_POINT ( 'NONE',  ( 13.79999999999999900, 0.0000000000000000000, 1.950000000000000000 ) ) ;
#71 = EDGE_CURVE ( 'NONE', #188, #89, #215, .T. ) ;
#72 = DIRECTION ( 'NONE',  ( 0.0000000000000000000, 0.0000000000000000000, 1.000000000000000000 ) ) ;
#73 = DIRECTION ( 'NONE',  ( -1.000000000000000000, -0.0000000000000000000, -0.0000000000000000000 ) ) ;
#74 = ORIENTED_EDGE ( 'NONE', *, *, #187, .F. ) ;
#75 = VECTOR ( 'NONE', #154, 1000.000000000000000 ) ;
#76 = PLANE ( 'NONE',  #184 ) ;
#77 = AXIS2_PLACEMENT_3D ( 'NONE', #57, #222, #95 ) ;
#78 = DIRECTION ( 'NONE',  ( 0.0000000000000000000, 0.0000000000000000000, 1.000000000000000000 ) ) ;
#79 = DIRECTION ( 'NONE',  ( 0.0000000000000000000, 0.0000000000000000000, 1.000000000000000000 ) ) ;
#80 = DIRECTION ( 'NONE',  ( 0.0000000000000000000, 0.0000000000000000000, 1.000000000000000000 ) ) ;
#81 =( NAMED_UNIT ( * ) PLANE_ANGLE_UNIT ( ) SI_UNIT ( $, .RADIAN. ) );
#82 = EDGE_LOOP ( 'NONE', ( #55, #166 ) ) ;
#83 = VERTEX_POINT ( 'NONE', #150 ) ;
#84 =( NAMED_UNIT ( * ) SI_UNIT ( $, .STERADIAN. ) SOLID_ANGLE_UNIT ( ) );
#85 = STYLED_ITEM ( 'NONE', ( #170 ), #209 ) ;
#86 = COLOUR_RGB ( '',0.7921568627450980000, 0.8196078431372548800, 0.9333333333333333500 ) ;
#87 = UNCERTAINTY_MEASURE_WITH_UNIT (LENGTH_MEASURE( 1.000000000000000100E-005 ), #229, 'distance_accuracy_value', 'NONE');
#88 = VERTEX_POINT ( 'NONE', #198 ) ;
#89 = VERTEX_POINT ( 'NONE', #174 ) ;
#90 = PRODUCT_DEFINITION_FORMATION_WITH_SPECIFIED_SOURCE ( 'ANY', '', #53, .NOT_KNOWN. ) ;
#91 = ADVANCED_FACE ( 'NONE', ( #267 ), #5, .T. ) ;
#92 = EDGE_LOOP ( 'NONE', ( #23, #96, #294, #217 ) ) ;
#93 = CARTESIAN_POINT ( 'NONE',  ( 18.80000000000000100, 0.0000000000000000000, 0.0000000000000000000 ) ) ;
#94 = CIRCLE ( 'NONE', #54, 4.099999999999999600 ) ;
#95 = DIRECTION ( 'NONE',  ( 0.0000000000000000000, 0.0000000000000000000, 1.000000000000000000 ) ) ;
#96 = ORIENTED_EDGE ( 'NONE', *, *, #9, .T. ) ;
#97 = EDGE_CURVE ( 'NONE', #201, #88, #197, .T. ) ;
#98 = DIRECTION ( 'NONE',  ( -1.000000000000000000, -0.0000000000000000000, -0.0000000000000000000 ) ) ;
#99 = DIRECTION ( 'NONE',  ( 1.000000000000000000, 0.0000000000000000000, 0.0000000000000000000 ) ) ;
#100 = CARTESIAN_POINT ( 'NONE',  ( 13.79999999999999900, 0.0000000000000000000, 0.0000000000000000000 ) ) ;
#101 = CLOSED_SHELL ( 'NONE', ( #171, #289, #262, #258, #120, #254, #10, #282, #91, #146 ) ) ;
#102 = COLOUR_RGB ( '',0.7921568627450980000, 0.8196078431372548800, 0.9333333333333333500 ) ;
#103 = CIRCLE ( 'NONE', #36, 4.099999999999999600 ) ;
#104 =( GEOMETRIC_REPRESENTATION_CONTEXT ( 3 ) GLOBAL_UNCERTAINTY_ASSIGNED_CONTEXT ( ( #87 ) ) GLOBAL_UNIT_ASSIGNED_CONTEXT ( ( #229, #81, #276 ) ) REPRESENTATION_CONTEXT ( 'NONE', 'WORKASPACE' ) );
#105 = DIRECTION ( 'NONE',  ( -1.000000000000000000, -0.0000000000000000000, -0.0000000000000000000 ) ) ;
#106 = DIRECTION ( 'NONE',  ( -1.000000000000000000, -0.0000000000000000000, -0.0000000000000000000 ) ) ;
#107 =( LENGTH_UNIT ( ) NAMED_UNIT ( * ) SI_UNIT ( .MILLI., .METRE. ) );
#108 = VERTEX_POINT ( 'NONE', #124 ) ;
#109 = CARTESIAN_POINT ( 'NONE',  ( 0.0000000000000000000, 0.0000000000000000000, 0.0000000000000000000 ) ) ;
#110 = DIRECTION ( 'NONE',  ( -1.000000000000000000, -0.0000000000000000000, -0.0000000000000000000 ) ) ;
#111 = AXIS2_PLACEMENT_3D ( 'NONE', #2, #136, #185 ) ;
#112 =( NAMED_UNIT ( * ) PLANE_ANGLE_UNIT ( ) SI_UNIT ( $, .RADIAN. ) );
#113 = ORIENTED_EDGE ( 'NONE', *, *, #293, .F. ) ;
#114 = EDGE_CURVE ( 'NONE', #108, #160, #252, .T. ) ;
#115 = UNCERTAINTY_MEASURE_WITH_UNIT (LENGTH_MEASURE( 1.000000000000000100E-005 ), #274, 'distance_accuracy_value', 'NONE');
#116 = CYLINDRICAL_SURFACE ( 'NONE', #214, 1.950000000000000000 ) ;
#117 = EDGE_CURVE ( 'NONE', #89, #255, #156, .T. ) ;
#118 = ORIENTED_EDGE ( 'NONE', *, *, #68, .T. ) ;
#119 = FACE_BOUND ( 'NONE', #283, .T. ) ;
#120 = ADVANCED_FACE ( 'NONE', ( #207 ), #116, .T. ) ;
#121 = UNCERTAINTY_MEASURE_WITH_UNIT (LENGTH_MEASURE( 1.000000000000000100E-005 ), #107, 'distance_accuracy_value', 'NONE');
#122 = EDGE_CURVE ( 'NONE', #160, #108, #27, .T. ) ;
#123 = DIRECTION ( 'NONE',  ( -1.000000000000000000, -0.0000000000000000000, -0.0000000000000000000 ) ) ;
#124 = CARTESIAN_POINT ( 'NONE',  ( 13.79999999999999900, 5.021051876504147400E-016, -4.099999999999999600 ) ) ;
#125 = DIRECTION ( 'NONE',  ( 0.0000000000000000000, 0.0000000000000000000, 1.000000000000000000 ) ) ;
#126 = ORIENTED_EDGE ( 'NONE', *, *, #117, .F. ) ;
#127 = AXIS2_PLACEMENT_3D ( 'NONE', #100, #132, #79 ) ;
#128 = CIRCLE ( 'NONE', #39, 1.950000000000000000 ) ;
#129 = DIRECTION ( 'NONE',  ( 0.0000000000000000000, 0.0000000000000000000, 1.000000000000000000 ) ) ;
#130 = AXIS2_PLACEMENT_3D ( 'NONE', #263, #260, #241 ) ;
#131 = PRODUCT_DEFINITION_SHAPE ( 'NONE', 'NONE',  #134 ) ;
#132 = DIRECTION ( 'NONE',  ( -1.000000000000000000, -0.0000000000000000000, -0.0000000000000000000 ) ) ;
#133 = LINE ( 'NONE', #195, #227 ) ;
#134 = PRODUCT_DEFINITION ( 'UNKNOWN', '', #90, #284 ) ;
#135 = MECHANICAL_DESIGN_GEOMETRIC_PRESENTATION_REPRESENTATION (  '', ( #213 ), #104 ) ;
#136 = DIRECTION ( 'NONE',  ( 1.000000000000000000, 0.0000000000000000000, 0.0000000000000000000 ) ) ;
#137 = ORIENTED_EDGE ( 'NONE', *, *, #233, .F. ) ;
#138 = DIRECTION ( 'NONE',  ( -1.000000000000000000, -0.0000000000000000000, -0.0000000000000000000 ) ) ;
#139 = EDGE_CURVE ( 'NONE', #201, #83, #237, .T. ) ;
#140 = VECTOR ( 'NONE', #105, 1000.000000000000000 ) ;
#141 = SURFACE_STYLE_USAGE ( .BOTH. , #279 ) ;
#142 = PRODUCT_RELATED_PRODUCT_CATEGORY ( 'part', '', ( #53 ) ) ;
#143 = FACE_OUTER_BOUND ( 'NONE', #33, .T. ) ;
#144 = ORIENTED_EDGE ( 'NONE', *, *, #233, .T. ) ;
#145 = AXIS2_PLACEMENT_3D ( 'NONE', #298, #98, #125 ) ;
#146 = ADVANCED_FACE ( 'NONE', ( #143 ), #38, .F. ) ;
#147 = AXIS2_PLACEMENT_3D ( 'NONE', #223, #31, #72 ) ;
#148 = FACE_OUTER_BOUND ( 'NONE', #16, .T. ) ;
#149 = DIRECTION ( 'NONE',  ( 0.0000000000000000000, 0.0000000000000000000, 1.000000000000000000 ) ) ;
#150 = CARTESIAN_POINT ( 'NONE',  ( 5.000000000000000000, 2.388061258337338600E-016, -1.950000000000000000 ) ) ;
#151 = EDGE_LOOP ( 'NONE', ( #126, #152, #30, #173 ) ) ;
#152 = ORIENTED_EDGE ( 'NONE', *, *, #47, .T. ) ;
#153 = CARTESIAN_POINT ( 'NONE',  ( 13.79999999999999900, 2.388061258337338600E-016, -1.950000000000000000 ) ) ;
#154 = DIRECTION ( 'NONE',  ( -1.000000000000000000, -0.0000000000000000000, -0.0000000000000000000 ) ) ;
#155 = EDGE_LOOP ( 'NONE', ( #7, #219 ) ) ;
#156 = LINE ( 'NONE', #199, #12 ) ;
#157 = DIRECTION ( 'NONE',  ( -1.000000000000000000, -0.0000000000000000000, -0.0000000000000000000 ) ) ;
#158 = CARTESIAN_POINT ( 'NONE',  ( 18.80000000000000100, 1.950000000000000000, 0.0000000000000000000 ) ) ;
#159 = CARTESIAN_POINT ( 'NONE',  ( 5.000000000000000000, 0.0000000000000000000, 0.0000000000000000000 ) ) ;
#160 = VERTEX_POINT ( 'NONE', #42 ) ;
#161 = DIRECTION ( 'NONE',  ( -1.000000000000000000, -0.0000000000000000000, -0.0000000000000000000 ) ) ;
#162 = DIRECTION ( 'NONE',  ( -1.000000000000000000, -0.0000000000000000000, -0.0000000000000000000 ) ) ;
#163 = AXIS2_PLACEMENT_3D ( 'NONE', #22, #162, #26 ) ;
#164 = ORIENTED_EDGE ( 'NONE', *, *, #47, .F. ) ;
#165 = FACE_OUTER_BOUND ( 'NONE', #69, .T. ) ;
#166 = ORIENTED_EDGE ( 'NONE', *, *, #114, .F. ) ;
#167 = AXIS2_PLACEMENT_3D ( 'NONE', #158, #19, #181 ) ;
#168 = ADVANCED_BREP_SHAPE_REPRESENTATION ( 'Pion mob', ( #209, #285 ), #65 ) ;
#169 = ORIENTED_EDGE ( 'NONE', *, *, #114, .T. ) ;
#170 = PRESENTATION_STYLE_ASSIGNMENT (( #292 ) ) ;
#171 = ADVANCED_FACE ( 'NONE', ( #148 ), #8, .T. ) ;
#172 = EDGE_CURVE ( 'NONE', #188, #45, #41, .T. ) ;
#173 = ORIENTED_EDGE ( 'NONE', *, *, #218, .F. ) ;
#174 = CARTESIAN_POINT ( 'NONE',  ( 18.80000000000000100, 2.388061258337338600E-016, -1.950000000000000000 ) ) ;
#175 = DIRECTION ( 'NONE',  ( 0.0000000000000000000, 0.0000000000000000000, 1.000000000000000000 ) ) ;
#176 = DIRECTION ( 'NONE',  ( -1.000000000000000000, -0.0000000000000000000, -0.0000000000000000000 ) ) ;
#177 = AXIS2_PLACEMENT_3D ( 'NONE', #206, #73, #60 ) ;
#178 = CARTESIAN_POINT ( 'NONE',  ( 0.0000000000000000000, 2.388061258337338600E-016, -1.950000000000000000 ) ) ;
#179 = VERTEX_POINT ( 'NONE', #178 ) ;
#180 = AXIS2_PLACEMENT_3D ( 'NONE', #228, #17, #78 ) ;
#181 = DIRECTION ( 'NONE',  ( -0.0000000000000000000, 0.0000000000000000000, 1.000000000000000000 ) ) ;
#182 = FACE_OUTER_BOUND ( 'NONE', #155, .T. ) ;
#183 = PRODUCT_CONTEXT ( 'NONE', #21, 'mechanical' ) ;
#184 = AXIS2_PLACEMENT_3D ( 'NONE', #243, #99, #269 ) ;
#185 = DIRECTION ( 'NONE',  ( 0.0000000000000000000, 0.0000000000000000000, -1.000000000000000000 ) ) ;
#186 = FILL_AREA_STYLE ('',( #44 ) ) ;
#187 = EDGE_CURVE ( 'NONE', #88, #179, #295, .T. ) ;
#188 = VERTEX_POINT ( 'NONE', #225 ) ;
#189 = CYLINDRICAL_SURFACE ( 'NONE', #259, 4.099999999999999600 ) ;
#190 = CIRCLE ( 'NONE', #145, 1.950000000000000000 ) ;
#191 = ORIENTED_EDGE ( 'NONE', *, *, #117, .T. ) ;
#192 = CIRCLE ( 'NONE', #127, 1.950000000000000000 ) ;
#193 = PRESENTATION_LAYER_ASSIGNMENT (  '', '', ( #85 ) ) ;
#194 = AXIS2_PLACEMENT_3D ( 'NONE', #297, #157, #268 ) ;
#195 = CARTESIAN_POINT ( 'NONE',  ( 0.0000000000000000000, 2.388061258337338600E-016, -1.950000000000000000 ) ) ;
#196 = DIRECTION ( 'NONE',  ( -1.000000000000000000, -0.0000000000000000000, -0.0000000000000000000 ) ) ;
#197 = LINE ( 'NONE', #238, #67 ) ;
#198 = CARTESIAN_POINT ( 'NONE',  ( 0.0000000000000000000, 0.0000000000000000000, 1.950000000000000000 ) ) ;
#199 = CARTESIAN_POINT ( 'NONE',  ( 0.0000000000000000000, 2.388061258337338600E-016, -1.950000000000000000 ) ) ;
#200 = AXIS2_PLACEMENT_3D ( 'NONE', #66, #161, #20 ) ;
#201 = VERTEX_POINT ( 'NONE', #296 ) ;
#202 = CYLINDRICAL_SURFACE ( 'NONE', #163, 1.950000000000000000 ) ;
#203 = CARTESIAN_POINT ( 'NONE',  ( 0.0000000000000000000, 0.0000000000000000000, 1.950000000000000000 ) ) ;
#204 = AXIS2_PLACEMENT_3D ( 'NONE', #14, #13, #149 ) ;
#205 = FILL_AREA_STYLE ('',( #43 ) ) ;
#206 = CARTESIAN_POINT ( 'NONE',  ( 0.0000000000000000000, 0.0000000000000000000, 0.0000000000000000000 ) ) ;
#207 = FACE_OUTER_BOUND ( 'NONE', #92, .T. ) ;
#208 = DIRECTION ( 'NONE',  ( 0.0000000000000000000, 0.0000000000000000000, 1.000000000000000000 ) ) ;
#209 = MANIFOLD_SOLID_BREP ( 'Révolution1', #101 ) ;
#210 = APPLICATION_PROTOCOL_DEFINITION ( 'draft international standard', 'automotive_design', 1998, #46 ) ;
#211 = ORIENTED_EDGE ( 'NONE', *, *, #253, .F. ) ;
#212 = CIRCLE ( 'NONE', #200, 1.950000000000000000 ) ;
#213 = STYLED_ITEM ( 'NONE', ( #278 ), #168 ) ;
#214 = AXIS2_PLACEMENT_3D ( 'NONE', #265, #291, #129 ) ;
#215 = CIRCLE ( 'NONE', #77, 1.950000000000000000 ) ;
#216 = ORIENTED_EDGE ( 'NONE', *, *, #172, .F. ) ;
#217 = ORIENTED_EDGE ( 'NONE', *, *, #264, .F. ) ;
#218 = EDGE_CURVE ( 'NONE', #255, #45, #192, .T. ) ;
#219 = ORIENTED_EDGE ( 'NONE', *, *, #264, .T. ) ;
#220 = FACE_OUTER_BOUND ( 'NONE', #82, .T. ) ;
#221 =( GEOMETRIC_REPRESENTATION_CONTEXT ( 3 ) GLOBAL_UNCERTAINTY_ASSIGNED_CONTEXT ( ( #115 ) ) GLOBAL_UNIT_ASSIGNED_CONTEXT ( ( #274, #247, #18 ) ) REPRESENTATION_CONTEXT ( 'NONE', 'WORKASPACE' ) );
#222 = DIRECTION ( 'NONE',  ( -1.000000000000000000, -0.0000000000000000000, -0.0000000000000000000 ) ) ;
#223 = CARTESIAN_POINT ( 'NONE',  ( 13.79999999999999900, 0.0000000000000000000, 0.0000000000000000000 ) ) ;
#224 = EDGE_LOOP ( 'NONE', ( #40, #230 ) ) ;
#225 = CARTESIAN_POINT ( 'NONE',  ( 18.80000000000000100, 0.0000000000000000000, 1.950000000000000000 ) ) ;
#226 = ORIENTED_EDGE ( 'NONE', *, *, #272, .T. ) ;
#227 = VECTOR ( 'NONE', #123, 1000.000000000000000 ) ;
#228 = CARTESIAN_POINT ( 'NONE',  ( 13.79999999999999900, 0.0000000000000000000, 0.0000000000000000000 ) ) ;
#229 =( LENGTH_UNIT ( ) NAMED_UNIT ( * ) SI_UNIT ( .MILLI., .METRE. ) );
#230 = ORIENTED_EDGE ( 'NONE', *, *, #9, .F. ) ;
#231 = DIRECTION ( 'NONE',  ( 0.0000000000000000000, 0.0000000000000000000, 1.000000000000000000 ) ) ;
#232 = DIRECTION ( 'NONE',  ( -0.0000000000000000000, 0.0000000000000000000, 1.000000000000000000 ) ) ;
#233 = EDGE_CURVE ( 'NONE', #45, #255, #190, .T. ) ;
#234 = ORIENTED_EDGE ( 'NONE', *, *, #253, .T. ) ;
#235 = ORIENTED_EDGE ( 'NONE', *, *, #139, .T. ) ;
#236 = AXIS2_PLACEMENT_3D ( 'NONE', #4, #63, #232 ) ;
#237 = CIRCLE ( 'NONE', #194, 1.950000000000000000 ) ;
#238 = CARTESIAN_POINT ( 'NONE',  ( 0.0000000000000000000, 0.0000000000000000000, 1.950000000000000000 ) ) ;
#239 = DIRECTION ( 'NONE',  ( 0.0000000000000000000, 0.0000000000000000000, 1.000000000000000000 ) ) ;
#240 = EDGE_LOOP ( 'NONE', ( #29, #280, #113, #211 ) ) ;
#241 = DIRECTION ( 'NONE',  ( 0.0000000000000000000, 0.0000000000000000000, 1.000000000000000000 ) ) ;
#242 = DIRECTION ( 'NONE',  ( -1.000000000000000000, -0.0000000000000000000, -0.0000000000000000000 ) ) ;
#243 = CARTESIAN_POINT ( 'NONE',  ( 5.000000000000000000, 1.950000000000000000, 0.0000000000000000000 ) ) ;
#244 = FACE_OUTER_BOUND ( 'NONE', #277, .T. ) ;
#245 = EDGE_CURVE ( 'NONE', #108, #52, #25, .T. ) ;
#246 = CARTESIAN_POINT ( 'NONE',  ( 0.0000000000000000000, 5.021051876504147400E-016, -4.099999999999999600 ) ) ;
#247 =( NAMED_UNIT ( * ) PLANE_ANGLE_UNIT ( ) SI_UNIT ( $, .RADIAN. ) );
#248 = VECTOR ( 'NONE', #176, 1000.000000000000000 ) ;
#249 = CARTESIAN_POINT ( 'NONE',  ( 0.0000000000000000000, 0.0000000000000000000, 0.0000000000000000000 ) ) ;
#250 = DIRECTION ( 'NONE',  ( 0.0000000000000000000, 0.0000000000000000000, 1.000000000000000000 ) ) ;
#251 = ORIENTED_EDGE ( 'NONE', *, *, #218, .T. ) ;
#252 = CIRCLE ( 'NONE', #147, 4.099999999999999600 ) ;
#253 = EDGE_CURVE ( 'NONE', #160, #273, #62, .T. ) ;
#254 = ADVANCED_FACE ( 'NONE', ( #56, #165 ), #76, .F. ) ;
#255 = VERTEX_POINT ( 'NONE', #153 ) ;
#256 = SHAPE_DEFINITION_REPRESENTATION ( #131, #168 ) ;
#257 = FACE_OUTER_BOUND ( 'NONE', #240, .T. ) ;
#258 = ADVANCED_FACE ( 'NONE', ( #182 ), #3, .F. ) ;
#259 = AXIS2_PLACEMENT_3D ( 'NONE', #109, #48, #231 ) ;
#260 = DIRECTION ( 'NONE',  ( -1.000000000000000000, -0.0000000000000000000, -0.0000000000000000000 ) ) ;
#261 = CYLINDRICAL_SURFACE ( 'NONE', #130, 4.099999999999999600 ) ;
#262 = ADVANCED_FACE ( 'NONE', ( #287 ), #202, .T. ) ;
#263 = CARTESIAN_POINT ( 'NONE',  ( 0.0000000000000000000, 0.0000000000000000000, 0.0000000000000000000 ) ) ;
#264 = EDGE_CURVE ( 'NONE', #179, #88, #212, .T. ) ;
#265 = CARTESIAN_POINT ( 'NONE',  ( 0.0000000000000000000, 0.0000000000000000000, 0.0000000000000000000 ) ) ;
#266 = EDGE_LOOP ( 'NONE', ( #235, #118, #74, #286 ) ) ;
#267 = FACE_OUTER_BOUND ( 'NONE', #151, .T. ) ;
#268 = DIRECTION ( 'NONE',  ( 0.0000000000000000000, 0.0000000000000000000, 1.000000000000000000 ) ) ;
#269 = DIRECTION ( 'NONE',  ( 0.0000000000000000000, 0.0000000000000000000, -1.000000000000000000 ) ) ;
#270 = CARTESIAN_POINT ( 'NONE',  ( 0.0000000000000000000, 0.0000000000000000000, 0.0000000000000000000 ) ) ;
#271 = SURFACE_STYLE_FILL_AREA ( #186 ) ;
#272 = EDGE_CURVE ( 'NONE', #52, #273, #103, .T. ) ;
#273 = VERTEX_POINT ( 'NONE', #49 ) ;
#274 =( LENGTH_UNIT ( ) NAMED_UNIT ( * ) SI_UNIT ( .MILLI., .METRE. ) );
#275 = CARTESIAN_POINT ( 'NONE',  ( 5.000000000000000000, 0.0000000000000000000, 0.0000000000000000000 ) ) ;
#276 =( NAMED_UNIT ( * ) SI_UNIT ( $, .STERADIAN. ) SOLID_ANGLE_UNIT ( ) );
#277 = EDGE_LOOP ( 'NONE', ( #50, #169, #234, #59 ) ) ;
#278 = PRESENTATION_STYLE_ASSIGNMENT (( #141 ) ) ;
#279 = SURFACE_SIDE_STYLE ('',( #271 ) ) ;
#280 = ORIENTED_EDGE ( 'NONE', *, *, #245, .T. ) ;
#281 = PRESENTATION_LAYER_ASSIGNMENT (  '', '', ( #213 ) ) ;
#282 = ADVANCED_FACE ( 'NONE', ( #220, #119 ), #64, .F. ) ;
#283 = EDGE_LOOP ( 'NONE', ( #144, #251 ) ) ;
#284 = PRODUCT_DEFINITION_CONTEXT ( 'detailed design', #46, 'design' ) ;
#285 = AXIS2_PLACEMENT_3D ( 'NONE', #249, #250, #1 ) ;
#286 = ORIENTED_EDGE ( 'NONE', *, *, #97, .F. ) ;
#287 = FACE_OUTER_BOUND ( 'NONE', #266, .T. ) ;
#288 = AXIS2_PLACEMENT_3D ( 'NONE', #32, #196, #175 ) ;
#289 = ADVANCED_FACE ( 'NONE', ( #257 ), #189, .T. ) ;
#290 = ORIENTED_EDGE ( 'NONE', *, *, #71, .F. ) ;
#291 = DIRECTION ( 'NONE',  ( -1.000000000000000000, -0.0000000000000000000, -0.0000000000000000000 ) ) ;
#292 = SURFACE_STYLE_USAGE ( .BOTH. , #37 ) ;
#293 = EDGE_CURVE ( 'NONE', #273, #52, #94, .T. ) ;
#294 = ORIENTED_EDGE ( 'NONE', *, *, #97, .T. ) ;
#295 = CIRCLE ( 'NONE', #177, 1.950000000000000000 ) ;
#296 = CARTESIAN_POINT ( 'NONE',  ( 5.000000000000000000, 0.0000000000000000000, 1.950000000000000000 ) ) ;
#297 = CARTESIAN_POINT ( 'NONE',  ( 5.000000000000000000, 0.0000000000000000000, 0.0000000000000000000 ) ) ;
#298 = CARTESIAN_POINT ( 'NONE',  ( 13.79999999999999900, 0.0000000000000000000, 0.0000000000000000000 ) ) ;
#299 = APPLICATION_PROTOCOL_DEFINITION ( 'draft international standard', 'automotive_design', 1998, #21 ) ;
#300 = CIRCLE ( 'NONE', #204, 1.950000000000000000 ) ;
ENDSEC;
END-ISO-10303-21;
