ISO-10303-21;
HEADER;
/* Generated by software containing ST-Developer
 * from STEP Tools, Inc. (www.steptools.com) 
 */

FILE_DESCRIPTION(
/* description */ (''),
/* implementation_level */ '2;1');

FILE_NAME(
/* name */ 
'D:/HIFI/Haut parleur/Plans/Proto V5/Outillage thermoformage suspensio
n V1 pour PP .step',
/* time_stamp */ '2021-06-17T12:57:11+02:00',
/* author */ (''),
/* organization */ (''),
/* preprocessor_version */ 'ST-DEVELOPER v18.1',
/* originating_system */ 'Autodesk Translation Framework v10.9.0.1377',

/* authorisation */ '');

FILE_SCHEMA (('AUTOMOTIVE_DESIGN { 1 0 10303 214 3 1 1 }'));
ENDSEC;

DATA;
#10=MECHANICAL_DESIGN_GEOMETRIC_PRESENTATION_REPRESENTATION('',(#13),#171);
#11=SHAPE_REPRESENTATION_RELATIONSHIP('SRR','None',#178,#12);
#12=ADVANCED_BREP_SHAPE_REPRESENTATION('',(#14),#170);
#13=STYLED_ITEM('',(#187),#14);
#14=MANIFOLD_SOLID_BREP('Corps1',#89);
#15=TOROIDAL_SURFACE('',#108,34.6499999999939,2.);
#16=FACE_BOUND('',#30,.T.);
#17=FACE_BOUND('',#33,.T.);
#18=FACE_BOUND('',#36,.T.);
#19=PLANE('',#106);
#20=PLANE('',#111);
#21=PLANE('',#115);
#22=FACE_OUTER_BOUND('',#28,.T.);
#23=FACE_OUTER_BOUND('',#29,.T.);
#24=FACE_OUTER_BOUND('',#31,.T.);
#25=FACE_OUTER_BOUND('',#32,.T.);
#26=FACE_OUTER_BOUND('',#34,.T.);
#27=FACE_OUTER_BOUND('',#35,.T.);
#28=EDGE_LOOP('',(#63,#64,#65,#66));
#29=EDGE_LOOP('',(#67));
#30=EDGE_LOOP('',(#68));
#31=EDGE_LOOP('',(#69,#70,#71,#72));
#32=EDGE_LOOP('',(#73));
#33=EDGE_LOOP('',(#74));
#34=EDGE_LOOP('',(#75,#76,#77,#78));
#35=EDGE_LOOP('',(#79));
#36=EDGE_LOOP('',(#80));
#37=LINE('',#151,#39);
#38=LINE('',#166,#40);
#39=VECTOR('',#122,22.3499999999939);
#40=VECTOR('',#143,44.5);
#41=CIRCLE('',#104,22.3499999999939);
#42=CIRCLE('',#105,22.3499999999939);
#43=CIRCLE('',#107,32.6499999999939);
#44=CIRCLE('',#109,36.6499999999939);
#45=CIRCLE('',#110,2.);
#46=CIRCLE('',#112,44.5);
#47=CIRCLE('',#114,44.5);
#48=VERTEX_POINT('',#148);
#49=VERTEX_POINT('',#150);
#50=VERTEX_POINT('',#154);
#51=VERTEX_POINT('',#157);
#52=VERTEX_POINT('',#161);
#53=VERTEX_POINT('',#164);
#54=EDGE_CURVE('',#48,#48,#41,.T.);
#55=EDGE_CURVE('',#48,#49,#37,.T.);
#56=EDGE_CURVE('',#49,#49,#42,.T.);
#57=EDGE_CURVE('',#50,#50,#43,.T.);
#58=EDGE_CURVE('',#51,#51,#44,.T.);
#59=EDGE_CURVE('',#51,#50,#45,.T.);
#60=EDGE_CURVE('',#52,#52,#46,.T.);
#61=EDGE_CURVE('',#53,#53,#47,.T.);
#62=EDGE_CURVE('',#53,#52,#38,.T.);
#63=ORIENTED_EDGE('',*,*,#54,.T.);
#64=ORIENTED_EDGE('',*,*,#55,.T.);
#65=ORIENTED_EDGE('',*,*,#56,.F.);
#66=ORIENTED_EDGE('',*,*,#55,.F.);
#67=ORIENTED_EDGE('',*,*,#57,.F.);
#68=ORIENTED_EDGE('',*,*,#56,.T.);
#69=ORIENTED_EDGE('',*,*,#58,.F.);
#70=ORIENTED_EDGE('',*,*,#59,.T.);
#71=ORIENTED_EDGE('',*,*,#57,.T.);
#72=ORIENTED_EDGE('',*,*,#59,.F.);
#73=ORIENTED_EDGE('',*,*,#60,.F.);
#74=ORIENTED_EDGE('',*,*,#58,.T.);
#75=ORIENTED_EDGE('',*,*,#61,.F.);
#76=ORIENTED_EDGE('',*,*,#62,.T.);
#77=ORIENTED_EDGE('',*,*,#60,.T.);
#78=ORIENTED_EDGE('',*,*,#62,.F.);
#79=ORIENTED_EDGE('',*,*,#61,.T.);
#80=ORIENTED_EDGE('',*,*,#54,.F.);
#81=CYLINDRICAL_SURFACE('',#103,22.3499999999939);
#82=CYLINDRICAL_SURFACE('',#113,44.5);
#83=ADVANCED_FACE('',(#22),#81,.F.);
#84=ADVANCED_FACE('',(#23,#16),#19,.T.);
#85=ADVANCED_FACE('',(#24),#15,.T.);
#86=ADVANCED_FACE('',(#25,#17),#20,.T.);
#87=ADVANCED_FACE('',(#26),#82,.T.);
#88=ADVANCED_FACE('',(#27,#18),#21,.T.);
#89=CLOSED_SHELL('',(#83,#84,#85,#86,#87,#88));
#90=DERIVED_UNIT_ELEMENT(#92,1.);
#91=DERIVED_UNIT_ELEMENT(#173,-3.);
#92=(
MASS_UNIT()
NAMED_UNIT(*)
SI_UNIT(.KILO.,.GRAM.)
);
#93=DERIVED_UNIT((#90,#91));
#94=MEASURE_REPRESENTATION_ITEM('density measure',
POSITIVE_RATIO_MEASURE(7850.),#93);
#95=PROPERTY_DEFINITION_REPRESENTATION(#100,#97);
#96=PROPERTY_DEFINITION_REPRESENTATION(#101,#98);
#97=REPRESENTATION('material name',(#99),#170);
#98=REPRESENTATION('density',(#94),#170);
#99=DESCRIPTIVE_REPRESENTATION_ITEM('Acier','Acier');
#100=PROPERTY_DEFINITION('material property','material name',#180);
#101=PROPERTY_DEFINITION('material property','density of part',#180);
#102=AXIS2_PLACEMENT_3D('placement',#146,#116,#117);
#103=AXIS2_PLACEMENT_3D('',#147,#118,#119);
#104=AXIS2_PLACEMENT_3D('',#149,#120,#121);
#105=AXIS2_PLACEMENT_3D('',#152,#123,#124);
#106=AXIS2_PLACEMENT_3D('',#153,#125,#126);
#107=AXIS2_PLACEMENT_3D('',#155,#127,#128);
#108=AXIS2_PLACEMENT_3D('',#156,#129,#130);
#109=AXIS2_PLACEMENT_3D('',#158,#131,#132);
#110=AXIS2_PLACEMENT_3D('',#159,#133,#134);
#111=AXIS2_PLACEMENT_3D('',#160,#135,#136);
#112=AXIS2_PLACEMENT_3D('',#162,#137,#138);
#113=AXIS2_PLACEMENT_3D('',#163,#139,#140);
#114=AXIS2_PLACEMENT_3D('',#165,#141,#142);
#115=AXIS2_PLACEMENT_3D('',#167,#144,#145);
#116=DIRECTION('axis',(0.,0.,1.));
#117=DIRECTION('refdir',(1.,0.,0.));
#118=DIRECTION('center_axis',(0.,0.,-1.));
#119=DIRECTION('ref_axis',(0.,1.,0.));
#120=DIRECTION('center_axis',(0.,0.,-1.));
#121=DIRECTION('ref_axis',(1.,0.,0.));
#122=DIRECTION('',(0.,0.,1.));
#123=DIRECTION('center_axis',(0.,0.,-1.));
#124=DIRECTION('ref_axis',(1.,0.,0.));
#125=DIRECTION('center_axis',(0.,0.,1.));
#126=DIRECTION('ref_axis',(1.,0.,0.));
#127=DIRECTION('center_axis',(0.,0.,-1.));
#128=DIRECTION('ref_axis',(1.,0.,0.));
#129=DIRECTION('center_axis',(0.,0.,-1.));
#130=DIRECTION('ref_axis',(-1.,0.,0.));
#131=DIRECTION('center_axis',(0.,0.,-1.));
#132=DIRECTION('ref_axis',(1.,0.,0.));
#133=DIRECTION('center_axis',(-1.22464679914735E-16,-1.,0.));
#134=DIRECTION('ref_axis',(1.,-1.22464679914735E-16,0.));
#135=DIRECTION('center_axis',(0.,0.,1.));
#136=DIRECTION('ref_axis',(1.,0.,0.));
#137=DIRECTION('center_axis',(0.,0.,-1.));
#138=DIRECTION('ref_axis',(1.,0.,0.));
#139=DIRECTION('center_axis',(0.,0.,-1.));
#140=DIRECTION('ref_axis',(0.,1.,0.));
#141=DIRECTION('center_axis',(0.,0.,-1.));
#142=DIRECTION('ref_axis',(1.,0.,0.));
#143=DIRECTION('',(0.,0.,1.));
#144=DIRECTION('center_axis',(0.,0.,-1.));
#145=DIRECTION('ref_axis',(-1.,0.,0.));
#146=CARTESIAN_POINT('',(0.,0.,0.));
#147=CARTESIAN_POINT('Origin',(0.,0.,-2.5));
#148=CARTESIAN_POINT('',(-2.73708559609358E-15,-22.3499999999939,-5.));
#149=CARTESIAN_POINT('Origin',(0.,0.,-5.));
#150=CARTESIAN_POINT('',(-2.73708559609358E-15,-22.3499999999939,0.));
#151=CARTESIAN_POINT('',(-2.73708559609358E-15,-22.3499999999939,-2.5));
#152=CARTESIAN_POINT('Origin',(0.,0.,0.));
#153=CARTESIAN_POINT('Origin',(0.,32.6499999999939,2.44929359829471E-16));
#154=CARTESIAN_POINT('',(32.6499999999939,-3.99847179921536E-15,0.));
#155=CARTESIAN_POINT('Origin',(0.,0.,0.));
#156=CARTESIAN_POINT('Origin',(0.,0.,0.));
#157=CARTESIAN_POINT('',(36.6499999999939,-4.4883305188743E-15,3.21964677141295E-14));
#158=CARTESIAN_POINT('Origin',(0.,0.,3.21964677141295E-14));
#159=CARTESIAN_POINT('Origin',(34.6499999999939,-4.24340115904483E-15,0.));
#160=CARTESIAN_POINT('Origin',(0.,44.5,3.21964677141295E-14));
#161=CARTESIAN_POINT('',(-5.44967825620572E-15,-44.5,3.21964677141295E-14));
#162=CARTESIAN_POINT('Origin',(0.,0.,3.21964677141295E-14));
#163=CARTESIAN_POINT('Origin',(0.,0.,-2.49999999999998));
#164=CARTESIAN_POINT('',(-5.44967825620572E-15,-44.5,-5.));
#165=CARTESIAN_POINT('Origin',(0.,0.,-5.));
#166=CARTESIAN_POINT('',(-5.44967825620572E-15,-44.5,-2.49999999999998));
#167=CARTESIAN_POINT('Origin',(0.,22.3499999999939,-5.));
#168=UNCERTAINTY_MEASURE_WITH_UNIT(LENGTH_MEASURE(0.01),#172,
'DISTANCE_ACCURACY_VALUE',
'Maximum model space distance between geometric entities at asserted c
onnectivities');
#169=UNCERTAINTY_MEASURE_WITH_UNIT(LENGTH_MEASURE(0.01),#172,
'DISTANCE_ACCURACY_VALUE',
'Maximum model space distance between geometric entities at asserted c
onnectivities');
#170=(
GEOMETRIC_REPRESENTATION_CONTEXT(3)
GLOBAL_UNCERTAINTY_ASSIGNED_CONTEXT((#168))
GLOBAL_UNIT_ASSIGNED_CONTEXT((#172,#174,#175))
REPRESENTATION_CONTEXT('','3D')
);
#171=(
GEOMETRIC_REPRESENTATION_CONTEXT(3)
GLOBAL_UNCERTAINTY_ASSIGNED_CONTEXT((#169))
GLOBAL_UNIT_ASSIGNED_CONTEXT((#172,#174,#175))
REPRESENTATION_CONTEXT('','3D')
);
#172=(
LENGTH_UNIT()
NAMED_UNIT(*)
SI_UNIT(.MILLI.,.METRE.)
);
#173=(
LENGTH_UNIT()
NAMED_UNIT(*)
SI_UNIT($,.METRE.)
);
#174=(
NAMED_UNIT(*)
PLANE_ANGLE_UNIT()
SI_UNIT($,.RADIAN.)
);
#175=(
NAMED_UNIT(*)
SI_UNIT($,.STERADIAN.)
SOLID_ANGLE_UNIT()
);
#176=SHAPE_DEFINITION_REPRESENTATION(#177,#178);
#177=PRODUCT_DEFINITION_SHAPE('',$,#180);
#178=SHAPE_REPRESENTATION('',(#102),#170);
#179=PRODUCT_DEFINITION_CONTEXT('part definition',#184,'design');
#180=PRODUCT_DEFINITION('Outillage thermoformage suspension V1 pour PP',
'Outillage thermoformage suspension V1 pour PP v2',#181,#179);
#181=PRODUCT_DEFINITION_FORMATION('',$,#186);
#182=PRODUCT_RELATED_PRODUCT_CATEGORY(
'Outillage thermoformage suspension V1 pour PP v2',
'Outillage thermoformage suspension V1 pour PP v2',(#186));
#183=APPLICATION_PROTOCOL_DEFINITION('international standard',
'automotive_design',2009,#184);
#184=APPLICATION_CONTEXT(
'Core Data for Automotive Mechanical Design Process');
#185=PRODUCT_CONTEXT('part definition',#184,'mechanical');
#186=PRODUCT('Outillage thermoformage suspension V1 pour PP',
'Outillage thermoformage suspension V1 pour PP v2',$,(#185));
#187=PRESENTATION_STYLE_ASSIGNMENT((#188));
#188=SURFACE_STYLE_USAGE(.BOTH.,#189);
#189=SURFACE_SIDE_STYLE('',(#190));
#190=SURFACE_STYLE_FILL_AREA(#191);
#191=FILL_AREA_STYLE('Acier - Satin\X\E9',(#192));
#192=FILL_AREA_STYLE_COLOUR('Acier - Satin\X\E9',#193);
#193=COLOUR_RGB('Acier - Satin\X\E9',0.627450980392157,0.627450980392157,
0.627450980392157);
ENDSEC;
END-ISO-10303-21;
