ISO-10303-21;
HEADER;
/* Generated by software containing ST-Developer
 * from STEP Tools, Inc. (www.steptools.com) 
 */
/* OPTION: strings as raw bytes, not using required /X/ escapes */

FILE_DESCRIPTION(
/* description */ ('Unknown'),
/* implementation_level */ '2;1');

FILE_NAME(
/* name */ 'broches',
/* time_stamp */ '2021-06-08T16:36:10+02:00',
/* author */ ('Unknown'),
/* organization */ ('Unknown'),
/* preprocessor_version */ 'ST-DEVELOPER v16.7',
/* originating_system */ 'DEX',
/* authorisation */ $);

FILE_SCHEMA (('AUTOMOTIVE_DESIGN {1 0 10303 214 3 1 1}'));
ENDSEC;

DATA;
#10=PROPERTY_DEFINITION_REPRESENTATION(#14,#12);
#11=PROPERTY_DEFINITION_REPRESENTATION(#15,#13);
#12=REPRESENTATION('',(#16),#350);
#13=REPRESENTATION('',(#17),#350);
#14=PROPERTY_DEFINITION('pmi validation property','',#355);
#15=PROPERTY_DEFINITION('pmi validation property','',#355);
#16=VALUE_REPRESENTATION_ITEM('number of annotations',COUNT_MEASURE(0.));
#17=VALUE_REPRESENTATION_ITEM('number of views',COUNT_MEASURE(0.));
#18=SHAPE_REPRESENTATION_RELATIONSHIP('','',#228,#19);
#19=ADVANCED_BREP_SHAPE_REPRESENTATION('',(#226),#350);
#20=ORIENTED_EDGE('',*,*,#74,.F.);
#21=ORIENTED_EDGE('',*,*,#75,.T.);
#22=ORIENTED_EDGE('',*,*,#76,.T.);
#23=ORIENTED_EDGE('',*,*,#77,.F.);
#24=ORIENTED_EDGE('',*,*,#78,.T.);
#25=ORIENTED_EDGE('',*,*,#79,.T.);
#26=ORIENTED_EDGE('',*,*,#80,.F.);
#27=ORIENTED_EDGE('',*,*,#77,.T.);
#28=ORIENTED_EDGE('',*,*,#81,.F.);
#29=ORIENTED_EDGE('',*,*,#82,.T.);
#30=ORIENTED_EDGE('',*,*,#83,.T.);
#31=ORIENTED_EDGE('',*,*,#84,.F.);
#32=ORIENTED_EDGE('',*,*,#85,.T.);
#33=ORIENTED_EDGE('',*,*,#86,.T.);
#34=ORIENTED_EDGE('',*,*,#87,.F.);
#35=ORIENTED_EDGE('',*,*,#88,.T.);
#36=ORIENTED_EDGE('',*,*,#89,.F.);
#37=ORIENTED_EDGE('',*,*,#74,.T.);
#38=ORIENTED_EDGE('',*,*,#80,.T.);
#39=ORIENTED_EDGE('',*,*,#90,.F.);
#40=ORIENTED_EDGE('',*,*,#81,.T.);
#41=ORIENTED_EDGE('',*,*,#91,.F.);
#42=ORIENTED_EDGE('',*,*,#87,.T.);
#43=ORIENTED_EDGE('',*,*,#92,.F.);
#44=ORIENTED_EDGE('',*,*,#93,.F.);
#45=ORIENTED_EDGE('',*,*,#76,.F.);
#46=ORIENTED_EDGE('',*,*,#94,.F.);
#47=ORIENTED_EDGE('',*,*,#95,.F.);
#48=ORIENTED_EDGE('',*,*,#96,.T.);
#49=ORIENTED_EDGE('',*,*,#85,.F.);
#50=ORIENTED_EDGE('',*,*,#97,.T.);
#51=ORIENTED_EDGE('',*,*,#83,.F.);
#52=ORIENTED_EDGE('',*,*,#98,.T.);
#53=ORIENTED_EDGE('',*,*,#78,.F.);
#54=ORIENTED_EDGE('',*,*,#98,.F.);
#55=ORIENTED_EDGE('',*,*,#82,.F.);
#56=ORIENTED_EDGE('',*,*,#90,.T.);
#57=ORIENTED_EDGE('',*,*,#79,.F.);
#58=ORIENTED_EDGE('',*,*,#97,.F.);
#59=ORIENTED_EDGE('',*,*,#88,.F.);
#60=ORIENTED_EDGE('',*,*,#91,.T.);
#61=ORIENTED_EDGE('',*,*,#84,.T.);
#62=ORIENTED_EDGE('',*,*,#93,.T.);
#63=ORIENTED_EDGE('',*,*,#99,.T.);
#64=ORIENTED_EDGE('',*,*,#95,.T.);
#65=ORIENTED_EDGE('',*,*,#100,.F.);
#66=ORIENTED_EDGE('',*,*,#89,.T.);
#67=ORIENTED_EDGE('',*,*,#100,.T.);
#68=ORIENTED_EDGE('',*,*,#94,.T.);
#69=ORIENTED_EDGE('',*,*,#75,.F.);
#70=ORIENTED_EDGE('',*,*,#96,.F.);
#71=ORIENTED_EDGE('',*,*,#99,.F.);
#72=ORIENTED_EDGE('',*,*,#92,.T.);
#73=ORIENTED_EDGE('',*,*,#86,.F.);
#74=EDGE_CURVE('',#101,#102,#119,.T.);
#75=EDGE_CURVE('',#101,#103,#120,.T.);
#76=EDGE_CURVE('',#103,#104,#121,.T.);
#77=EDGE_CURVE('',#102,#104,#122,.T.);
#78=EDGE_CURVE('',#104,#105,#123,.T.);
#79=EDGE_CURVE('',#105,#106,#124,.T.);
#80=EDGE_CURVE('',#102,#106,#125,.T.);
#81=EDGE_CURVE('',#107,#108,#126,.T.);
#82=EDGE_CURVE('',#107,#109,#127,.T.);
#83=EDGE_CURVE('',#109,#110,#128,.T.);
#84=EDGE_CURVE('',#108,#110,#129,.T.);
#85=EDGE_CURVE('',#111,#112,#130,.T.);
#86=EDGE_CURVE('',#112,#113,#131,.T.);
#87=EDGE_CURVE('',#114,#113,#132,.T.);
#88=EDGE_CURVE('',#114,#111,#133,.T.);
#89=EDGE_CURVE('',#101,#115,#134,.T.);
#90=EDGE_CURVE('',#107,#106,#135,.T.);
#91=EDGE_CURVE('',#114,#108,#136,.T.);
#92=EDGE_CURVE('',#116,#113,#137,.T.);
#93=EDGE_CURVE('',#115,#116,#138,.T.);
#94=EDGE_CURVE('',#117,#103,#139,.T.);
#95=EDGE_CURVE('',#118,#117,#140,.T.);
#96=EDGE_CURVE('',#118,#112,#141,.T.);
#97=EDGE_CURVE('',#111,#110,#142,.T.);
#98=EDGE_CURVE('',#109,#105,#143,.T.);
#99=EDGE_CURVE('',#116,#118,#144,.T.);
#100=EDGE_CURVE('',#115,#117,#145,.T.);
#101=VERTEX_POINT('',#295);
#102=VERTEX_POINT('',#296);
#103=VERTEX_POINT('',#298);
#104=VERTEX_POINT('',#300);
#105=VERTEX_POINT('',#304);
#106=VERTEX_POINT('',#306);
#107=VERTEX_POINT('',#310);
#108=VERTEX_POINT('',#311);
#109=VERTEX_POINT('',#313);
#110=VERTEX_POINT('',#315);
#111=VERTEX_POINT('',#319);
#112=VERTEX_POINT('',#320);
#113=VERTEX_POINT('',#322);
#114=VERTEX_POINT('',#324);
#115=VERTEX_POINT('',#328);
#116=VERTEX_POINT('',#332);
#117=VERTEX_POINT('',#336);
#118=VERTEX_POINT('',#338);
#119=LINE('',#294,#146);
#120=LINE('',#297,#147);
#121=LINE('',#299,#148);
#122=LINE('',#301,#149);
#123=LINE('',#303,#150);
#124=LINE('',#305,#151);
#125=LINE('',#307,#152);
#126=LINE('',#309,#153);
#127=LINE('',#312,#154);
#128=LINE('',#314,#155);
#129=LINE('',#316,#156);
#130=LINE('',#318,#157);
#131=LINE('',#321,#158);
#132=LINE('',#323,#159);
#133=LINE('',#325,#160);
#134=LINE('',#327,#161);
#135=LINE('',#329,#162);
#136=LINE('',#330,#163);
#137=LINE('',#331,#164);
#138=LINE('',#333,#165);
#139=LINE('',#335,#166);
#140=LINE('',#337,#167);
#141=LINE('',#339,#168);
#142=LINE('',#340,#169);
#143=LINE('',#341,#170);
#144=LINE('',#345,#171);
#145=LINE('',#346,#172);
#146=VECTOR('',#245,1000.);
#147=VECTOR('',#246,1000.);
#148=VECTOR('',#247,1000.);
#149=VECTOR('',#248,1000.);
#150=VECTOR('',#251,1000.);
#151=VECTOR('',#252,1000.);
#152=VECTOR('',#253,1000.);
#153=VECTOR('',#256,1000.);
#154=VECTOR('',#257,1000.);
#155=VECTOR('',#258,1000.);
#156=VECTOR('',#259,1000.);
#157=VECTOR('',#262,1000.);
#158=VECTOR('',#263,1000.);
#159=VECTOR('',#264,1000.);
#160=VECTOR('',#265,1000.);
#161=VECTOR('',#268,1000.);
#162=VECTOR('',#269,1000.);
#163=VECTOR('',#270,1000.);
#164=VECTOR('',#271,1000.);
#165=VECTOR('',#272,1000.);
#166=VECTOR('',#275,1000.);
#167=VECTOR('',#276,1000.);
#168=VECTOR('',#277,1000.);
#169=VECTOR('',#278,1000.);
#170=VECTOR('',#279,1000.);
#171=VECTOR('',#286,1000.);
#172=VECTOR('',#287,1000.);
#173=EDGE_LOOP('',(#20,#21,#22,#23));
#174=EDGE_LOOP('',(#24,#25,#26,#27));
#175=EDGE_LOOP('',(#28,#29,#30,#31));
#176=EDGE_LOOP('',(#32,#33,#34,#35));
#177=EDGE_LOOP('',(#36,#37,#38,#39,#40,#41,#42,#43,#44));
#178=EDGE_LOOP('',(#45,#46,#47,#48,#49,#50,#51,#52,#53));
#179=EDGE_LOOP('',(#54,#55,#56,#57));
#180=EDGE_LOOP('',(#58,#59,#60,#61));
#181=EDGE_LOOP('',(#62,#63,#64,#65));
#182=EDGE_LOOP('',(#66,#67,#68,#69));
#183=EDGE_LOOP('',(#70,#71,#72,#73));
#184=FACE_BOUND('',#173,.T.);
#185=FACE_BOUND('',#174,.T.);
#186=FACE_BOUND('',#175,.T.);
#187=FACE_BOUND('',#176,.T.);
#188=FACE_BOUND('',#177,.T.);
#189=FACE_BOUND('',#178,.T.);
#190=FACE_BOUND('',#179,.T.);
#191=FACE_BOUND('',#180,.T.);
#192=FACE_BOUND('',#181,.T.);
#193=FACE_BOUND('',#182,.T.);
#194=FACE_BOUND('',#183,.T.);
#195=PLANE('',#230);
#196=PLANE('',#231);
#197=PLANE('',#232);
#198=PLANE('',#233);
#199=PLANE('',#234);
#200=PLANE('',#235);
#201=PLANE('',#236);
#202=PLANE('',#237);
#203=PLANE('',#238);
#204=PLANE('',#239);
#205=PLANE('',#240);
#206=ADVANCED_FACE('',(#184),#195,.F.);
#207=ADVANCED_FACE('',(#185),#196,.F.);
#208=ADVANCED_FACE('',(#186),#197,.F.);
#209=ADVANCED_FACE('',(#187),#198,.F.);
#210=ADVANCED_FACE('',(#188),#199,.T.);
#211=ADVANCED_FACE('',(#189),#200,.F.);
#212=ADVANCED_FACE('',(#190),#201,.F.);
#213=ADVANCED_FACE('',(#191),#202,.T.);
#214=ADVANCED_FACE('',(#192),#203,.F.);
#215=ADVANCED_FACE('',(#193),#204,.F.);
#216=ADVANCED_FACE('',(#194),#205,.F.);
#217=CLOSED_SHELL('',(#206,#207,#208,#209,#210,#211,#212,#213,#214,#215,
#216));
#218=STYLED_ITEM('',(#219),#226);
#219=PRESENTATION_STYLE_ASSIGNMENT((#220));
#220=SURFACE_STYLE_USAGE(.BOTH.,#221);
#221=SURFACE_SIDE_STYLE('',(#222));
#222=SURFACE_STYLE_FILL_AREA(#223);
#223=FILL_AREA_STYLE('',(#224));
#224=FILL_AREA_STYLE_COLOUR('',#225);
#225=COLOUR_RGB('',0.506983280181885,0.531564235687256,0.550000011920929);
#226=MANIFOLD_SOLID_BREP('',#217);
#227=SHAPE_DEFINITION_REPRESENTATION(#355,#228);
#228=SHAPE_REPRESENTATION('Pièce1',(#229),#350);
#229=AXIS2_PLACEMENT_3D('',#292,#241,#242);
#230=AXIS2_PLACEMENT_3D('',#293,#243,#244);
#231=AXIS2_PLACEMENT_3D('',#302,#249,#250);
#232=AXIS2_PLACEMENT_3D('',#308,#254,#255);
#233=AXIS2_PLACEMENT_3D('',#317,#260,#261);
#234=AXIS2_PLACEMENT_3D('',#326,#266,#267);
#235=AXIS2_PLACEMENT_3D('',#334,#273,#274);
#236=AXIS2_PLACEMENT_3D('',#342,#280,#281);
#237=AXIS2_PLACEMENT_3D('',#343,#282,#283);
#238=AXIS2_PLACEMENT_3D('',#344,#284,#285);
#239=AXIS2_PLACEMENT_3D('',#347,#288,#289);
#240=AXIS2_PLACEMENT_3D('',#348,#290,#291);
#241=DIRECTION('',(0.,0.,1.));
#242=DIRECTION('',(1.,0.,0.));
#243=DIRECTION('',(1.,0.,0.));
#244=DIRECTION('',(0.,0.,-1.));
#245=DIRECTION('',(0.,0.,1.));
#246=DIRECTION('',(0.,-1.,0.));
#247=DIRECTION('',(0.,0.,1.));
#248=DIRECTION('',(0.,-1.,0.));
#249=DIRECTION('',(0.,0.,-1.));
#250=DIRECTION('',(-1.,0.,0.));
#251=DIRECTION('',(1.,0.,0.));
#252=DIRECTION('',(0.,1.,0.));
#253=DIRECTION('',(1.,0.,0.));
#254=DIRECTION('',(-1.,0.,-3.41922111501396E-18));
#255=DIRECTION('',(-3.41922111501396E-18,0.,1.));
#256=DIRECTION('',(3.41922111501396E-18,0.,-1.));
#257=DIRECTION('',(0.,-1.,0.));
#258=DIRECTION('',(3.41922111501396E-18,0.,-1.));
#259=DIRECTION('',(0.,-1.,0.));
#260=DIRECTION('',(1.,0.,0.));
#261=DIRECTION('',(0.,0.,-1.));
#262=DIRECTION('',(0.,0.,1.));
#263=DIRECTION('',(0.,1.,0.));
#264=DIRECTION('',(0.,0.,1.));
#265=DIRECTION('',(0.,-1.,0.));
#266=DIRECTION('',(0.,1.,0.));
#267=DIRECTION('',(0.,0.,1.));
#268=DIRECTION('',(1.,0.,0.));
#269=DIRECTION('',(-0.970295726275997,0.,0.241921895599667));
#270=DIRECTION('',(1.,0.,0.));
#271=DIRECTION('',(-1.,0.,0.));
#272=DIRECTION('',(0.,0.,-1.));
#273=DIRECTION('',(0.,1.,0.));
#274=DIRECTION('',(0.,0.,1.));
#275=DIRECTION('',(-1.,0.,0.));
#276=DIRECTION('',(0.,0.,1.));
#277=DIRECTION('',(-1.,0.,0.));
#278=DIRECTION('',(1.,0.,0.));
#279=DIRECTION('',(-0.970295726275997,0.,0.241921895599667));
#280=DIRECTION('',(-0.241921895599667,0.,-0.970295726275997));
#281=DIRECTION('',(-0.970295726275997,0.,0.241921895599667));
#282=DIRECTION('',(0.,0.,-1.));
#283=DIRECTION('',(-1.,0.,0.));
#284=DIRECTION('',(1.,0.,0.));
#285=DIRECTION('',(0.,0.,-1.));
#286=DIRECTION('',(0.,-1.,0.));
#287=DIRECTION('',(0.,-1.,0.));
#288=DIRECTION('',(0.,0.,1.));
#289=DIRECTION('',(1.,0.,0.));
#290=DIRECTION('',(0.,0.,-1.));
#291=DIRECTION('',(-1.,0.,0.));
#292=CARTESIAN_POINT('',(0.,0.,0.));
#293=CARTESIAN_POINT('',(-5.99999999999999,3.4,-7.3478807948841E-16));
#294=CARTESIAN_POINT('',(-5.99999999999999,3.4,-7.3478807948841E-16));
#295=CARTESIAN_POINT('',(-6.,3.4,-3.95));
#296=CARTESIAN_POINT('',(-5.99999999999999,3.4,49.));
#297=CARTESIAN_POINT('',(-5.99999999999999,3.4,-3.95));
#298=CARTESIAN_POINT('',(-5.99999999999999,0.,-3.95));
#299=CARTESIAN_POINT('',(-5.99999999999999,0.,-7.3478807948841E-16));
#300=CARTESIAN_POINT('',(-5.99999999999999,0.,49.));
#301=CARTESIAN_POINT('',(-5.99999999999999,3.4,49.));
#302=CARTESIAN_POINT('',(-5.99999999999999,3.4,49.));
#303=CARTESIAN_POINT('',(-5.99999999999999,0.,49.));
#304=CARTESIAN_POINT('',(-1.60431237341434,0.,49.));
#305=CARTESIAN_POINT('',(-1.60431237341434,3.4,49.));
#306=CARTESIAN_POINT('',(-1.60431237341438,3.4,49.));
#307=CARTESIAN_POINT('',(-5.99999999999999,3.4,49.));
#308=CARTESIAN_POINT('',(-1.67541834635684E-16,3.4,49.));
#309=CARTESIAN_POINT('',(-1.67541834635684E-16,3.4,49.));
#310=CARTESIAN_POINT('',(-6.07153216591882E-15,3.4,48.6));
#311=CARTESIAN_POINT('',(-1.30104260698261E-15,3.4,-10.));
#312=CARTESIAN_POINT('',(-6.07153216591882E-15,50.8072541528512,48.6));
#313=CARTESIAN_POINT('',(-6.07153216591882E-15,0.,48.6));
#314=CARTESIAN_POINT('',(-1.67541834635684E-16,0.,49.));
#315=CARTESIAN_POINT('',(-1.30104260698261E-15,0.,-10.));
#316=CARTESIAN_POINT('',(-1.30104260698261E-15,3.4,-10.));
#317=CARTESIAN_POINT('',(-5.99999999999999,3.4,-7.3478807948841E-16));
#318=CARTESIAN_POINT('',(-5.99999999999999,0.,-7.3478807948841E-16));
#319=CARTESIAN_POINT('',(-6.,0.,-10.));
#320=CARTESIAN_POINT('',(-6.,0.,-6.));
#321=CARTESIAN_POINT('',(-5.99999999999999,3.4,-6.));
#322=CARTESIAN_POINT('',(-6.,3.4,-6.));
#323=CARTESIAN_POINT('',(-5.99999999999999,3.4,-7.3478807948841E-16));
#324=CARTESIAN_POINT('',(-6.,3.4,-10.));
#325=CARTESIAN_POINT('',(-6.,3.4,-10.));
#326=CARTESIAN_POINT('',(0.,3.4,0.));
#327=CARTESIAN_POINT('',(0.,3.4,-3.95));
#328=CARTESIAN_POINT('',(-3.5,3.4,-3.95));
#329=CARTESIAN_POINT('',(11.4081589756971,3.4,45.7556265064719));
#330=CARTESIAN_POINT('',(-6.,3.4,-10.));
#331=CARTESIAN_POINT('',(0.,3.4,-6.));
#332=CARTESIAN_POINT('',(-3.5,3.4,-6.));
#333=CARTESIAN_POINT('',(-3.5,3.4,0.));
#334=CARTESIAN_POINT('',(0.,0.,0.));
#335=CARTESIAN_POINT('',(-3.5,0.,-3.95));
#336=CARTESIAN_POINT('',(-3.5,0.,-3.95));
#337=CARTESIAN_POINT('',(-3.5,0.,-6.));
#338=CARTESIAN_POINT('',(-3.5,0.,-6.));
#339=CARTESIAN_POINT('',(0.,0.,-6.));
#340=CARTESIAN_POINT('',(-6.,0.,-10.));
#341=CARTESIAN_POINT('',(11.4081589756971,0.,45.7556265064719));
#342=CARTESIAN_POINT('',(-6.07153216591882E-15,50.8072541528512,48.6));
#343=CARTESIAN_POINT('',(-6.,3.4,-10.));
#344=CARTESIAN_POINT('',(-3.5,59.5297324151588,-6.));
#345=CARTESIAN_POINT('',(-3.5,59.5297324151588,-6.));
#346=CARTESIAN_POINT('',(-3.5,59.5297324151588,-3.95));
#347=CARTESIAN_POINT('',(-3.5,59.5297324151588,-3.95));
#348=CARTESIAN_POINT('',(-7.15744657125722,59.5297324151588,-6.));
#349=MECHANICAL_DESIGN_GEOMETRIC_PRESENTATION_REPRESENTATION('',(#218),
#350);
#350=(
GEOMETRIC_REPRESENTATION_CONTEXT(3)
GLOBAL_UNCERTAINTY_ASSIGNED_CONTEXT((#351))
GLOBAL_UNIT_ASSIGNED_CONTEXT((#354,#353,#352))
REPRESENTATION_CONTEXT('Pièce1','TOP_LEVEL_ASSEMBLY_PART')
);
#351=UNCERTAINTY_MEASURE_WITH_UNIT(LENGTH_MEASURE(0.005),#354,
'DISTANCE_ACCURACY_VALUE','Maximum Tolerance applied to model');
#352=(
NAMED_UNIT(*)
SI_UNIT($,.STERADIAN.)
SOLID_ANGLE_UNIT()
);
#353=(
NAMED_UNIT(*)
PLANE_ANGLE_UNIT()
SI_UNIT($,.RADIAN.)
);
#354=(
LENGTH_UNIT()
NAMED_UNIT(*)
SI_UNIT(.MILLI.,.METRE.)
);
#355=PRODUCT_DEFINITION_SHAPE('','',#356);
#356=PRODUCT_DEFINITION('','',#358,#357);
#357=PRODUCT_DEFINITION_CONTEXT('',#364,'design');
#358=PRODUCT_DEFINITION_FORMATION_WITH_SPECIFIED_SOURCE('','',#360,
 .NOT_KNOWN.);
#359=PRODUCT_RELATED_PRODUCT_CATEGORY('','',(#360));
#360=PRODUCT('Pièce1','Pièce1','Pièce1',(#362));
#361=PRODUCT_CATEGORY('','');
#362=PRODUCT_CONTEXT('',#364,'mechanical');
#363=APPLICATION_PROTOCOL_DEFINITION('international standard',
'automotive_design',2010,#364);
#364=APPLICATION_CONTEXT(
'core data for automotive mechanical design processes');
ENDSEC;
END-ISO-10303-21;
