ISO-10303-21;
HEADER;
FILE_DESCRIPTION(
 (''),
 '2;1');
FILE_NAME(
'C:\part.stp',
'2000-01-01T12:00:00+0:00',
(''),
(''),
'',
'fCAD',
'');
FILE_SCHEMA (('AUTOMOTIVE_DESIGN { 1 0 10303 214 3 1 1 }'));
ENDSEC;
DATA;
#10=MECHANICAL_DESIGN_GEOMETRIC_PRESENTATION_REPRESENTATION('',(#21,#19,
#23,#18,#24,#20,#22),#541);
#11=ITEM_DEFINED_TRANSFORMATION($,$,#333,#366);
#12=(
REPRESENTATION_RELATIONSHIP($,$,#554,#553)
REPRESENTATION_RELATIONSHIP_WITH_TRANSFORMATION(#11)
SHAPE_REPRESENTATION_RELATIONSHIP()
);
#13=CONTEXT_DEPENDENT_SHAPE_REPRESENTATION(#12,#552);
#14=NEXT_ASSEMBLY_USAGE_OCCURRENCE('plaque soutien:1',
'plaque soutien:1','plaque soutien:1',#556,#557,'plaque soutien:1');
#15=SHAPE_REPRESENTATION_RELATIONSHIP('SRR','None',#554,#16);
#16=ADVANCED_BREP_SHAPE_REPRESENTATION('',(#17),#540);
#17=MANIFOLD_SOLID_BREP('Solid1',#319);
#18=STYLED_ITEM('',(#572),#312);
#19=STYLED_ITEM('',(#572),#313);
#20=STYLED_ITEM('',(#572),#315);
#21=STYLED_ITEM('',(#572),#316);
#22=STYLED_ITEM('',(#572),#317);
#23=STYLED_ITEM('',(#572),#318);
#24=STYLED_ITEM('',(#572),#17);
#25=LINE('',#500,#43);
#26=LINE('',#502,#44);
#27=LINE('',#504,#45);
#28=LINE('',#505,#46);
#29=LINE('',#508,#47);
#30=LINE('',#510,#48);
#31=LINE('',#511,#49);
#32=LINE('',#514,#50);
#33=LINE('',#516,#51);
#34=LINE('',#518,#52);
#35=LINE('',#519,#53);
#36=LINE('',#522,#54);
#37=LINE('',#523,#55);
#38=LINE('',#526,#56);
#39=LINE('',#528,#57);
#40=LINE('',#529,#58);
#41=LINE('',#531,#59);
#42=LINE('',#533,#60);
#43=VECTOR('',#421,10.);
#44=VECTOR('',#422,10.);
#45=VECTOR('',#423,10.);
#46=VECTOR('',#424,10.);
#47=VECTOR('',#427,10.);
#48=VECTOR('',#428,10.);
#49=VECTOR('',#429,10.);
#50=VECTOR('',#432,10.);
#51=VECTOR('',#433,10.);
#52=VECTOR('',#434,10.);
#53=VECTOR('',#435,10.);
#54=VECTOR('',#438,10.);
#55=VECTOR('',#439,10.);
#56=VECTOR('',#442,10.);
#57=VECTOR('',#443,10.);
#58=VECTOR('',#444,10.);
#59=VECTOR('',#447,10.);
#60=VECTOR('',#450,10.);
#61=PLANE('',#358);
#62=PLANE('',#359);
#63=PLANE('',#360);
#64=PLANE('',#361);
#65=PLANE('',#362);
#66=PLANE('',#363);
#67=PLANE('',#364);
#68=PLANE('',#365);
#69=FACE_BOUND('',#110,.T.);
#70=FACE_BOUND('',#112,.T.);
#71=FACE_BOUND('',#114,.T.);
#72=FACE_BOUND('',#116,.T.);
#73=FACE_BOUND('',#118,.T.);
#74=FACE_BOUND('',#120,.T.);
#75=FACE_BOUND('',#122,.T.);
#76=FACE_BOUND('',#124,.T.);
#77=FACE_BOUND('',#127,.T.);
#78=FACE_BOUND('',#128,.T.);
#79=FACE_BOUND('',#129,.T.);
#80=FACE_BOUND('',#130,.T.);
#81=FACE_BOUND('',#131,.T.);
#82=FACE_BOUND('',#132,.T.);
#83=FACE_BOUND('',#133,.T.);
#84=FACE_BOUND('',#134,.T.);
#85=FACE_BOUND('',#140,.T.);
#86=FACE_BOUND('',#141,.T.);
#87=FACE_BOUND('',#142,.T.);
#88=FACE_BOUND('',#143,.T.);
#89=FACE_BOUND('',#144,.T.);
#90=FACE_BOUND('',#145,.T.);
#91=FACE_BOUND('',#146,.T.);
#92=FACE_BOUND('',#147,.T.);
#93=FACE_OUTER_BOUND('',#109,.T.);
#94=FACE_OUTER_BOUND('',#111,.T.);
#95=FACE_OUTER_BOUND('',#113,.T.);
#96=FACE_OUTER_BOUND('',#115,.T.);
#97=FACE_OUTER_BOUND('',#117,.T.);
#98=FACE_OUTER_BOUND('',#119,.T.);
#99=FACE_OUTER_BOUND('',#121,.T.);
#100=FACE_OUTER_BOUND('',#123,.T.);
#101=FACE_OUTER_BOUND('',#125,.T.);
#102=FACE_OUTER_BOUND('',#126,.T.);
#103=FACE_OUTER_BOUND('',#135,.T.);
#104=FACE_OUTER_BOUND('',#136,.T.);
#105=FACE_OUTER_BOUND('',#137,.T.);
#106=FACE_OUTER_BOUND('',#138,.T.);
#107=FACE_OUTER_BOUND('',#139,.T.);
#108=FACE_OUTER_BOUND('',#148,.T.);
#109=EDGE_LOOP('',(#227));
#110=EDGE_LOOP('',(#228));
#111=EDGE_LOOP('',(#229));
#112=EDGE_LOOP('',(#230));
#113=EDGE_LOOP('',(#231));
#114=EDGE_LOOP('',(#232));
#115=EDGE_LOOP('',(#233));
#116=EDGE_LOOP('',(#234));
#117=EDGE_LOOP('',(#235));
#118=EDGE_LOOP('',(#236));
#119=EDGE_LOOP('',(#237));
#120=EDGE_LOOP('',(#238));
#121=EDGE_LOOP('',(#239));
#122=EDGE_LOOP('',(#240));
#123=EDGE_LOOP('',(#241));
#124=EDGE_LOOP('',(#242));
#125=EDGE_LOOP('',(#243,#244,#245,#246));
#126=EDGE_LOOP('',(#247,#248,#249,#250));
#127=EDGE_LOOP('',(#251));
#128=EDGE_LOOP('',(#252));
#129=EDGE_LOOP('',(#253));
#130=EDGE_LOOP('',(#254));
#131=EDGE_LOOP('',(#255));
#132=EDGE_LOOP('',(#256));
#133=EDGE_LOOP('',(#257));
#134=EDGE_LOOP('',(#258));
#135=EDGE_LOOP('',(#259,#260,#261,#262,#263,#264));
#136=EDGE_LOOP('',(#265,#266,#267,#268));
#137=EDGE_LOOP('',(#269,#270,#271,#272,#273,#274));
#138=EDGE_LOOP('',(#275,#276,#277,#278));
#139=EDGE_LOOP('',(#279,#280,#281,#282));
#140=EDGE_LOOP('',(#283));
#141=EDGE_LOOP('',(#284));
#142=EDGE_LOOP('',(#285));
#143=EDGE_LOOP('',(#286));
#144=EDGE_LOOP('',(#287));
#145=EDGE_LOOP('',(#288));
#146=EDGE_LOOP('',(#289));
#147=EDGE_LOOP('',(#290));
#148=EDGE_LOOP('',(#291,#292,#293,#294));
#149=CIRCLE('',#335,3.5);
#150=CIRCLE('',#336,3.5);
#151=CIRCLE('',#338,3.5);
#152=CIRCLE('',#339,3.5);
#153=CIRCLE('',#341,3.5);
#154=CIRCLE('',#342,3.5);
#155=CIRCLE('',#344,3.5);
#156=CIRCLE('',#345,3.5);
#157=CIRCLE('',#347,3.5);
#158=CIRCLE('',#348,3.5);
#159=CIRCLE('',#350,3.5);
#160=CIRCLE('',#351,3.5);
#161=CIRCLE('',#353,3.5);
#162=CIRCLE('',#354,3.5);
#163=CIRCLE('',#356,3.5);
#164=CIRCLE('',#357,3.5);
#165=VERTEX_POINT('',#458);
#166=VERTEX_POINT('',#460);
#167=VERTEX_POINT('',#463);
#168=VERTEX_POINT('',#465);
#169=VERTEX_POINT('',#468);
#170=VERTEX_POINT('',#470);
#171=VERTEX_POINT('',#473);
#172=VERTEX_POINT('',#475);
#173=VERTEX_POINT('',#478);
#174=VERTEX_POINT('',#480);
#175=VERTEX_POINT('',#483);
#176=VERTEX_POINT('',#485);
#177=VERTEX_POINT('',#488);
#178=VERTEX_POINT('',#490);
#179=VERTEX_POINT('',#493);
#180=VERTEX_POINT('',#495);
#181=VERTEX_POINT('',#498);
#182=VERTEX_POINT('',#499);
#183=VERTEX_POINT('',#501);
#184=VERTEX_POINT('',#503);
#185=VERTEX_POINT('',#507);
#186=VERTEX_POINT('',#509);
#187=VERTEX_POINT('',#513);
#188=VERTEX_POINT('',#515);
#189=VERTEX_POINT('',#517);
#190=VERTEX_POINT('',#521);
#191=VERTEX_POINT('',#525);
#192=VERTEX_POINT('',#527);
#193=EDGE_CURVE('',#165,#165,#149,.T.);
#194=EDGE_CURVE('',#166,#166,#150,.T.);
#195=EDGE_CURVE('',#167,#167,#151,.T.);
#196=EDGE_CURVE('',#168,#168,#152,.T.);
#197=EDGE_CURVE('',#169,#169,#153,.T.);
#198=EDGE_CURVE('',#170,#170,#154,.T.);
#199=EDGE_CURVE('',#171,#171,#155,.T.);
#200=EDGE_CURVE('',#172,#172,#156,.T.);
#201=EDGE_CURVE('',#173,#173,#157,.T.);
#202=EDGE_CURVE('',#174,#174,#158,.T.);
#203=EDGE_CURVE('',#175,#175,#159,.T.);
#204=EDGE_CURVE('',#176,#176,#160,.T.);
#205=EDGE_CURVE('',#177,#177,#161,.T.);
#206=EDGE_CURVE('',#178,#178,#162,.T.);
#207=EDGE_CURVE('',#179,#179,#163,.T.);
#208=EDGE_CURVE('',#180,#180,#164,.T.);
#209=EDGE_CURVE('',#181,#182,#25,.T.);
#210=EDGE_CURVE('',#182,#183,#26,.T.);
#211=EDGE_CURVE('',#183,#184,#27,.T.);
#212=EDGE_CURVE('',#184,#181,#28,.T.);
#213=EDGE_CURVE('',#185,#184,#29,.T.);
#214=EDGE_CURVE('',#186,#185,#30,.T.);
#215=EDGE_CURVE('',#181,#186,#31,.T.);
#216=EDGE_CURVE('',#183,#187,#32,.T.);
#217=EDGE_CURVE('',#187,#188,#33,.T.);
#218=EDGE_CURVE('',#189,#188,#34,.T.);
#219=EDGE_CURVE('',#185,#189,#35,.T.);
#220=EDGE_CURVE('',#189,#190,#36,.T.);
#221=EDGE_CURVE('',#190,#186,#37,.T.);
#222=EDGE_CURVE('',#190,#191,#38,.T.);
#223=EDGE_CURVE('',#191,#192,#39,.T.);
#224=EDGE_CURVE('',#192,#182,#40,.T.);
#225=EDGE_CURVE('',#188,#191,#41,.T.);
#226=EDGE_CURVE('',#192,#187,#42,.T.);
#227=ORIENTED_EDGE('',*,*,#193,.F.);
#228=ORIENTED_EDGE('',*,*,#194,.F.);
#229=ORIENTED_EDGE('',*,*,#195,.F.);
#230=ORIENTED_EDGE('',*,*,#196,.F.);
#231=ORIENTED_EDGE('',*,*,#197,.F.);
#232=ORIENTED_EDGE('',*,*,#198,.F.);
#233=ORIENTED_EDGE('',*,*,#199,.F.);
#234=ORIENTED_EDGE('',*,*,#200,.F.);
#235=ORIENTED_EDGE('',*,*,#201,.F.);
#236=ORIENTED_EDGE('',*,*,#202,.F.);
#237=ORIENTED_EDGE('',*,*,#203,.F.);
#238=ORIENTED_EDGE('',*,*,#204,.F.);
#239=ORIENTED_EDGE('',*,*,#205,.F.);
#240=ORIENTED_EDGE('',*,*,#206,.F.);
#241=ORIENTED_EDGE('',*,*,#207,.F.);
#242=ORIENTED_EDGE('',*,*,#208,.F.);
#243=ORIENTED_EDGE('',*,*,#209,.T.);
#244=ORIENTED_EDGE('',*,*,#210,.T.);
#245=ORIENTED_EDGE('',*,*,#211,.T.);
#246=ORIENTED_EDGE('',*,*,#212,.T.);
#247=ORIENTED_EDGE('',*,*,#212,.F.);
#248=ORIENTED_EDGE('',*,*,#213,.F.);
#249=ORIENTED_EDGE('',*,*,#214,.F.);
#250=ORIENTED_EDGE('',*,*,#215,.F.);
#251=ORIENTED_EDGE('',*,*,#193,.T.);
#252=ORIENTED_EDGE('',*,*,#195,.T.);
#253=ORIENTED_EDGE('',*,*,#197,.T.);
#254=ORIENTED_EDGE('',*,*,#199,.T.);
#255=ORIENTED_EDGE('',*,*,#201,.T.);
#256=ORIENTED_EDGE('',*,*,#203,.T.);
#257=ORIENTED_EDGE('',*,*,#205,.T.);
#258=ORIENTED_EDGE('',*,*,#207,.T.);
#259=ORIENTED_EDGE('',*,*,#211,.F.);
#260=ORIENTED_EDGE('',*,*,#216,.T.);
#261=ORIENTED_EDGE('',*,*,#217,.T.);
#262=ORIENTED_EDGE('',*,*,#218,.F.);
#263=ORIENTED_EDGE('',*,*,#219,.F.);
#264=ORIENTED_EDGE('',*,*,#213,.T.);
#265=ORIENTED_EDGE('',*,*,#219,.T.);
#266=ORIENTED_EDGE('',*,*,#220,.T.);
#267=ORIENTED_EDGE('',*,*,#221,.T.);
#268=ORIENTED_EDGE('',*,*,#214,.T.);
#269=ORIENTED_EDGE('',*,*,#209,.F.);
#270=ORIENTED_EDGE('',*,*,#215,.T.);
#271=ORIENTED_EDGE('',*,*,#221,.F.);
#272=ORIENTED_EDGE('',*,*,#222,.T.);
#273=ORIENTED_EDGE('',*,*,#223,.T.);
#274=ORIENTED_EDGE('',*,*,#224,.T.);
#275=ORIENTED_EDGE('',*,*,#220,.F.);
#276=ORIENTED_EDGE('',*,*,#218,.T.);
#277=ORIENTED_EDGE('',*,*,#225,.T.);
#278=ORIENTED_EDGE('',*,*,#222,.F.);
#279=ORIENTED_EDGE('',*,*,#226,.F.);
#280=ORIENTED_EDGE('',*,*,#223,.F.);
#281=ORIENTED_EDGE('',*,*,#225,.F.);
#282=ORIENTED_EDGE('',*,*,#217,.F.);
#283=ORIENTED_EDGE('',*,*,#194,.T.);
#284=ORIENTED_EDGE('',*,*,#196,.T.);
#285=ORIENTED_EDGE('',*,*,#198,.T.);
#286=ORIENTED_EDGE('',*,*,#200,.T.);
#287=ORIENTED_EDGE('',*,*,#202,.T.);
#288=ORIENTED_EDGE('',*,*,#204,.T.);
#289=ORIENTED_EDGE('',*,*,#206,.T.);
#290=ORIENTED_EDGE('',*,*,#208,.T.);
#291=ORIENTED_EDGE('',*,*,#210,.F.);
#292=ORIENTED_EDGE('',*,*,#224,.F.);
#293=ORIENTED_EDGE('',*,*,#226,.T.);
#294=ORIENTED_EDGE('',*,*,#216,.F.);
#295=CYLINDRICAL_SURFACE('',#334,3.5);
#296=CYLINDRICAL_SURFACE('',#337,3.5);
#297=CYLINDRICAL_SURFACE('',#340,3.5);
#298=CYLINDRICAL_SURFACE('',#343,3.5);
#299=CYLINDRICAL_SURFACE('',#346,3.5);
#300=CYLINDRICAL_SURFACE('',#349,3.5);
#301=CYLINDRICAL_SURFACE('',#352,3.5);
#302=CYLINDRICAL_SURFACE('',#355,3.5);
#303=ADVANCED_FACE('',(#93,#69),#295,.F.);
#304=ADVANCED_FACE('',(#94,#70),#296,.F.);
#305=ADVANCED_FACE('',(#95,#71),#297,.F.);
#306=ADVANCED_FACE('',(#96,#72),#298,.F.);
#307=ADVANCED_FACE('',(#97,#73),#299,.F.);
#308=ADVANCED_FACE('',(#98,#74),#300,.F.);
#309=ADVANCED_FACE('',(#99,#75),#301,.F.);
#310=ADVANCED_FACE('',(#100,#76),#302,.F.);
#311=ADVANCED_FACE('',(#101),#61,.T.);
#312=ADVANCED_FACE('',(#102,#77,#78,#79,#80,#81,#82,#83,#84),#62,.T.);
#313=ADVANCED_FACE('',(#103),#63,.T.);
#314=ADVANCED_FACE('',(#104),#64,.T.);
#315=ADVANCED_FACE('',(#105),#65,.T.);
#316=ADVANCED_FACE('',(#106),#66,.T.);
#317=ADVANCED_FACE('',(#107,#85,#86,#87,#88,#89,#90,#91,#92),#67,.F.);
#318=ADVANCED_FACE('',(#108),#68,.T.);
#319=CLOSED_SHELL('',(#303,#304,#305,#306,#307,#308,#309,#310,#311,#312,
#313,#314,#315,#316,#317,#318));
#320=DATE_TIME_ROLE('creation_date');
#321=DATE_TIME_ROLE('creation_date');
#322=APPLIED_DATE_AND_TIME_ASSIGNMENT(#324,#320,(#556));
#323=APPLIED_DATE_AND_TIME_ASSIGNMENT(#325,#321,(#557));
#324=DATE_AND_TIME(#326,#328);
#325=DATE_AND_TIME(#327,#329);
#326=CALENDAR_DATE(2011,1,5);
#327=CALENDAR_DATE(2014,18,6);
#328=LOCAL_TIME(14,36,50.,#330);
#329=LOCAL_TIME(6,49,34.,#331);
#330=COORDINATED_UNIVERSAL_TIME_OFFSET(0,0,.BEHIND.);
#331=COORDINATED_UNIVERSAL_TIME_OFFSET(0,0,.BEHIND.);
#332=AXIS2_PLACEMENT_3D('placement',#455,#367,#368);
#333=AXIS2_PLACEMENT_3D('placement',#456,#369,#370);
#334=AXIS2_PLACEMENT_3D('',#457,#371,#372);
#335=AXIS2_PLACEMENT_3D('',#459,#373,#374);
#336=AXIS2_PLACEMENT_3D('',#461,#375,#376);
#337=AXIS2_PLACEMENT_3D('',#462,#377,#378);
#338=AXIS2_PLACEMENT_3D('',#464,#379,#380);
#339=AXIS2_PLACEMENT_3D('',#466,#381,#382);
#340=AXIS2_PLACEMENT_3D('',#467,#383,#384);
#341=AXIS2_PLACEMENT_3D('',#469,#385,#386);
#342=AXIS2_PLACEMENT_3D('',#471,#387,#388);
#343=AXIS2_PLACEMENT_3D('',#472,#389,#390);
#344=AXIS2_PLACEMENT_3D('',#474,#391,#392);
#345=AXIS2_PLACEMENT_3D('',#476,#393,#394);
#346=AXIS2_PLACEMENT_3D('',#477,#395,#396);
#347=AXIS2_PLACEMENT_3D('',#479,#397,#398);
#348=AXIS2_PLACEMENT_3D('',#481,#399,#400);
#349=AXIS2_PLACEMENT_3D('',#482,#401,#402);
#350=AXIS2_PLACEMENT_3D('',#484,#403,#404);
#351=AXIS2_PLACEMENT_3D('',#486,#405,#406);
#352=AXIS2_PLACEMENT_3D('',#487,#407,#408);
#353=AXIS2_PLACEMENT_3D('',#489,#409,#410);
#354=AXIS2_PLACEMENT_3D('',#491,#411,#412);
#355=AXIS2_PLACEMENT_3D('',#492,#413,#414);
#356=AXIS2_PLACEMENT_3D('',#494,#415,#416);
#357=AXIS2_PLACEMENT_3D('',#496,#417,#418);
#358=AXIS2_PLACEMENT_3D('',#497,#419,#420);
#359=AXIS2_PLACEMENT_3D('',#506,#425,#426);
#360=AXIS2_PLACEMENT_3D('',#512,#430,#431);
#361=AXIS2_PLACEMENT_3D('',#520,#436,#437);
#362=AXIS2_PLACEMENT_3D('',#524,#440,#441);
#363=AXIS2_PLACEMENT_3D('',#530,#445,#446);
#364=AXIS2_PLACEMENT_3D('',#532,#448,#449);
#365=AXIS2_PLACEMENT_3D('',#534,#451,#452);
#366=AXIS2_PLACEMENT_3D('',#535,#453,#454);
#367=DIRECTION('axis',(0.,0.,1.));
#368=DIRECTION('refdir',(1.,0.,0.));
#369=DIRECTION('axis',(0.,0.,1.));
#370=DIRECTION('refdir',(1.,0.,0.));
#371=DIRECTION('center_axis',(-4.43734259186819E-31,4.43734259186821E-31,
-1.));
#372=DIRECTION('ref_axis',(-1.,1.8126090197961E-16,4.22604056368399E-31));
#373=DIRECTION('center_axis',(-4.43734259186819E-31,4.43734259186821E-31,
-1.));
#374=DIRECTION('ref_axis',(-1.,1.8126090197961E-16,4.22604056368399E-31));
#375=DIRECTION('center_axis',(4.43734259186819E-31,-4.43734259186821E-31,
1.));
#376=DIRECTION('ref_axis',(-1.,1.8126090197961E-16,4.22604056368399E-31));
#377=DIRECTION('center_axis',(-4.43734259186819E-31,4.43734259186821E-31,
-1.));
#378=DIRECTION('ref_axis',(-1.,1.8126090197961E-16,4.22604056368399E-31));
#379=DIRECTION('center_axis',(-4.43734259186819E-31,4.43734259186821E-31,
-1.));
#380=DIRECTION('ref_axis',(-1.,1.8126090197961E-16,4.22604056368399E-31));
#381=DIRECTION('center_axis',(4.43734259186819E-31,-4.43734259186821E-31,
1.));
#382=DIRECTION('ref_axis',(-1.,1.8126090197961E-16,4.22604056368399E-31));
#383=DIRECTION('center_axis',(-4.43734259186819E-31,4.43734259186821E-31,
-1.));
#384=DIRECTION('ref_axis',(-1.,1.8126090197961E-16,4.22604056368399E-31));
#385=DIRECTION('center_axis',(-4.43734259186819E-31,4.43734259186821E-31,
-1.));
#386=DIRECTION('ref_axis',(-1.,1.8126090197961E-16,4.22604056368399E-31));
#387=DIRECTION('center_axis',(4.43734259186819E-31,-4.43734259186821E-31,
1.));
#388=DIRECTION('ref_axis',(-1.,1.8126090197961E-16,4.22604056368399E-31));
#389=DIRECTION('center_axis',(-4.43734259186819E-31,4.43734259186821E-31,
-1.));
#390=DIRECTION('ref_axis',(-1.,1.8126090197961E-16,4.22604056368399E-31));
#391=DIRECTION('center_axis',(-4.43734259186819E-31,4.43734259186821E-31,
-1.));
#392=DIRECTION('ref_axis',(-1.,1.8126090197961E-16,4.22604056368399E-31));
#393=DIRECTION('center_axis',(4.43734259186819E-31,-4.43734259186821E-31,
1.));
#394=DIRECTION('ref_axis',(-1.,1.8126090197961E-16,4.22604056368399E-31));
#395=DIRECTION('center_axis',(-4.43734259186819E-31,4.43734259186821E-31,
-1.));
#396=DIRECTION('ref_axis',(-1.,1.8126090197961E-16,4.22604056368399E-31));
#397=DIRECTION('center_axis',(-4.43734259186819E-31,4.43734259186821E-31,
-1.));
#398=DIRECTION('ref_axis',(-1.,1.8126090197961E-16,4.22604056368399E-31));
#399=DIRECTION('center_axis',(4.43734259186819E-31,-4.43734259186821E-31,
1.));
#400=DIRECTION('ref_axis',(-1.,1.8126090197961E-16,4.22604056368399E-31));
#401=DIRECTION('center_axis',(-4.43734259186819E-31,4.43734259186821E-31,
-1.));
#402=DIRECTION('ref_axis',(-1.,1.8126090197961E-16,4.22604056368399E-31));
#403=DIRECTION('center_axis',(-4.43734259186819E-31,4.43734259186821E-31,
-1.));
#404=DIRECTION('ref_axis',(-1.,1.8126090197961E-16,4.22604056368399E-31));
#405=DIRECTION('center_axis',(4.43734259186819E-31,-4.43734259186821E-31,
1.));
#406=DIRECTION('ref_axis',(-1.,1.8126090197961E-16,4.22604056368399E-31));
#407=DIRECTION('center_axis',(-4.43734259186819E-31,4.43734259186821E-31,
-1.));
#408=DIRECTION('ref_axis',(-1.,1.8126090197961E-16,4.22604056368399E-31));
#409=DIRECTION('center_axis',(-4.43734259186819E-31,4.43734259186821E-31,
-1.));
#410=DIRECTION('ref_axis',(-1.,1.8126090197961E-16,4.22604056368399E-31));
#411=DIRECTION('center_axis',(4.43734259186819E-31,-4.43734259186821E-31,
1.));
#412=DIRECTION('ref_axis',(-1.,1.8126090197961E-16,4.22604056368399E-31));
#413=DIRECTION('center_axis',(-4.43734259186819E-31,4.43734259186821E-31,
-1.));
#414=DIRECTION('ref_axis',(-1.,1.8126090197961E-16,4.22604056368399E-31));
#415=DIRECTION('center_axis',(-4.43734259186819E-31,4.43734259186821E-31,
-1.));
#416=DIRECTION('ref_axis',(-1.,1.8126090197961E-16,4.22604056368399E-31));
#417=DIRECTION('center_axis',(4.43734259186819E-31,-4.43734259186821E-31,
1.));
#418=DIRECTION('ref_axis',(-1.,1.8126090197961E-16,4.22604056368399E-31));
#419=DIRECTION('center_axis',(0.707106781186547,-1.25607396694702E-16,0.707106781186548));
#420=DIRECTION('ref_axis',(0.707106781186549,0.,-0.707106781186546));
#421=DIRECTION('',(0.707106781186548,-1.28170812953777E-16,-0.707106781186547));
#422=DIRECTION('',(1.77635683940025E-16,1.,4.43734259186821E-31));
#423=DIRECTION('',(-0.707106781186548,-1.28170812953778E-16,0.707106781186547));
#424=DIRECTION('',(-1.77635683940025E-16,-1.,-4.43734259186821E-31));
#425=DIRECTION('center_axis',(4.43734259186819E-31,-4.43734259186821E-31,
1.));
#426=DIRECTION('ref_axis',(1.,0.,0.));
#427=DIRECTION('',(1.,1.81260901979617E-16,-4.43734259186819E-31));
#428=DIRECTION('',(-8.88178419700125E-17,1.,4.43734259186821E-31));
#429=DIRECTION('',(-1.,1.81260901979617E-16,4.43734259186819E-31));
#430=DIRECTION('center_axis',(-1.81260901979617E-16,1.,4.43734259186821E-31));
#431=DIRECTION('ref_axis',(0.,0.,1.));
#432=DIRECTION('',(-4.43734259186819E-31,4.43734259186821E-31,-1.));
#433=DIRECTION('',(-1.,-1.81260901979617E-16,4.43734259186819E-31));
#434=DIRECTION('',(-4.43734259186819E-31,4.43734259186821E-31,-1.));
#435=DIRECTION('',(-0.707106781186548,-1.28170812953777E-16,-0.707106781186547));
#436=DIRECTION('center_axis',(-0.707106781186547,-6.28036983473513E-17,
0.707106781186548));
#437=DIRECTION('ref_axis',(0.707106781186549,0.,0.707106781186546));
#438=DIRECTION('',(8.88178419700125E-17,-1.,-4.43734259186821E-31));
#439=DIRECTION('',(0.707106781186548,-1.28170812953778E-16,0.707106781186547));
#440=DIRECTION('center_axis',(-1.81260901979617E-16,-1.,-4.4373425918682E-31));
#441=DIRECTION('ref_axis',(0.,0.,-1.));
#442=DIRECTION('',(-4.43734259186819E-31,4.43734259186821E-31,-1.));
#443=DIRECTION('',(1.,-1.81260901979617E-16,-4.43734259186819E-31));
#444=DIRECTION('',(4.43734259186819E-31,-4.43734259186821E-31,1.));
#445=DIRECTION('center_axis',(-1.,-8.88178419700125E-17,4.43734259186819E-31));
#446=DIRECTION('ref_axis',(0.,0.,1.));
#447=DIRECTION('',(8.88178419700125E-17,-1.,-4.43734259186821E-31));
#448=DIRECTION('center_axis',(4.43734259186819E-31,-4.43734259186821E-31,
1.));
#449=DIRECTION('ref_axis',(1.,0.,0.));
#450=DIRECTION('',(1.77635683940025E-16,1.,4.43734259186821E-31));
#451=DIRECTION('center_axis',(1.,-1.77635683940025E-16,-4.43734259186819E-31));
#452=DIRECTION('ref_axis',(0.,0.,-1.));
#453=DIRECTION('',(3.95639398243671E-16,-1.,-5.15448213371144E-31));
#454=DIRECTION('',(1.,3.95639398243671E-16,-7.24680761240933E-30));
#455=CARTESIAN_POINT('',(0.,0.,0.));
#456=CARTESIAN_POINT('',(0.,0.,0.));
#457=CARTESIAN_POINT('Origin',(22.9999999999992,-92.5000000000001,277.573204716196));
#458=CARTESIAN_POINT('',(26.4999999999992,-92.5000000000001,2.50000000000002));
#459=CARTESIAN_POINT('Origin',(22.9999999999992,-92.5000000000001,2.50000000000002));
#460=CARTESIAN_POINT('',(19.4999999999992,-92.5000000000001,-2.5));
#461=CARTESIAN_POINT('Origin',(22.9999999999992,-92.5000000000001,-2.49999999999998));
#462=CARTESIAN_POINT('Origin',(-69.5000000000008,-92.5000000000001,277.573204716196));
#463=CARTESIAN_POINT('',(-66.0000000000008,-92.5000000000001,2.50000000000002));
#464=CARTESIAN_POINT('Origin',(-69.5000000000008,-92.5000000000001,2.5));
#465=CARTESIAN_POINT('',(-73.0000000000008,-92.5000000000001,-2.5));
#466=CARTESIAN_POINT('Origin',(-69.5000000000008,-92.5000000000001,-2.5));
#467=CARTESIAN_POINT('Origin',(-22.9999999999993,92.4999999999998,277.573204716196));
#468=CARTESIAN_POINT('',(-19.4999999999993,92.4999999999998,2.5));
#469=CARTESIAN_POINT('Origin',(-22.9999999999993,92.4999999999998,2.49999999999998));
#470=CARTESIAN_POINT('',(-26.4999999999993,92.4999999999998,-2.5));
#471=CARTESIAN_POINT('Origin',(-22.9999999999993,92.4999999999998,-2.50000000000002));
#472=CARTESIAN_POINT('Origin',(69.5000000000007,92.4999999999998,277.573204716196));
#473=CARTESIAN_POINT('',(73.0000000000007,92.4999999999998,2.5));
#474=CARTESIAN_POINT('Origin',(69.5000000000007,92.4999999999998,2.5));
#475=CARTESIAN_POINT('',(66.0000000000007,92.4999999999998,-2.5));
#476=CARTESIAN_POINT('Origin',(69.5000000000007,92.4999999999998,-2.5));
#477=CARTESIAN_POINT('Origin',(23.0000000000007,92.4999999999998,277.573204716196));
#478=CARTESIAN_POINT('',(26.5000000000006,92.4999999999998,2.50000000000002));
#479=CARTESIAN_POINT('Origin',(23.0000000000006,92.4999999999998,2.50000000000002));
#480=CARTESIAN_POINT('',(19.5000000000007,92.4999999999998,-2.5));
#481=CARTESIAN_POINT('Origin',(23.0000000000007,92.4999999999998,-2.49999999999998));
#482=CARTESIAN_POINT('Origin',(-69.4999999999993,92.4999999999998,277.573204716196));
#483=CARTESIAN_POINT('',(-65.9999999999994,92.4999999999998,2.50000000000002));
#484=CARTESIAN_POINT('Origin',(-69.4999999999993,92.4999999999998,2.5));
#485=CARTESIAN_POINT('',(-72.9999999999993,92.4999999999998,-2.5));
#486=CARTESIAN_POINT('Origin',(-69.4999999999993,92.4999999999998,-2.5));
#487=CARTESIAN_POINT('Origin',(-23.0000000000008,-92.5000000000001,277.573204716196));
#488=CARTESIAN_POINT('',(-19.5000000000008,-92.5000000000001,2.5));
#489=CARTESIAN_POINT('Origin',(-23.0000000000008,-92.5000000000001,2.49999999999998));
#490=CARTESIAN_POINT('',(-26.5000000000008,-92.5000000000001,-2.5));
#491=CARTESIAN_POINT('Origin',(-23.0000000000008,-92.5000000000001,-2.50000000000002));
#492=CARTESIAN_POINT('Origin',(69.4999999999992,-92.5000000000001,277.573204716196));
#493=CARTESIAN_POINT('',(72.9999999999992,-92.5000000000001,2.5));
#494=CARTESIAN_POINT('Origin',(69.4999999999992,-92.5000000000001,2.5));
#495=CARTESIAN_POINT('',(65.9999999999992,-92.5000000000001,-2.5));
#496=CARTESIAN_POINT('Origin',(69.4999999999992,-92.5000000000001,-2.5));
#497=CARTESIAN_POINT('Origin',(96.5,49.9999999999999,0.999999999999996));
#498=CARTESIAN_POINT('',(95.,-100.,2.5));
#499=CARTESIAN_POINT('',(98.,-100.,-0.500000000000007));
#500=CARTESIAN_POINT('',(97.125,-100.,0.374999999999996));
#501=CARTESIAN_POINT('',(98.,99.9999999999999,-0.500000000000007));
#502=CARTESIAN_POINT('',(98.,49.9999999999999,-0.500000000000007));
#503=CARTESIAN_POINT('',(95.,99.9999999999999,2.5));
#504=CARTESIAN_POINT('',(48.1249999999999,99.9999999999999,49.375));
#505=CARTESIAN_POINT('',(95.,49.9999999999999,2.5));
#506=CARTESIAN_POINT('Origin',(1.77635683940018E-14,-1.06581410364015E-13,
2.5));
#507=CARTESIAN_POINT('',(-95.,99.9999999999999,2.5));
#508=CARTESIAN_POINT('',(-98.,99.9999999999999,2.5));
#509=CARTESIAN_POINT('',(-95.,-100.,2.5));
#510=CARTESIAN_POINT('',(-95.,-50.0000000000001,2.5));
#511=CARTESIAN_POINT('',(98.,-100.,2.5));
#512=CARTESIAN_POINT('Origin',(-98.,99.9999999999999,0.));
#513=CARTESIAN_POINT('',(98.,99.9999999999999,-2.5));
#514=CARTESIAN_POINT('',(98.,99.9999999999999,0.));
#515=CARTESIAN_POINT('',(-98.,99.9999999999999,-2.5));
#516=CARTESIAN_POINT('',(-98.,99.9999999999999,-2.5));
#517=CARTESIAN_POINT('',(-98.,99.9999999999999,-0.499999999999989));
#518=CARTESIAN_POINT('',(-98.,99.9999999999999,0.));
#519=CARTESIAN_POINT('',(-97.125,99.9999999999999,0.374999999999996));
#520=CARTESIAN_POINT('Origin',(-96.5,-50.0000000000001,0.999999999999996));
#521=CARTESIAN_POINT('',(-98.,-100.,-0.499999999999989));
#522=CARTESIAN_POINT('',(-98.,-50.0000000000001,-0.499999999999989));
#523=CARTESIAN_POINT('',(-48.1249999999999,-100.,49.375));
#524=CARTESIAN_POINT('Origin',(98.,-100.,0.));
#525=CARTESIAN_POINT('',(-98.,-100.,-2.5));
#526=CARTESIAN_POINT('',(-98.,-100.,0.));
#527=CARTESIAN_POINT('',(98.,-100.,-2.5));
#528=CARTESIAN_POINT('',(98.,-100.,-2.5));
#529=CARTESIAN_POINT('',(98.,-100.,0.));
#530=CARTESIAN_POINT('Origin',(-98.,-100.,0.));
#531=CARTESIAN_POINT('',(-98.,-100.,-2.5));
#532=CARTESIAN_POINT('Origin',(1.77635683940018E-14,-1.06581410364015E-13,
-2.5));
#533=CARTESIAN_POINT('',(98.,99.9999999999999,-2.5));
#534=CARTESIAN_POINT('Origin',(98.,99.9999999999999,0.));
#535=CARTESIAN_POINT('',(-3.85748413287577E-14,97.4999999999996,105.));
#536=UNCERTAINTY_MEASURE_WITH_UNIT(LENGTH_MEASURE(0.01),#542,
'DISTANCE_ACCURACY_VALUE',
'Maximum model space distance between geometric entities at asserted c
onnectivities');
#537=UNCERTAINTY_MEASURE_WITH_UNIT(LENGTH_MEASURE(0.01),#542,
'DISTANCE_ACCURACY_VALUE',
'Maximum model space distance between geometric entities at asserted c
onnectivities');
#538=UNCERTAINTY_MEASURE_WITH_UNIT(LENGTH_MEASURE(1.E-6),#542,
'DISTANCE_ACCURACY_VALUE',
'Maximum model space distance between geometric entities at asserted c
onnectivities');
#539=(
GEOMETRIC_REPRESENTATION_CONTEXT(3)
GLOBAL_UNCERTAINTY_ASSIGNED_CONTEXT((#536))
GLOBAL_UNIT_ASSIGNED_CONTEXT((#542,#545,#543))
REPRESENTATION_CONTEXT('','3D')
);
#540=(
GEOMETRIC_REPRESENTATION_CONTEXT(3)
GLOBAL_UNCERTAINTY_ASSIGNED_CONTEXT((#537))
GLOBAL_UNIT_ASSIGNED_CONTEXT((#542,#545,#543))
REPRESENTATION_CONTEXT('','3D')
);
#541=(
GEOMETRIC_REPRESENTATION_CONTEXT(3)
GLOBAL_UNCERTAINTY_ASSIGNED_CONTEXT((#538))
GLOBAL_UNIT_ASSIGNED_CONTEXT((#542,#545,#543))
REPRESENTATION_CONTEXT('','3D')
);
#542=(
LENGTH_UNIT()
NAMED_UNIT(*)
SI_UNIT(.MILLI.,.METRE.)
);
#543=(
NAMED_UNIT(*)
SI_UNIT($,.STERADIAN.)
SOLID_ANGLE_UNIT()
);
#544=DIMENSIONAL_EXPONENTS(0.,0.,0.,0.,0.,0.,0.);
#545=(
CONVERSION_BASED_UNIT('degree',#547)
NAMED_UNIT(#544)
PLANE_ANGLE_UNIT()
);
#546=(
NAMED_UNIT(*)
PLANE_ANGLE_UNIT()
SI_UNIT($,.RADIAN.)
);
#547=PLANE_ANGLE_MEASURE_WITH_UNIT(PLANE_ANGLE_MEASURE(0.01745329252),#546);
#548=SHAPE_DEFINITION_REPRESENTATION(#550,#553);
#549=SHAPE_DEFINITION_REPRESENTATION(#551,#554);
#550=PRODUCT_DEFINITION_SHAPE('',$,#556);
#551=PRODUCT_DEFINITION_SHAPE('',$,#557);
#552=PRODUCT_DEFINITION_SHAPE($,$,#14);
#553=SHAPE_REPRESENTATION('',(#332,#366),#539);
#554=SHAPE_REPRESENTATION('',(#333),#540);
#555=PRODUCT_DEFINITION_CONTEXT('part definition',#563,'design');
#556=PRODUCT_DEFINITION('LCDFRPWR','DENISE',#558,#555);
#557=PRODUCT_DEFINITION('PCB-SFPSYNC','plaque soutien',#559,#555);
#558=PRODUCT_DEFINITION_FORMATION('',$,#565);
#559=PRODUCT_DEFINITION_FORMATION('',$,#566);
#560=PRODUCT_RELATED_PRODUCT_CATEGORY('DENISE','DENISE',(#565));
#561=PRODUCT_RELATED_PRODUCT_CATEGORY('plaque soutien','plaque soutien',
(#566));
#562=APPLICATION_PROTOCOL_DEFINITION('international standard',
'automotive_design',2009,#563);
#563=APPLICATION_CONTEXT(
'Core Data for Automotive Mechanical Design Process');
#564=PRODUCT_CONTEXT('part definition',#563,'mechanical');
#565=PRODUCT('LCDFRPWR','DENISE',$,(#564));
#566=PRODUCT('PCB-SFPSYNC','plaque soutien',$,(#564));
#567=PRESENTATION_STYLE_ASSIGNMENT((#573));
#568=PRESENTATION_STYLE_ASSIGNMENT((#574));
#569=PRESENTATION_STYLE_ASSIGNMENT((#575));
#570=PRESENTATION_STYLE_ASSIGNMENT((#576));
#571=PRESENTATION_STYLE_ASSIGNMENT((#577));
#572=PRESENTATION_STYLE_ASSIGNMENT((#578));
#573=SURFACE_STYLE_USAGE(.BOTH.,#579);
#574=SURFACE_STYLE_USAGE(.BOTH.,#580);
#575=SURFACE_STYLE_USAGE(.BOTH.,#581);
#576=SURFACE_STYLE_USAGE(.BOTH.,#582);
#577=SURFACE_STYLE_USAGE(.BOTH.,#583);
#578=SURFACE_STYLE_USAGE(.BOTH.,#584);
#579=SURFACE_SIDE_STYLE('',(#585));
#580=SURFACE_SIDE_STYLE('',(#586));
#581=SURFACE_SIDE_STYLE('',(#587));
#582=SURFACE_SIDE_STYLE('',(#588));
#583=SURFACE_SIDE_STYLE('',(#589));
#584=SURFACE_SIDE_STYLE('',(#590));
#585=SURFACE_STYLE_FILL_AREA(#591);
#586=SURFACE_STYLE_FILL_AREA(#592);
#587=SURFACE_STYLE_FILL_AREA(#593);
#588=SURFACE_STYLE_FILL_AREA(#594);
#589=SURFACE_STYLE_FILL_AREA(#595);
#590=SURFACE_STYLE_FILL_AREA(#596);
#591=FILL_AREA_STYLE('',(#597));
#592=FILL_AREA_STYLE('',(#598));
#593=FILL_AREA_STYLE('',(#599));
#594=FILL_AREA_STYLE('',(#600));
#595=FILL_AREA_STYLE('',(#601));
#596=FILL_AREA_STYLE('',(#602));
#597=FILL_AREA_STYLE_COLOUR('',#603);
#598=FILL_AREA_STYLE_COLOUR('',#604);
#599=FILL_AREA_STYLE_COLOUR('',#605);
#600=FILL_AREA_STYLE_COLOUR('',#606);
#601=FILL_AREA_STYLE_COLOUR('',#607);
#602=FILL_AREA_STYLE_COLOUR('',#608);
#603=COLOUR_RGB('',1.,1.,0.658823529411765);
#604=COLOUR_RGB('',0.905882352941176,0.83921568627451,0.674509803921569);
#605=COLOUR_RGB('',1.,0.968627450980392,0.725490196078431);
#606=COLOUR_RGB('',0.956862745098039,0.956862745098039,0.956862745098039);
#607=COLOUR_RGB('',0.996078431372549,0.996078431372549,1.);
#608=COLOUR_RGB('',0.796078431372549,0.603921568627451,0.231372549019608);
ENDSEC;
END-ISO-10303-21;
