ISO-10303-21;
HEADER;
/* Generated by software containing ST-Developer
 * from STEP Tools, Inc. (www.steptools.com) 
 */

FILE_DESCRIPTION(
/* description */ (''),
/* implementation_level */ '2;1');

FILE_NAME(
/* name */ 
'C:/Users/Edwin/Desktop/Conception/Poulie/Poulie simple V2 v1.step',
/* time_stamp */ '2021-06-28T08:47:10+02:00',
/* author */ (''),
/* organization */ (''),
/* preprocessor_version */ 'ST-DEVELOPER v18.1',
/* originating_system */ 'Autodesk Translation Framework v10.9.0.1377',

/* authorisation */ '');

FILE_SCHEMA (('AUTOMOTIVE_DESIGN { 1 0 10303 214 3 1 1 }'));
ENDSEC;

DATA;
#10=MECHANICAL_DESIGN_GEOMETRIC_PRESENTATION_REPRESENTATION('',(#13),#385);
#11=SHAPE_REPRESENTATION_RELATIONSHIP('SRR','None',#392,#12);
#12=ADVANCED_BREP_SHAPE_REPRESENTATION('',(#14),#384);
#13=STYLED_ITEM('',(#401),#14);
#14=MANIFOLD_SOLID_BREP('Corps2',#195);
#15=FACE_BOUND('',#46,.T.);
#16=FACE_BOUND('',#55,.T.);
#17=PLANE('',#215);
#18=PLANE('',#238);
#19=TOROIDAL_SURFACE('',#212,14.6666666666665,0.583333333333333);
#20=TOROIDAL_SURFACE('',#217,13.5,3.);
#21=TOROIDAL_SURFACE('',#220,10.1169829496757,0.600000000000001);
#22=TOROIDAL_SURFACE('',#223,11.0545951846161,2.3333333333302);
#23=TOROIDAL_SURFACE('',#226,17.3919753086421,10.3919753086453);
#24=TOROIDAL_SURFACE('',#229,11.0545951846218,2.33333333333333);
#25=TOROIDAL_SURFACE('',#232,10.04850923672,0.749999999999583);
#26=TOROIDAL_SURFACE('',#235,13.4999999999993,3.);
#27=TOROIDAL_SURFACE('',#240,14.6666666666661,0.583333333333333);
#28=TOROIDAL_SURFACE('',#245,12.2499999999998,3.);
#29=FACE_OUTER_BOUND('',#43,.T.);
#30=FACE_OUTER_BOUND('',#44,.T.);
#31=FACE_OUTER_BOUND('',#45,.T.);
#32=FACE_OUTER_BOUND('',#47,.T.);
#33=FACE_OUTER_BOUND('',#48,.T.);
#34=FACE_OUTER_BOUND('',#49,.T.);
#35=FACE_OUTER_BOUND('',#50,.T.);
#36=FACE_OUTER_BOUND('',#51,.T.);
#37=FACE_OUTER_BOUND('',#52,.T.);
#38=FACE_OUTER_BOUND('',#53,.T.);
#39=FACE_OUTER_BOUND('',#54,.T.);
#40=FACE_OUTER_BOUND('',#56,.T.);
#41=FACE_OUTER_BOUND('',#57,.T.);
#42=FACE_OUTER_BOUND('',#58,.T.);
#43=EDGE_LOOP('',(#127,#128,#129,#130));
#44=EDGE_LOOP('',(#131,#132,#133,#134));
#45=EDGE_LOOP('',(#135));
#46=EDGE_LOOP('',(#136));
#47=EDGE_LOOP('',(#137,#138,#139,#140));
#48=EDGE_LOOP('',(#141,#142,#143,#144));
#49=EDGE_LOOP('',(#145,#146,#147,#148));
#50=EDGE_LOOP('',(#149,#150,#151,#152));
#51=EDGE_LOOP('',(#153,#154,#155,#156));
#52=EDGE_LOOP('',(#157,#158,#159,#160));
#53=EDGE_LOOP('',(#161,#162,#163,#164));
#54=EDGE_LOOP('',(#165));
#55=EDGE_LOOP('',(#166));
#56=EDGE_LOOP('',(#167,#168,#169,#170));
#57=EDGE_LOOP('',(#171,#172,#173,#174));
#58=EDGE_LOOP('',(#175,#176,#177,#178));
#59=LINE('',#332,#61);
#60=LINE('',#379,#62);
#61=VECTOR('',#253,13.2414807922354);
#62=VECTOR('',#322,13.2414807922351);
#63=CIRCLE('',#210,14.7713541002999);
#64=CIRCLE('',#211,11.7116074841708);
#65=CIRCLE('',#213,14.6666666587496);
#66=CIRCLE('',#214,0.583333333333333);
#67=CIRCLE('',#216,13.5);
#68=CIRCLE('',#218,3.);
#69=CIRCLE('',#219,10.6808191247299);
#70=CIRCLE('',#221,9.79242486834834);
#71=CIRCLE('',#222,0.600000000000001);
#72=CIRCLE('',#224,9.21964329884159);
#73=CIRCLE('',#225,2.3333333333302);
#74=CIRCLE('',#227,9.21964329884656);
#75=CIRCLE('',#228,10.3919753086453);
#76=CIRCLE('',#230,9.57194220876695);
#77=CIRCLE('',#231,2.33333333333333);
#78=CIRCLE('',#233,10.7388073893759);
#79=CIRCLE('',#234,0.749999999999583);
#80=CIRCLE('',#236,3.);
#81=CIRCLE('',#237,13.4999999999996);
#82=CIRCLE('',#239,14.6666659021289);
#83=CIRCLE('',#241,14.7713541002995);
#84=CIRCLE('',#242,0.583333333333333);
#85=CIRCLE('',#244,11.7116074841706);
#86=CIRCLE('',#246,3.);
#87=VERTEX_POINT('',#329);
#88=VERTEX_POINT('',#331);
#89=VERTEX_POINT('',#335);
#90=VERTEX_POINT('',#339);
#91=VERTEX_POINT('',#342);
#92=VERTEX_POINT('',#346);
#93=VERTEX_POINT('',#350);
#94=VERTEX_POINT('',#354);
#95=VERTEX_POINT('',#358);
#96=VERTEX_POINT('',#362);
#97=VERTEX_POINT('',#366);
#98=VERTEX_POINT('',#370);
#99=VERTEX_POINT('',#373);
#100=VERTEX_POINT('',#377);
#101=EDGE_CURVE('',#87,#87,#63,.T.);
#102=EDGE_CURVE('',#87,#88,#59,.T.);
#103=EDGE_CURVE('',#88,#88,#64,.T.);
#104=EDGE_CURVE('',#89,#89,#65,.T.);
#105=EDGE_CURVE('',#89,#87,#66,.T.);
#106=EDGE_CURVE('',#90,#90,#67,.T.);
#107=EDGE_CURVE('',#90,#91,#68,.T.);
#108=EDGE_CURVE('',#91,#91,#69,.T.);
#109=EDGE_CURVE('',#92,#92,#70,.T.);
#110=EDGE_CURVE('',#92,#91,#71,.T.);
#111=EDGE_CURVE('',#93,#93,#72,.T.);
#112=EDGE_CURVE('',#93,#92,#73,.T.);
#113=EDGE_CURVE('',#94,#94,#74,.T.);
#114=EDGE_CURVE('',#94,#93,#75,.T.);
#115=EDGE_CURVE('',#95,#95,#76,.T.);
#116=EDGE_CURVE('',#95,#94,#77,.T.);
#117=EDGE_CURVE('',#96,#96,#78,.T.);
#118=EDGE_CURVE('',#96,#95,#79,.T.);
#119=EDGE_CURVE('',#96,#97,#80,.T.);
#120=EDGE_CURVE('',#97,#97,#81,.T.);
#121=EDGE_CURVE('',#98,#98,#82,.T.);
#122=EDGE_CURVE('',#99,#99,#83,.T.);
#123=EDGE_CURVE('',#99,#98,#84,.T.);
#124=EDGE_CURVE('',#100,#100,#85,.T.);
#125=EDGE_CURVE('',#100,#99,#60,.T.);
#126=EDGE_CURVE('',#100,#88,#86,.T.);
#127=ORIENTED_EDGE('',*,*,#101,.F.);
#128=ORIENTED_EDGE('',*,*,#102,.T.);
#129=ORIENTED_EDGE('',*,*,#103,.T.);
#130=ORIENTED_EDGE('',*,*,#102,.F.);
#131=ORIENTED_EDGE('',*,*,#104,.F.);
#132=ORIENTED_EDGE('',*,*,#105,.T.);
#133=ORIENTED_EDGE('',*,*,#101,.T.);
#134=ORIENTED_EDGE('',*,*,#105,.F.);
#135=ORIENTED_EDGE('',*,*,#104,.T.);
#136=ORIENTED_EDGE('',*,*,#106,.F.);
#137=ORIENTED_EDGE('',*,*,#106,.T.);
#138=ORIENTED_EDGE('',*,*,#107,.T.);
#139=ORIENTED_EDGE('',*,*,#108,.F.);
#140=ORIENTED_EDGE('',*,*,#107,.F.);
#141=ORIENTED_EDGE('',*,*,#109,.F.);
#142=ORIENTED_EDGE('',*,*,#110,.T.);
#143=ORIENTED_EDGE('',*,*,#108,.T.);
#144=ORIENTED_EDGE('',*,*,#110,.F.);
#145=ORIENTED_EDGE('',*,*,#111,.F.);
#146=ORIENTED_EDGE('',*,*,#112,.T.);
#147=ORIENTED_EDGE('',*,*,#109,.T.);
#148=ORIENTED_EDGE('',*,*,#112,.F.);
#149=ORIENTED_EDGE('',*,*,#113,.F.);
#150=ORIENTED_EDGE('',*,*,#114,.T.);
#151=ORIENTED_EDGE('',*,*,#111,.T.);
#152=ORIENTED_EDGE('',*,*,#114,.F.);
#153=ORIENTED_EDGE('',*,*,#115,.F.);
#154=ORIENTED_EDGE('',*,*,#116,.T.);
#155=ORIENTED_EDGE('',*,*,#113,.T.);
#156=ORIENTED_EDGE('',*,*,#116,.F.);
#157=ORIENTED_EDGE('',*,*,#117,.F.);
#158=ORIENTED_EDGE('',*,*,#118,.T.);
#159=ORIENTED_EDGE('',*,*,#115,.T.);
#160=ORIENTED_EDGE('',*,*,#118,.F.);
#161=ORIENTED_EDGE('',*,*,#117,.T.);
#162=ORIENTED_EDGE('',*,*,#119,.T.);
#163=ORIENTED_EDGE('',*,*,#120,.F.);
#164=ORIENTED_EDGE('',*,*,#119,.F.);
#165=ORIENTED_EDGE('',*,*,#121,.F.);
#166=ORIENTED_EDGE('',*,*,#120,.T.);
#167=ORIENTED_EDGE('',*,*,#122,.F.);
#168=ORIENTED_EDGE('',*,*,#123,.T.);
#169=ORIENTED_EDGE('',*,*,#121,.T.);
#170=ORIENTED_EDGE('',*,*,#123,.F.);
#171=ORIENTED_EDGE('',*,*,#124,.F.);
#172=ORIENTED_EDGE('',*,*,#125,.T.);
#173=ORIENTED_EDGE('',*,*,#122,.T.);
#174=ORIENTED_EDGE('',*,*,#125,.F.);
#175=ORIENTED_EDGE('',*,*,#124,.T.);
#176=ORIENTED_EDGE('',*,*,#126,.T.);
#177=ORIENTED_EDGE('',*,*,#103,.F.);
#178=ORIENTED_EDGE('',*,*,#126,.F.);
#179=CONICAL_SURFACE('',#209,13.2414807922354,1.3903545736964);
#180=CONICAL_SURFACE('',#243,13.2414807922351,1.39035457369631);
#181=ADVANCED_FACE('',(#29),#179,.T.);
#182=ADVANCED_FACE('',(#30),#19,.T.);
#183=ADVANCED_FACE('',(#31,#15),#17,.T.);
#184=ADVANCED_FACE('',(#32),#20,.F.);
#185=ADVANCED_FACE('',(#33),#21,.T.);
#186=ADVANCED_FACE('',(#34),#22,.T.);
#187=ADVANCED_FACE('',(#35),#23,.T.);
#188=ADVANCED_FACE('',(#36),#24,.T.);
#189=ADVANCED_FACE('',(#37),#25,.T.);
#190=ADVANCED_FACE('',(#38),#26,.F.);
#191=ADVANCED_FACE('',(#39,#16),#18,.T.);
#192=ADVANCED_FACE('',(#40),#27,.T.);
#193=ADVANCED_FACE('',(#41),#180,.T.);
#194=ADVANCED_FACE('',(#42),#28,.F.);
#195=CLOSED_SHELL('',(#181,#182,#183,#184,#185,#186,#187,#188,#189,#190,
#191,#192,#193,#194));
#196=DERIVED_UNIT_ELEMENT(#198,1.);
#197=DERIVED_UNIT_ELEMENT(#387,-3.);
#198=(
MASS_UNIT()
NAMED_UNIT(*)
SI_UNIT(.KILO.,.GRAM.)
);
#199=DERIVED_UNIT((#196,#197));
#200=MEASURE_REPRESENTATION_ITEM('density measure',
POSITIVE_RATIO_MEASURE(7850.),#199);
#201=PROPERTY_DEFINITION_REPRESENTATION(#206,#203);
#202=PROPERTY_DEFINITION_REPRESENTATION(#207,#204);
#203=REPRESENTATION('material name',(#205),#384);
#204=REPRESENTATION('density',(#200),#384);
#205=DESCRIPTIVE_REPRESENTATION_ITEM('Acier','Acier');
#206=PROPERTY_DEFINITION('material property','material name',#394);
#207=PROPERTY_DEFINITION('material property','density of part',#394);
#208=AXIS2_PLACEMENT_3D('placement',#327,#247,#248);
#209=AXIS2_PLACEMENT_3D('',#328,#249,#250);
#210=AXIS2_PLACEMENT_3D('',#330,#251,#252);
#211=AXIS2_PLACEMENT_3D('',#333,#254,#255);
#212=AXIS2_PLACEMENT_3D('',#334,#256,#257);
#213=AXIS2_PLACEMENT_3D('',#336,#258,#259);
#214=AXIS2_PLACEMENT_3D('',#337,#260,#261);
#215=AXIS2_PLACEMENT_3D('',#338,#262,#263);
#216=AXIS2_PLACEMENT_3D('',#340,#264,#265);
#217=AXIS2_PLACEMENT_3D('',#341,#266,#267);
#218=AXIS2_PLACEMENT_3D('',#343,#268,#269);
#219=AXIS2_PLACEMENT_3D('',#344,#270,#271);
#220=AXIS2_PLACEMENT_3D('',#345,#272,#273);
#221=AXIS2_PLACEMENT_3D('',#347,#274,#275);
#222=AXIS2_PLACEMENT_3D('',#348,#276,#277);
#223=AXIS2_PLACEMENT_3D('',#349,#278,#279);
#224=AXIS2_PLACEMENT_3D('',#351,#280,#281);
#225=AXIS2_PLACEMENT_3D('',#352,#282,#283);
#226=AXIS2_PLACEMENT_3D('',#353,#284,#285);
#227=AXIS2_PLACEMENT_3D('',#355,#286,#287);
#228=AXIS2_PLACEMENT_3D('',#356,#288,#289);
#229=AXIS2_PLACEMENT_3D('',#357,#290,#291);
#230=AXIS2_PLACEMENT_3D('',#359,#292,#293);
#231=AXIS2_PLACEMENT_3D('',#360,#294,#295);
#232=AXIS2_PLACEMENT_3D('',#361,#296,#297);
#233=AXIS2_PLACEMENT_3D('',#363,#298,#299);
#234=AXIS2_PLACEMENT_3D('',#364,#300,#301);
#235=AXIS2_PLACEMENT_3D('',#365,#302,#303);
#236=AXIS2_PLACEMENT_3D('',#367,#304,#305);
#237=AXIS2_PLACEMENT_3D('',#368,#306,#307);
#238=AXIS2_PLACEMENT_3D('',#369,#308,#309);
#239=AXIS2_PLACEMENT_3D('',#371,#310,#311);
#240=AXIS2_PLACEMENT_3D('',#372,#312,#313);
#241=AXIS2_PLACEMENT_3D('',#374,#314,#315);
#242=AXIS2_PLACEMENT_3D('',#375,#316,#317);
#243=AXIS2_PLACEMENT_3D('',#376,#318,#319);
#244=AXIS2_PLACEMENT_3D('',#378,#320,#321);
#245=AXIS2_PLACEMENT_3D('',#380,#323,#324);
#246=AXIS2_PLACEMENT_3D('',#381,#325,#326);
#247=DIRECTION('axis',(0.,0.,1.));
#248=DIRECTION('refdir',(1.,0.,0.));
#249=DIRECTION('center_axis',(0.,1.,0.));
#250=DIRECTION('ref_axis',(0.,0.,1.));
#251=DIRECTION('center_axis',(0.,1.,0.));
#252=DIRECTION('ref_axis',(1.,0.,0.));
#253=DIRECTION('',(1.20476405819494E-16,-0.17946417194298,0.983764509925429));
#254=DIRECTION('center_axis',(0.,1.,0.));
#255=DIRECTION('ref_axis',(1.,0.,0.));
#256=DIRECTION('center_axis',(0.,1.,0.));
#257=DIRECTION('ref_axis',(0.,0.,1.));
#258=DIRECTION('center_axis',(0.,1.,0.));
#259=DIRECTION('ref_axis',(1.,0.,0.));
#260=DIRECTION('center_axis',(-1.,0.,1.22464679914735E-16));
#261=DIRECTION('ref_axis',(-1.22464679914735E-16,0.,-1.));
#262=DIRECTION('center_axis',(0.,1.,0.));
#263=DIRECTION('ref_axis',(0.,0.,1.));
#264=DIRECTION('center_axis',(0.,1.,0.));
#265=DIRECTION('ref_axis',(1.,0.,0.));
#266=DIRECTION('center_axis',(0.,1.,0.));
#267=DIRECTION('ref_axis',(0.,0.,1.));
#268=DIRECTION('center_axis',(-1.,0.,1.22464679914735E-16));
#269=DIRECTION('ref_axis',(-1.22464679914735E-16,0.,-1.));
#270=DIRECTION('center_axis',(0.,1.,0.));
#271=DIRECTION('ref_axis',(1.,0.,0.));
#272=DIRECTION('center_axis',(0.,1.,0.));
#273=DIRECTION('ref_axis',(0.,0.,1.));
#274=DIRECTION('center_axis',(0.,1.,0.));
#275=DIRECTION('ref_axis',(1.,0.,0.));
#276=DIRECTION('center_axis',(-1.,0.,1.22464679914735E-16));
#277=DIRECTION('ref_axis',(-1.22464679914735E-16,0.,-1.));
#278=DIRECTION('center_axis',(0.,1.,0.));
#279=DIRECTION('ref_axis',(0.,0.,1.));
#280=DIRECTION('center_axis',(0.,1.,0.));
#281=DIRECTION('ref_axis',(1.,0.,0.));
#282=DIRECTION('center_axis',(-1.,0.,1.22464679914735E-16));
#283=DIRECTION('ref_axis',(-1.22464679914735E-16,0.,-1.));
#284=DIRECTION('center_axis',(0.,1.,0.));
#285=DIRECTION('ref_axis',(0.,0.,1.));
#286=DIRECTION('center_axis',(0.,1.,0.));
#287=DIRECTION('ref_axis',(1.,0.,0.));
#288=DIRECTION('center_axis',(-1.,0.,1.22464679914735E-16));
#289=DIRECTION('ref_axis',(-1.22464679914735E-16,0.,-1.));
#290=DIRECTION('center_axis',(0.,1.,0.));
#291=DIRECTION('ref_axis',(0.,0.,1.));
#292=DIRECTION('center_axis',(0.,1.,0.));
#293=DIRECTION('ref_axis',(1.,0.,0.));
#294=DIRECTION('center_axis',(-1.,0.,1.22464679914735E-16));
#295=DIRECTION('ref_axis',(-1.22464679914735E-16,0.,-1.));
#296=DIRECTION('center_axis',(0.,1.,0.));
#297=DIRECTION('ref_axis',(0.,0.,1.));
#298=DIRECTION('center_axis',(0.,1.,0.));
#299=DIRECTION('ref_axis',(1.,0.,0.));
#300=DIRECTION('center_axis',(-1.,0.,1.22464679914735E-16));
#301=DIRECTION('ref_axis',(-1.22464679914735E-16,0.,-1.));
#302=DIRECTION('center_axis',(0.,1.,0.));
#303=DIRECTION('ref_axis',(0.,0.,1.));
#304=DIRECTION('center_axis',(-1.,0.,1.22464679914735E-16));
#305=DIRECTION('ref_axis',(-1.22464679914735E-16,0.,-1.));
#306=DIRECTION('center_axis',(0.,1.,0.));
#307=DIRECTION('ref_axis',(1.,0.,0.));
#308=DIRECTION('center_axis',(0.,-1.,0.));
#309=DIRECTION('ref_axis',(0.,0.,-1.));
#310=DIRECTION('center_axis',(0.,1.,0.));
#311=DIRECTION('ref_axis',(1.,0.,0.));
#312=DIRECTION('center_axis',(0.,1.,0.));
#313=DIRECTION('ref_axis',(0.,0.,1.));
#314=DIRECTION('center_axis',(0.,1.,0.));
#315=DIRECTION('ref_axis',(1.,0.,0.));
#316=DIRECTION('center_axis',(-1.,0.,1.22464679914735E-16));
#317=DIRECTION('ref_axis',(-1.22464679914735E-16,0.,-1.));
#318=DIRECTION('center_axis',(0.,-1.,0.));
#319=DIRECTION('ref_axis',(0.,0.,1.));
#320=DIRECTION('center_axis',(0.,1.,0.));
#321=DIRECTION('ref_axis',(1.,0.,0.));
#322=DIRECTION('',(-1.20476405819492E-16,-0.179464171943068,-0.983764509925413));
#323=DIRECTION('center_axis',(0.,1.,0.));
#324=DIRECTION('ref_axis',(0.,0.,1.));
#325=DIRECTION('center_axis',(-1.,0.,1.22464679914735E-16));
#326=DIRECTION('ref_axis',(-1.22464679914735E-16,0.,-1.));
#327=CARTESIAN_POINT('',(0.,0.,0.));
#328=CARTESIAN_POINT('Origin',(0.,3.23038211615988,-14.));
#329=CARTESIAN_POINT('',(-1.80896915180044E-15,3.5094707025435,-28.7713541002999));
#330=CARTESIAN_POINT('Origin',(0.,3.5094707025435,-14.));
#331=CARTESIAN_POINT('',(-1.434258261836E-15,2.95129352977626,-25.7116074841708));
#332=CARTESIAN_POINT('',(-1.62161370681822E-15,3.23038211615988,-27.2414807922354));
#333=CARTESIAN_POINT('Origin',(0.,2.95129352977626,-14.));
#334=CARTESIAN_POINT('Origin',(0.,4.08333333333333,-14.));
#335=CARTESIAN_POINT('',(-1.79614863777989E-15,4.66666666666667,-28.6666666587496));
#336=CARTESIAN_POINT('Origin',(0.,4.66666666666667,-14.));
#337=CARTESIAN_POINT('Origin',(-1.79614863874943E-15,4.08333333333333,-28.6666666666665));
#338=CARTESIAN_POINT('Origin',(0.,4.66666666666667,-0.499999999999999));
#339=CARTESIAN_POINT('',(-1.65327317884893E-15,4.66666666666667,-27.5));
#340=CARTESIAN_POINT('Origin',(0.,4.66666666666667,-14.));
#341=CARTESIAN_POINT('Origin',(0.,7.66666666666667,-14.));
#342=CARTESIAN_POINT('',(-1.30802309533723E-15,6.64088930655812,-24.6808191247299));
#343=CARTESIAN_POINT('Origin',(-1.65327317884893E-15,7.66666666666667,-27.5));
#344=CARTESIAN_POINT('Origin',(0.,6.64088930655812,-14.));
#345=CARTESIAN_POINT('Origin',(0.,6.43573383453697,-14.));
#346=CARTESIAN_POINT('',(-1.19922617709137E-15,6.94037435197996,-23.7924248683483));
#347=CARTESIAN_POINT('Origin',(0.,6.94037435197996,-14.));
#348=CARTESIAN_POINT('Origin',(-1.23897307863487E-15,6.43573383453697,-24.1169829496757));
#349=CARTESIAN_POINT('Origin',(0.,4.97788345081511,-14.));
#350=CARTESIAN_POINT('',(-1.12908066552067E-15,6.41920091110016,-23.2196432988416));
#351=CARTESIAN_POINT('Origin',(0.,6.41920091110016,-14.));
#352=CARTESIAN_POINT('Origin',(-1.35379746087098E-15,4.97788345081511,-25.0545951846161));
#353=CARTESIAN_POINT('Origin',(0.,7.13207271019201E-12,-14.));
#354=CARTESIAN_POINT('',(-1.12908066552128E-15,-6.41920091110038,-23.2196432988466));
#355=CARTESIAN_POINT('Origin',(0.,-6.41920091110038,-14.));
#356=CARTESIAN_POINT('Origin',(-2.12990268925784E-15,7.13207271019201E-12,
-31.3919753086421));
#357=CARTESIAN_POINT('Origin',(0.,-4.97788345081129,-14.));
#358=CARTESIAN_POINT('',(-1.17222483875899E-15,-6.77960057556698,-23.571942208767));
#359=CARTESIAN_POINT('Origin',(0.,-6.77960057556698,-14.));
#360=CARTESIAN_POINT('Origin',(-1.35379746087169E-15,-4.97788345081129,
-25.0545951846218));
#361=CARTESIAN_POINT('Origin',(0.,-6.20047721403905,-14.));
#362=CARTESIAN_POINT('',(-1.31512460960591E-15,-6.49371510456343,-24.7388073893759));
#363=CARTESIAN_POINT('Origin',(0.,-6.49371510456343,-14.));
#364=CARTESIAN_POINT('Origin',(-1.23058746729517E-15,-6.20047721403905,
-24.04850923672));
#365=CARTESIAN_POINT('Origin',(0.,-7.66666666666588,-14.));
#366=CARTESIAN_POINT('',(-1.65327317884888E-15,-4.66666666666587,-27.4999999999996));
#367=CARTESIAN_POINT('Origin',(-1.65327317884884E-15,-7.66666666666588,
-27.4999999999993));
#368=CARTESIAN_POINT('Origin',(0.,-4.66666666666587,-14.));
#369=CARTESIAN_POINT('Origin',(0.,-4.66666666666598,0.66666590212892));
#370=CARTESIAN_POINT('',(-1.79614854512058E-15,-4.66666666666548,-28.6666659021289));
#371=CARTESIAN_POINT('Origin',(0.,-4.66666666666548,-14.));
#372=CARTESIAN_POINT('Origin',(0.,-4.08333333333264,-14.));
#373=CARTESIAN_POINT('',(-1.8089691518004E-15,-3.50947070254282,-28.7713541002995));
#374=CARTESIAN_POINT('Origin',(0.,-3.50947070254282,-14.));
#375=CARTESIAN_POINT('Origin',(-1.79614863874938E-15,-4.08333333333264,
-28.6666666666661));
#376=CARTESIAN_POINT('Origin',(0.,-3.23038211615906,-14.));
#377=CARTESIAN_POINT('',(-1.43425826183597E-15,-2.9512935297753,-25.7116074841706));
#378=CARTESIAN_POINT('Origin',(0.,-2.9512935297753,-14.));
#379=CARTESIAN_POINT('',(-1.62161370681818E-15,-3.23038211615906,-27.2414807922351));
#380=CARTESIAN_POINT('Origin',(0.,-3.42087469462626E-14,-14.));
#381=CARTESIAN_POINT('Origin',(-1.50019232895548E-15,-3.42087469462626E-14,
-26.2499999999998));
#382=UNCERTAINTY_MEASURE_WITH_UNIT(LENGTH_MEASURE(0.01),#386,
'DISTANCE_ACCURACY_VALUE',
'Maximum model space distance between geometric entities at asserted c
onnectivities');
#383=UNCERTAINTY_MEASURE_WITH_UNIT(LENGTH_MEASURE(0.01),#386,
'DISTANCE_ACCURACY_VALUE',
'Maximum model space distance between geometric entities at asserted c
onnectivities');
#384=(
GEOMETRIC_REPRESENTATION_CONTEXT(3)
GLOBAL_UNCERTAINTY_ASSIGNED_CONTEXT((#382))
GLOBAL_UNIT_ASSIGNED_CONTEXT((#386,#388,#389))
REPRESENTATION_CONTEXT('','3D')
);
#385=(
GEOMETRIC_REPRESENTATION_CONTEXT(3)
GLOBAL_UNCERTAINTY_ASSIGNED_CONTEXT((#383))
GLOBAL_UNIT_ASSIGNED_CONTEXT((#386,#388,#389))
REPRESENTATION_CONTEXT('','3D')
);
#386=(
LENGTH_UNIT()
NAMED_UNIT(*)
SI_UNIT(.MILLI.,.METRE.)
);
#387=(
LENGTH_UNIT()
NAMED_UNIT(*)
SI_UNIT($,.METRE.)
);
#388=(
NAMED_UNIT(*)
PLANE_ANGLE_UNIT()
SI_UNIT($,.RADIAN.)
);
#389=(
NAMED_UNIT(*)
SI_UNIT($,.STERADIAN.)
SOLID_ANGLE_UNIT()
);
#390=SHAPE_DEFINITION_REPRESENTATION(#391,#392);
#391=PRODUCT_DEFINITION_SHAPE('',$,#394);
#392=SHAPE_REPRESENTATION('',(#208),#384);
#393=PRODUCT_DEFINITION_CONTEXT('part definition',#398,'design');
#394=PRODUCT_DEFINITION('Poulie simple V2','Poulie simple V2 v1',#395,#393);
#395=PRODUCT_DEFINITION_FORMATION('',$,#400);
#396=PRODUCT_RELATED_PRODUCT_CATEGORY('Poulie simple V2 v1',
'Poulie simple V2 v1',(#400));
#397=APPLICATION_PROTOCOL_DEFINITION('international standard',
'automotive_design',2009,#398);
#398=APPLICATION_CONTEXT(
'Core Data for Automotive Mechanical Design Process');
#399=PRODUCT_CONTEXT('part definition',#398,'mechanical');
#400=PRODUCT('Poulie simple V2','Poulie simple V2 v1',$,(#399));
#401=PRESENTATION_STYLE_ASSIGNMENT((#402));
#402=SURFACE_STYLE_USAGE(.BOTH.,#403);
#403=SURFACE_SIDE_STYLE('',(#404));
#404=SURFACE_STYLE_FILL_AREA(#405);
#405=FILL_AREA_STYLE('Acier - Satin\X\E9',(#406));
#406=FILL_AREA_STYLE_COLOUR('Acier - Satin\X\E9',#407);
#407=COLOUR_RGB('Acier - Satin\X\E9',0.627450980392157,0.627450980392157,
0.627450980392157);
ENDSEC;
END-ISO-10303-21;
