ISO-10303-21;
HEADER;
FILE_DESCRIPTION (( 'STEP AP214' ),
    '1' );
FILE_NAME ('15.5-8.5-17.STEP',
    '2021-06-01T07:40:23',
    ( '' ),
    ( '' ),
    'SwSTEP 2.0',
    'SolidWorks 2017',
    '' );
FILE_SCHEMA (( 'AUTOMOTIVE_DESIGN' ));
ENDSEC;

DATA;
#1 = DIRECTION ( 'NONE',  ( -0.0000000000000000000, -0.0000000000000000000, -1.000000000000000000 ) ) ;
#2 = CARTESIAN_POINT ( 'NONE',  ( 0.0000000000000000000, 0.0000000000000000000, 2.000000000000000000 ) ) ;
#3 = DIRECTION ( 'NONE',  ( 0.0000000000000000000, 0.0000000000000000000, 1.000000000000000000 ) ) ;
#4 = CYLINDRICAL_SURFACE ( 'NONE', #160, 7.750000000000000900 ) ;
#5 = DIRECTION ( 'NONE',  ( 1.000000000000000000, 0.0000000000000000000, 0.0000000000000000000 ) ) ;
#6 = DIRECTION ( 'NONE',  ( 1.000000000000000000, 0.0000000000000000000, 0.0000000000000000000 ) ) ;
#7 = ORIENTED_EDGE ( 'NONE', *, *, #106, .T. ) ;
#8 = ORIENTED_EDGE ( 'NONE', *, *, #168, .F. ) ;
#9 = ORIENTED_EDGE ( 'NONE', *, *, #216, .T. ) ;
#10 = DIRECTION ( 'NONE',  ( 0.0000000000000000000, 0.0000000000000000000, 1.000000000000000000 ) ) ;
#11 = ORIENTED_EDGE ( 'NONE', *, *, #216, .F. ) ;
#12 = CARTESIAN_POINT ( 'NONE',  ( 4.250000000000000000, 5.204748896376250700E-016, 2.000000000000000000 ) ) ;
#13 = EDGE_CURVE ( 'NONE', #91, #126, #101, .T. ) ;
#14 = DIRECTION ( 'NONE',  ( 1.000000000000000000, 0.0000000000000000000, -0.0000000000000000000 ) ) ;
#15 = CARTESIAN_POINT ( 'NONE',  ( 0.0000000000000000000, 0.0000000000000000000, 2.000000000000000000 ) ) ;
#16 = ORIENTED_EDGE ( 'NONE', *, *, #13, .F. ) ;
#17 = AXIS2_PLACEMENT_3D ( 'NONE', #15, #1, #137 ) ;
#18 = CARTESIAN_POINT ( 'NONE',  ( 0.0000000000000000000, 0.0000000000000000000, 19.00000000000000400 ) ) ;
#19 = CARTESIAN_POINT ( 'NONE',  ( -4.250000000000000000, 0.0000000000000000000, 19.00000000000000400 ) ) ;
#20 = DIRECTION ( 'NONE',  ( 0.0000000000000000000, 0.0000000000000000000, 1.000000000000000000 ) ) ;
#21 = APPLICATION_PROTOCOL_DEFINITION ( 'draft international standard', 'automotive_design', 1998, #38 ) ;
#22 = ORIENTED_EDGE ( 'NONE', *, *, #110, .F. ) ;
#23 = ORIENTED_EDGE ( 'NONE', *, *, #13, .T. ) ;
#24 = AXIS2_PLACEMENT_3D ( 'NONE', #32, #10, #107 ) ;
#25 = UNCERTAINTY_MEASURE_WITH_UNIT (LENGTH_MEASURE( 1.000000000000000100E-005 ), #90, 'distance_accuracy_value', 'NONE');
#26 = CYLINDRICAL_SURFACE ( 'NONE', #17, 7.750000000000000900 ) ;
#27 = DIRECTION ( 'NONE',  ( -0.0000000000000000000, -0.0000000000000000000, -1.000000000000000000 ) ) ;
#28 = AXIS2_PLACEMENT_3D ( 'NONE', #45, #102, #122 ) ;
#29 = CARTESIAN_POINT ( 'NONE',  ( 0.0000000000000000000, 0.0000000000000000000, 0.0000000000000000000 ) ) ;
#30 = DIRECTION ( 'NONE',  ( -1.000000000000000000, 0.0000000000000000000, 0.0000000000000000000 ) ) ;
#31 = FACE_BOUND ( 'NONE', #36, .T. ) ;
#32 = CARTESIAN_POINT ( 'NONE',  ( 0.0000000000000000000, 0.0000000000000000000, 2.000000000000000000 ) ) ;
#33 = DIRECTION ( 'NONE',  ( -0.0000000000000000000, -0.0000000000000000000, -1.000000000000000000 ) ) ;
#34 = FACE_OUTER_BOUND ( 'NONE', #61, .T. ) ;
#35 = CARTESIAN_POINT ( 'NONE',  ( -7.750000000000000900, 0.0000000000000000000, 2.000000000000000000 ) ) ;
#36 = EDGE_LOOP ( 'NONE', ( #147, #16 ) ) ;
#37 = CARTESIAN_POINT ( 'NONE',  ( 0.0000000000000000000, 0.0000000000000000000, 2.000000000000000000 ) ) ;
#38 = APPLICATION_CONTEXT ( 'automotive_design' ) ;
#39 = AXIS2_PLACEMENT_3D ( 'NONE', #18, #53, #155 ) ;
#40 = LINE ( 'NONE', #19, #79 ) ;
#41 = PRODUCT_CONTEXT ( 'NONE', #38, 'mechanical' ) ;
#42 = PRESENTATION_LAYER_ASSIGNMENT (  '', '', ( #183 ) ) ;
#43 = VECTOR ( 'NONE', #33, 1000.000000000000000 ) ;
#44 = CARTESIAN_POINT ( 'NONE',  ( 4.250000000000000000, 5.204748896376250700E-016, 19.00000000000000400 ) ) ;
#45 = CARTESIAN_POINT ( 'NONE',  ( 0.0000000000000000000, 0.0000000000000000000, 19.00000000000000400 ) ) ;
#46 = EDGE_CURVE ( 'NONE', #66, #104, #109, .T. ) ;
#47 = AXIS2_PLACEMENT_3D ( 'NONE', #70, #80, #82 ) ;
#48 = FILL_AREA_STYLE_COLOUR ( '', #118 ) ;
#49 = VERTEX_POINT ( 'NONE', #189 ) ;
#50 = PLANE ( 'NONE',  #28 ) ;
#51 = SURFACE_STYLE_FILL_AREA ( #158 ) ;
#52 =( NAMED_UNIT ( * ) PLANE_ANGLE_UNIT ( ) SI_UNIT ( $, .RADIAN. ) );
#53 = DIRECTION ( 'NONE',  ( -0.0000000000000000000, -0.0000000000000000000, -1.000000000000000000 ) ) ;
#54 = FILL_AREA_STYLE_COLOUR ( '', #145 ) ;
#55 = FACE_OUTER_BOUND ( 'NONE', #140, .T. ) ;
#56 = EDGE_CURVE ( 'NONE', #191, #135, #59, .T. ) ;
#57 = EDGE_LOOP ( 'NONE', ( #134, #22 ) ) ;
#58 = ADVANCED_FACE ( 'NONE', ( #152 ), #4, .T. ) ;
#59 = CIRCLE ( 'NONE', #116, 7.750000000000000900 ) ;
#60 = UNCERTAINTY_MEASURE_WITH_UNIT (LENGTH_MEASURE( 1.000000000000000100E-005 ), #174, 'distance_accuracy_value', 'NONE');
#61 = EDGE_LOOP ( 'NONE', ( #11, #67, #7, #179 ) ) ;
#62 = PLANE ( 'NONE',  #133 ) ;
#63 = PLANE ( 'NONE',  #149 ) ;
#64 = FILL_AREA_STYLE ('',( #48 ) ) ;
#65 = PRODUCT_RELATED_PRODUCT_CATEGORY ( 'part', '', ( #105 ) ) ;
#66 = VERTEX_POINT ( 'NONE', #148 ) ;
#67 = ORIENTED_EDGE ( 'NONE', *, *, #56, .F. ) ;
#68 = PRESENTATION_STYLE_ASSIGNMENT (( #85 ) ) ;
#69 = CARTESIAN_POINT ( 'NONE',  ( 0.0000000000000000000, 0.0000000000000000000, 0.0000000000000000000 ) ) ;
#70 = CARTESIAN_POINT ( 'NONE',  ( 0.0000000000000000000, 0.0000000000000000000, 2.000000000000000000 ) ) ;
#71 =( NAMED_UNIT ( * ) SI_UNIT ( $, .STERADIAN. ) SOLID_ANGLE_UNIT ( ) );
#72 = DIRECTION ( 'NONE',  ( 1.000000000000000000, 0.0000000000000000000, 0.0000000000000000000 ) ) ;
#73 = ORIENTED_EDGE ( 'NONE', *, *, #94, .F. ) ;
#74 = SURFACE_SIDE_STYLE ('',( #51 ) ) ;
#75 = CIRCLE ( 'NONE', #125, 4.250000000000000000 ) ;
#76 = AXIS2_PLACEMENT_3D ( 'NONE', #136, #173, #30 ) ;
#77 = ORIENTED_EDGE ( 'NONE', *, *, #84, .T. ) ;
#78 = CLOSED_SHELL ( 'NONE', ( #161, #58, #181, #93, #214, #92, #200 ) ) ;
#79 = VECTOR ( 'NONE', #27, 1000.000000000000000 ) ;
#80 = DIRECTION ( 'NONE',  ( 0.0000000000000000000, 0.0000000000000000000, 1.000000000000000000 ) ) ;
#81 = ORIENTED_EDGE ( 'NONE', *, *, #168, .T. ) ;
#82 = DIRECTION ( 'NONE',  ( 1.000000000000000000, 0.0000000000000000000, 0.0000000000000000000 ) ) ;
#83 = SURFACE_SIDE_STYLE ('',( #115 ) ) ;
#84 = EDGE_CURVE ( 'NONE', #49, #97, #164, .T. ) ;
#85 = SURFACE_STYLE_USAGE ( .BOTH. , #83 ) ;
#86 = CIRCLE ( 'NONE', #175, 7.750000000000000900 ) ;
#87 =( LENGTH_UNIT ( ) NAMED_UNIT ( * ) SI_UNIT ( .MILLI., .METRE. ) );
#88 = ORIENTED_EDGE ( 'NONE', *, *, #106, .F. ) ;
#89 = DIRECTION ( 'NONE',  ( 1.000000000000000000, 0.0000000000000000000, 0.0000000000000000000 ) ) ;
#90 =( LENGTH_UNIT ( ) NAMED_UNIT ( * ) SI_UNIT ( .MILLI., .METRE. ) );
#91 = VERTEX_POINT ( 'NONE', #12 ) ;
#92 = ADVANCED_FACE ( 'NONE', ( #211 ), #95, .T. ) ;
#93 = ADVANCED_FACE ( 'NONE', ( #31, #178 ), #62, .T. ) ;
#94 = EDGE_CURVE ( 'NONE', #97, #91, #127, .T. ) ;
#95 = CYLINDRICAL_SURFACE ( 'NONE', #76, 4.250000000000000000 ) ;
#96 = DIRECTION ( 'NONE',  ( 0.0000000000000000000, 0.0000000000000000000, 1.000000000000000000 ) ) ;
#97 = VERTEX_POINT ( 'NONE', #153 ) ;
#98 = LINE ( 'NONE', #139, #193 ) ;
#99 = PRODUCT_DEFINITION_SHAPE ( 'NONE', 'NONE',  #154 ) ;
#100 = AXIS2_PLACEMENT_3D ( 'NONE', #138, #210, #188 ) ;
#101 = CIRCLE ( 'NONE', #24, 4.250000000000000000 ) ;
#102 = DIRECTION ( 'NONE',  ( 0.0000000000000000000, 0.0000000000000000000, 1.000000000000000000 ) ) ;
#103 =( GEOMETRIC_REPRESENTATION_CONTEXT ( 3 ) GLOBAL_UNCERTAINTY_ASSIGNED_CONTEXT ( ( #25 ) ) GLOBAL_UNIT_ASSIGNED_CONTEXT ( ( #90, #196, #108 ) ) REPRESENTATION_CONTEXT ( 'NONE', 'WORKASPACE' ) );
#104 = VERTEX_POINT ( 'NONE', #195 ) ;
#105 = PRODUCT ( '15.5-8.5-17', '15.5-8.5-17', '', ( #41 ) ) ;
#106 = EDGE_CURVE ( 'NONE', #191, #66, #219, .T. ) ;
#107 = DIRECTION ( 'NONE',  ( 1.000000000000000000, 0.0000000000000000000, 0.0000000000000000000 ) ) ;
#108 =( NAMED_UNIT ( * ) SI_UNIT ( $, .STERADIAN. ) SOLID_ANGLE_UNIT ( ) );
#109 = CIRCLE ( 'NONE', #220, 7.750000000000000900 ) ;
#110 = EDGE_CURVE ( 'NONE', #104, #66, #86, .T. ) ;
#111 = ORIENTED_EDGE ( 'NONE', *, *, #56, .T. ) ;
#112 = EDGE_CURVE ( 'NONE', #135, #191, #204, .T. ) ;
#113 = EDGE_LOOP ( 'NONE', ( #73, #190, #81, #146 ) ) ;
#114 = DIRECTION ( 'NONE',  ( 0.0000000000000000000, 0.0000000000000000000, 1.000000000000000000 ) ) ;
#115 = SURFACE_STYLE_FILL_AREA ( #64 ) ;
#116 = AXIS2_PLACEMENT_3D ( 'NONE', #128, #194, #121 ) ;
#117 =( NAMED_UNIT ( * ) PLANE_ANGLE_UNIT ( ) SI_UNIT ( $, .RADIAN. ) );
#118 = COLOUR_RGB ( '',0.7921568627450980000, 0.8196078431372548800, 0.9333333333333333500 ) ;
#119 = CARTESIAN_POINT ( 'NONE',  ( 7.750000000000000900, 9.491012693391987800E-016, 2.000000000000000000 ) ) ;
#120 = SHAPE_DEFINITION_REPRESENTATION ( #99, #124 ) ;
#121 = DIRECTION ( 'NONE',  ( 1.000000000000000000, 0.0000000000000000000, 0.0000000000000000000 ) ) ;
#122 = DIRECTION ( 'NONE',  ( 1.000000000000000000, 0.0000000000000000000, -0.0000000000000000000 ) ) ;
#123 = DIRECTION ( 'NONE',  ( 0.0000000000000000000, 0.0000000000000000000, 1.000000000000000000 ) ) ;
#124 = ADVANCED_BREP_SHAPE_REPRESENTATION ( '15.5-8.5-17', ( #212, #187 ), #215 ) ;
#125 = AXIS2_PLACEMENT_3D ( 'NONE', #132, #114, #89 ) ;
#126 = VERTEX_POINT ( 'NONE', #176 ) ;
#127 = LINE ( 'NONE', #44, #43 ) ;
#128 = CARTESIAN_POINT ( 'NONE',  ( 0.0000000000000000000, 0.0000000000000000000, 2.000000000000000000 ) ) ;
#129 = ORIENTED_EDGE ( 'NONE', *, *, #182, .F. ) ;
#130 =( GEOMETRIC_REPRESENTATION_CONTEXT ( 3 ) GLOBAL_UNCERTAINTY_ASSIGNED_CONTEXT ( ( #199 ) ) GLOBAL_UNIT_ASSIGNED_CONTEXT ( ( #87, #117, #156 ) ) REPRESENTATION_CONTEXT ( 'NONE', 'WORKASPACE' ) );
#131 = CARTESIAN_POINT ( 'NONE',  ( 0.0000000000000000000, 0.0000000000000000000, 0.0000000000000000000 ) ) ;
#132 = CARTESIAN_POINT ( 'NONE',  ( 0.0000000000000000000, 0.0000000000000000000, 19.00000000000000400 ) ) ;
#133 = AXIS2_PLACEMENT_3D ( 'NONE', #150, #151, #171 ) ;
#134 = ORIENTED_EDGE ( 'NONE', *, *, #46, .F. ) ;
#135 = VERTEX_POINT ( 'NONE', #119 ) ;
#136 = CARTESIAN_POINT ( 'NONE',  ( 0.0000000000000000000, 0.0000000000000000000, 19.00000000000000400 ) ) ;
#137 = DIRECTION ( 'NONE',  ( -1.000000000000000000, 0.0000000000000000000, 0.0000000000000000000 ) ) ;
#138 = CARTESIAN_POINT ( 'NONE',  ( 0.0000000000000000000, 0.0000000000000000000, 19.00000000000000400 ) ) ;
#139 = CARTESIAN_POINT ( 'NONE',  ( 7.750000000000000900, 9.491012693391987800E-016, 2.000000000000000000 ) ) ;
#140 = EDGE_LOOP ( 'NONE', ( #129, #202, #23, #8 ) ) ;
#141 = AXIS2_PLACEMENT_3D ( 'NONE', #2, #3, #5 ) ;
#142 = ORIENTED_EDGE ( 'NONE', *, *, #110, .T. ) ;
#143 = APPLICATION_CONTEXT ( 'automotive_design' ) ;
#144 = MECHANICAL_DESIGN_GEOMETRIC_PRESENTATION_REPRESENTATION (  '', ( #183 ), #130 ) ;
#145 = COLOUR_RGB ( '',0.7921568627450980000, 0.8196078431372548800, 0.9333333333333333500 ) ;
#146 = ORIENTED_EDGE ( 'NONE', *, *, #207, .T. ) ;
#147 = ORIENTED_EDGE ( 'NONE', *, *, #207, .F. ) ;
#148 = CARTESIAN_POINT ( 'NONE',  ( -7.750000000000000900, 0.0000000000000000000, 0.0000000000000000000 ) ) ;
#149 = AXIS2_PLACEMENT_3D ( 'NONE', #69, #96, #14 ) ;
#150 = CARTESIAN_POINT ( 'NONE',  ( 0.0000000000000000000, 0.0000000000000000000, 2.000000000000000000 ) ) ;
#151 = DIRECTION ( 'NONE',  ( 0.0000000000000000000, 0.0000000000000000000, 1.000000000000000000 ) ) ;
#152 = FACE_OUTER_BOUND ( 'NONE', #167, .T. ) ;
#153 = CARTESIAN_POINT ( 'NONE',  ( 4.250000000000000000, 5.204748896376250700E-016, 19.00000000000000400 ) ) ;
#154 = PRODUCT_DEFINITION ( 'UNKNOWN', '', #206, #201 ) ;
#155 = DIRECTION ( 'NONE',  ( -1.000000000000000000, 0.0000000000000000000, 0.0000000000000000000 ) ) ;
#156 =( NAMED_UNIT ( * ) SI_UNIT ( $, .STERADIAN. ) SOLID_ANGLE_UNIT ( ) );
#157 = DIRECTION ( 'NONE',  ( -0.0000000000000000000, -0.0000000000000000000, -1.000000000000000000 ) ) ;
#158 = FILL_AREA_STYLE ('',( #54 ) ) ;
#159 = ORIENTED_EDGE ( 'NONE', *, *, #112, .T. ) ;
#160 = AXIS2_PLACEMENT_3D ( 'NONE', #37, #209, #192 ) ;
#161 = ADVANCED_FACE ( 'NONE', ( #55 ), #213, .T. ) ;
#162 = FACE_OUTER_BOUND ( 'NONE', #57, .T. ) ;
#163 = PRESENTATION_STYLE_ASSIGNMENT (( #177 ) ) ;
#164 = CIRCLE ( 'NONE', #100, 4.250000000000000000 ) ;
#165 = MECHANICAL_DESIGN_GEOMETRIC_PRESENTATION_REPRESENTATION (  '', ( #170 ), #103 ) ;
#166 = FACE_OUTER_BOUND ( 'NONE', #198, .T. ) ;
#167 = EDGE_LOOP ( 'NONE', ( #184, #9, #142, #88 ) ) ;
#168 = EDGE_CURVE ( 'NONE', #49, #126, #40, .T. ) ;
#169 = CARTESIAN_POINT ( 'NONE',  ( -7.750000000000000900, 0.0000000000000000000, 2.000000000000000000 ) ) ;
#170 = STYLED_ITEM ( 'NONE', ( #163 ), #124 ) ;
#171 = DIRECTION ( 'NONE',  ( 1.000000000000000000, 0.0000000000000000000, -0.0000000000000000000 ) ) ;
#172 = VECTOR ( 'NONE', #186, 1000.000000000000000 ) ;
#173 = DIRECTION ( 'NONE',  ( -0.0000000000000000000, -0.0000000000000000000, -1.000000000000000000 ) ) ;
#174 =( LENGTH_UNIT ( ) NAMED_UNIT ( * ) SI_UNIT ( .MILLI., .METRE. ) );
#175 = AXIS2_PLACEMENT_3D ( 'NONE', #131, #20, #72 ) ;
#176 = CARTESIAN_POINT ( 'NONE',  ( -4.250000000000000000, 0.0000000000000000000, 2.000000000000000000 ) ) ;
#177 = SURFACE_STYLE_USAGE ( .BOTH. , #74 ) ;
#178 = FACE_OUTER_BOUND ( 'NONE', #197, .T. ) ;
#179 = ORIENTED_EDGE ( 'NONE', *, *, #46, .T. ) ;
#180 = APPLICATION_PROTOCOL_DEFINITION ( 'draft international standard', 'automotive_design', 1998, #143 ) ;
#181 = ADVANCED_FACE ( 'NONE', ( #34 ), #26, .T. ) ;
#182 = EDGE_CURVE ( 'NONE', #97, #49, #75, .T. ) ;
#183 = STYLED_ITEM ( 'NONE', ( #68 ), #212 ) ;
#184 = ORIENTED_EDGE ( 'NONE', *, *, #112, .F. ) ;
#185 = ORIENTED_EDGE ( 'NONE', *, *, #182, .T. ) ;
#186 = DIRECTION ( 'NONE',  ( -0.0000000000000000000, -0.0000000000000000000, -1.000000000000000000 ) ) ;
#187 = AXIS2_PLACEMENT_3D ( 'NONE', #29, #123, #6 ) ;
#188 = DIRECTION ( 'NONE',  ( 1.000000000000000000, 0.0000000000000000000, 0.0000000000000000000 ) ) ;
#189 = CARTESIAN_POINT ( 'NONE',  ( -4.250000000000000000, 0.0000000000000000000, 19.00000000000000400 ) ) ;
#190 = ORIENTED_EDGE ( 'NONE', *, *, #84, .F. ) ;
#191 = VERTEX_POINT ( 'NONE', #35 ) ;
#192 = DIRECTION ( 'NONE',  ( -1.000000000000000000, 0.0000000000000000000, 0.0000000000000000000 ) ) ;
#193 = VECTOR ( 'NONE', #157, 1000.000000000000000 ) ;
#194 = DIRECTION ( 'NONE',  ( 0.0000000000000000000, 0.0000000000000000000, 1.000000000000000000 ) ) ;
#195 = CARTESIAN_POINT ( 'NONE',  ( 7.750000000000000900, 9.491012693391987800E-016, 0.0000000000000000000 ) ) ;
#196 =( NAMED_UNIT ( * ) PLANE_ANGLE_UNIT ( ) SI_UNIT ( $, .RADIAN. ) );
#197 = EDGE_LOOP ( 'NONE', ( #111, #159 ) ) ;
#198 = EDGE_LOOP ( 'NONE', ( #77, #185 ) ) ;
#199 = UNCERTAINTY_MEASURE_WITH_UNIT (LENGTH_MEASURE( 1.000000000000000100E-005 ), #87, 'distance_accuracy_value', 'NONE');
#200 = ADVANCED_FACE ( 'NONE', ( #166 ), #50, .T. ) ;
#201 = PRODUCT_DEFINITION_CONTEXT ( 'detailed design', #143, 'design' ) ;
#202 = ORIENTED_EDGE ( 'NONE', *, *, #94, .T. ) ;
#203 = CARTESIAN_POINT ( 'NONE',  ( 0.0000000000000000000, 0.0000000000000000000, 0.0000000000000000000 ) ) ;
#204 = CIRCLE ( 'NONE', #141, 7.750000000000000900 ) ;
#205 = DIRECTION ( 'NONE',  ( 0.0000000000000000000, 0.0000000000000000000, 1.000000000000000000 ) ) ;
#206 = PRODUCT_DEFINITION_FORMATION_WITH_SPECIFIED_SOURCE ( 'ANY', '', #105, .NOT_KNOWN. ) ;
#207 = EDGE_CURVE ( 'NONE', #126, #91, #208, .T. ) ;
#208 = CIRCLE ( 'NONE', #47, 4.250000000000000000 ) ;
#209 = DIRECTION ( 'NONE',  ( -0.0000000000000000000, -0.0000000000000000000, -1.000000000000000000 ) ) ;
#210 = DIRECTION ( 'NONE',  ( 0.0000000000000000000, 0.0000000000000000000, 1.000000000000000000 ) ) ;
#211 = FACE_OUTER_BOUND ( 'NONE', #113, .T. ) ;
#212 = MANIFOLD_SOLID_BREP ( 'Boss.-Extru.2', #78 ) ;
#213 = CYLINDRICAL_SURFACE ( 'NONE', #39, 4.250000000000000000 ) ;
#214 = ADVANCED_FACE ( 'NONE', ( #162 ), #63, .F. ) ;
#215 =( GEOMETRIC_REPRESENTATION_CONTEXT ( 3 ) GLOBAL_UNCERTAINTY_ASSIGNED_CONTEXT ( ( #60 ) ) GLOBAL_UNIT_ASSIGNED_CONTEXT ( ( #174, #52, #71 ) ) REPRESENTATION_CONTEXT ( 'NONE', 'WORKASPACE' ) );
#216 = EDGE_CURVE ( 'NONE', #135, #104, #98, .T. ) ;
#217 = PRESENTATION_LAYER_ASSIGNMENT (  '', '', ( #170 ) ) ;
#218 = DIRECTION ( 'NONE',  ( 1.000000000000000000, 0.0000000000000000000, 0.0000000000000000000 ) ) ;
#219 = LINE ( 'NONE', #169, #172 ) ;
#220 = AXIS2_PLACEMENT_3D ( 'NONE', #203, #205, #218 ) ;
ENDSEC;
END-ISO-10303-21;
