ISO-10303-21;
HEADER;
/* Generated by software containing ST-Developer
 * from STEP Tools, Inc. (www.steptools.com) 
 */

FILE_DESCRIPTION(
/* description */ (''),
/* implementation_level */ '2;1');

FILE_NAME(
/* name */ 'C:/Users/BDA/Desktop/demi coque v4.step',
/* time_stamp */ '2021-06-09T00:36:07+02:00',
/* author */ (''),
/* organization */ (''),
/* preprocessor_version */ 'ST-DEVELOPER v18.1',
/* originating_system */ 'Autodesk Translation Framework v10.9.0.1377',

/* authorisation */ '');

FILE_SCHEMA (('AUTOMOTIVE_DESIGN { 1 0 10303 214 3 1 1 }'));
ENDSEC;

DATA;
#10=MECHANICAL_DESIGN_GEOMETRIC_PRESENTATION_REPRESENTATION('',(#13),#302);
#11=SHAPE_REPRESENTATION_RELATIONSHIP('SRR','None',#309,#12);
#12=ADVANCED_BREP_SHAPE_REPRESENTATION('',(#14),#301);
#13=STYLED_ITEM('',(#318),#14);
#14=MANIFOLD_SOLID_BREP('Corps1',#136);
#15=FACE_BOUND('',#35,.T.);
#16=FACE_BOUND('',#38,.T.);
#17=CIRCLE('',#153,40.);
#18=CIRCLE('',#154,40.);
#19=CIRCLE('',#157,42.0000031887414);
#20=CIRCLE('',#158,42.0000031887414);
#21=PLANE('',#151);
#22=PLANE('',#155);
#23=PLANE('',#159);
#24=PLANE('',#160);
#25=FACE_OUTER_BOUND('',#32,.T.);
#26=FACE_OUTER_BOUND('',#33,.T.);
#27=FACE_OUTER_BOUND('',#34,.T.);
#28=FACE_OUTER_BOUND('',#36,.T.);
#29=FACE_OUTER_BOUND('',#37,.T.);
#30=FACE_OUTER_BOUND('',#39,.T.);
#31=FACE_OUTER_BOUND('',#40,.T.);
#32=EDGE_LOOP('',(#92,#93,#94,#95,#96,#97));
#33=EDGE_LOOP('',(#98,#99,#100,#101));
#34=EDGE_LOOP('',(#102,#103,#104,#105));
#35=EDGE_LOOP('',(#106,#107));
#36=EDGE_LOOP('',(#108,#109,#110,#111));
#37=EDGE_LOOP('',(#112,#113,#114,#115));
#38=EDGE_LOOP('',(#116,#117));
#39=EDGE_LOOP('',(#118,#119,#120,#121));
#40=EDGE_LOOP('',(#122,#123,#124,#125));
#41=LINE('',#235,#50);
#42=LINE('',#276,#51);
#43=LINE('',#278,#52);
#44=LINE('',#280,#53);
#45=LINE('',#281,#54);
#46=LINE('',#287,#55);
#47=LINE('',#290,#56);
#48=LINE('',#292,#57);
#49=LINE('',#293,#58);
#50=VECTOR('',#165,6.99999999999999);
#51=VECTOR('',#168,10.);
#52=VECTOR('',#169,10.);
#53=VECTOR('',#170,10.);
#54=VECTOR('',#171,10.);
#55=VECTOR('',#178,10.);
#56=VECTOR('',#181,10.);
#57=VECTOR('',#182,10.);
#58=VECTOR('',#183,10.);
#59=B_SPLINE_CURVE_WITH_KNOTS('',3,(#198,#199,#200,#201,#202,#203,#204,
#205,#206,#207,#208,#209,#210,#211,#212,#213,#214,#215,#216,#217,#218,#219,
#220,#221,#222,#223),.UNSPECIFIED.,.F.,.F.,(4,2,2,2,2,2,2,2,2,2,2,2,4),
(0.,0.264270710142627,0.528541420285253,0.792803527615445,1.05706563494564,
1.32132774227583,1.58558984960602,1.84986055974865,2.11413126989127,2.3784019800339,
2.64267269017653,2.90693479750672,3.17119690483691),.UNSPECIFIED.);
#60=B_SPLINE_CURVE_WITH_KNOTS('',3,(#224,#225,#226,#227,#228,#229,#230,
#231,#232,#233),.UNSPECIFIED.,.F.,.F.,(4,2,2,2,4),(3.17119690483691,3.4354590121671,
3.69972111949729,3.96399182963992,4.22826253978255),.UNSPECIFIED.);
#61=B_SPLINE_CURVE_WITH_KNOTS('',3,(#237,#238,#239,#240,#241,#242,#243,
#244,#245,#246),.UNSPECIFIED.,.F.,.F.,(4,2,2,2,4),(0.,0.264214738079167,
0.528429476158334,0.792637157356709,1.05684483855508),.UNSPECIFIED.);
#62=B_SPLINE_CURVE_WITH_KNOTS('',3,(#247,#248,#249,#250,#251,#252,#253,
#254,#255,#256,#257,#258,#259,#260,#261,#262,#263,#264,#265,#266,#267,#268,
#269,#270,#271,#272),.UNSPECIFIED.,.F.,.F.,(4,2,2,2,2,2,2,2,2,2,2,2,4),
(1.05684483855508,1.32105251975346,1.58526020095183,1.849474939031,2.11368967711017,
2.37790441518934,2.6421191532685,2.90632683446688,3.17053451566525,3.43474219686363,
3.698949878062,3.96316461614117,4.22737935422034),.UNSPECIFIED.);
#63=VERTEX_POINT('',#196);
#64=VERTEX_POINT('',#197);
#65=VERTEX_POINT('',#234);
#66=VERTEX_POINT('',#236);
#67=VERTEX_POINT('',#274);
#68=VERTEX_POINT('',#275);
#69=VERTEX_POINT('',#277);
#70=VERTEX_POINT('',#279);
#71=VERTEX_POINT('',#283);
#72=VERTEX_POINT('',#285);
#73=VERTEX_POINT('',#289);
#74=VERTEX_POINT('',#291);
#75=EDGE_CURVE('',#63,#64,#59,.T.);
#76=EDGE_CURVE('',#64,#63,#60,.T.);
#77=EDGE_CURVE('',#64,#65,#41,.T.);
#78=EDGE_CURVE('',#66,#65,#61,.T.);
#79=EDGE_CURVE('',#65,#66,#62,.T.);
#80=EDGE_CURVE('',#67,#68,#42,.T.);
#81=EDGE_CURVE('',#67,#69,#43,.T.);
#82=EDGE_CURVE('',#70,#69,#44,.T.);
#83=EDGE_CURVE('',#68,#70,#45,.T.);
#84=EDGE_CURVE('',#68,#71,#17,.T.);
#85=EDGE_CURVE('',#72,#70,#18,.T.);
#86=EDGE_CURVE('',#71,#72,#46,.T.);
#87=EDGE_CURVE('',#71,#73,#47,.T.);
#88=EDGE_CURVE('',#74,#72,#48,.T.);
#89=EDGE_CURVE('',#73,#74,#49,.T.);
#90=EDGE_CURVE('',#67,#73,#19,.T.);
#91=EDGE_CURVE('',#69,#74,#20,.T.);
#92=ORIENTED_EDGE('',*,*,#75,.F.);
#93=ORIENTED_EDGE('',*,*,#76,.F.);
#94=ORIENTED_EDGE('',*,*,#77,.T.);
#95=ORIENTED_EDGE('',*,*,#78,.F.);
#96=ORIENTED_EDGE('',*,*,#79,.F.);
#97=ORIENTED_EDGE('',*,*,#77,.F.);
#98=ORIENTED_EDGE('',*,*,#80,.F.);
#99=ORIENTED_EDGE('',*,*,#81,.T.);
#100=ORIENTED_EDGE('',*,*,#82,.F.);
#101=ORIENTED_EDGE('',*,*,#83,.F.);
#102=ORIENTED_EDGE('',*,*,#84,.F.);
#103=ORIENTED_EDGE('',*,*,#83,.T.);
#104=ORIENTED_EDGE('',*,*,#85,.F.);
#105=ORIENTED_EDGE('',*,*,#86,.F.);
#106=ORIENTED_EDGE('',*,*,#75,.T.);
#107=ORIENTED_EDGE('',*,*,#76,.T.);
#108=ORIENTED_EDGE('',*,*,#87,.F.);
#109=ORIENTED_EDGE('',*,*,#86,.T.);
#110=ORIENTED_EDGE('',*,*,#88,.F.);
#111=ORIENTED_EDGE('',*,*,#89,.F.);
#112=ORIENTED_EDGE('',*,*,#90,.T.);
#113=ORIENTED_EDGE('',*,*,#89,.T.);
#114=ORIENTED_EDGE('',*,*,#91,.F.);
#115=ORIENTED_EDGE('',*,*,#81,.F.);
#116=ORIENTED_EDGE('',*,*,#78,.T.);
#117=ORIENTED_EDGE('',*,*,#79,.T.);
#118=ORIENTED_EDGE('',*,*,#91,.T.);
#119=ORIENTED_EDGE('',*,*,#88,.T.);
#120=ORIENTED_EDGE('',*,*,#85,.T.);
#121=ORIENTED_EDGE('',*,*,#82,.T.);
#122=ORIENTED_EDGE('',*,*,#90,.F.);
#123=ORIENTED_EDGE('',*,*,#80,.T.);
#124=ORIENTED_EDGE('',*,*,#84,.T.);
#125=ORIENTED_EDGE('',*,*,#87,.T.);
#126=CYLINDRICAL_SURFACE('',#150,6.99999999999999);
#127=CYLINDRICAL_SURFACE('',#152,40.);
#128=CYLINDRICAL_SURFACE('',#156,42.0000031887414);
#129=ADVANCED_FACE('',(#25),#126,.F.);
#130=ADVANCED_FACE('',(#26),#21,.T.);
#131=ADVANCED_FACE('',(#27,#15),#127,.F.);
#132=ADVANCED_FACE('',(#28),#22,.T.);
#133=ADVANCED_FACE('',(#29,#16),#128,.T.);
#134=ADVANCED_FACE('',(#30),#23,.T.);
#135=ADVANCED_FACE('',(#31),#24,.F.);
#136=CLOSED_SHELL('',(#129,#130,#131,#132,#133,#134,#135));
#137=DERIVED_UNIT_ELEMENT(#139,1.);
#138=DERIVED_UNIT_ELEMENT(#304,-3.);
#139=(
MASS_UNIT()
NAMED_UNIT(*)
SI_UNIT(.KILO.,.GRAM.)
);
#140=DERIVED_UNIT((#137,#138));
#141=MEASURE_REPRESENTATION_ITEM('density measure',
POSITIVE_RATIO_MEASURE(7850.),#140);
#142=PROPERTY_DEFINITION_REPRESENTATION(#147,#144);
#143=PROPERTY_DEFINITION_REPRESENTATION(#148,#145);
#144=REPRESENTATION('material name',(#146),#301);
#145=REPRESENTATION('density',(#141),#301);
#146=DESCRIPTIVE_REPRESENTATION_ITEM('Acier','Acier');
#147=PROPERTY_DEFINITION('material property','material name',#311);
#148=PROPERTY_DEFINITION('material property','density of part',#311);
#149=AXIS2_PLACEMENT_3D('placement',#194,#161,#162);
#150=AXIS2_PLACEMENT_3D('',#195,#163,#164);
#151=AXIS2_PLACEMENT_3D('',#273,#166,#167);
#152=AXIS2_PLACEMENT_3D('',#282,#172,#173);
#153=AXIS2_PLACEMENT_3D('',#284,#174,#175);
#154=AXIS2_PLACEMENT_3D('',#286,#176,#177);
#155=AXIS2_PLACEMENT_3D('',#288,#179,#180);
#156=AXIS2_PLACEMENT_3D('',#294,#184,#185);
#157=AXIS2_PLACEMENT_3D('',#295,#186,#187);
#158=AXIS2_PLACEMENT_3D('',#296,#188,#189);
#159=AXIS2_PLACEMENT_3D('',#297,#190,#191);
#160=AXIS2_PLACEMENT_3D('',#298,#192,#193);
#161=DIRECTION('axis',(0.,0.,1.));
#162=DIRECTION('refdir',(1.,0.,0.));
#163=DIRECTION('center_axis',(0.,0.,-1.));
#164=DIRECTION('ref_axis',(1.,0.,0.));
#165=DIRECTION('',(0.,0.,-1.));
#166=DIRECTION('center_axis',(0.,0.00351556565750639,0.99999382037996));
#167=DIRECTION('ref_axis',(0.,-0.99999382037996,0.00351556565750639));
#168=DIRECTION('',(0.,0.99999382037996,-0.00351556565750639));
#169=DIRECTION('',(1.,0.,0.));
#170=DIRECTION('',(0.,-0.99999382037996,0.00351556565750639));
#171=DIRECTION('',(1.,0.,0.));
#172=DIRECTION('center_axis',(1.,0.,0.));
#173=DIRECTION('ref_axis',(0.,0.,-1.));
#174=DIRECTION('center_axis',(1.,0.,0.));
#175=DIRECTION('ref_axis',(0.,0.,-1.));
#176=DIRECTION('center_axis',(-1.,0.,0.));
#177=DIRECTION('ref_axis',(0.,0.,-1.));
#178=DIRECTION('',(1.,0.,0.));
#179=DIRECTION('center_axis',(0.,-0.000123036697218272,0.999999992430986));
#180=DIRECTION('ref_axis',(0.,-0.999999992430986,-0.000123036697218272));
#181=DIRECTION('',(0.,0.999999992430986,0.000123036697218272));
#182=DIRECTION('',(0.,-0.999999992430986,-0.000123036697218272));
#183=DIRECTION('',(1.,0.,0.));
#184=DIRECTION('center_axis',(1.,0.,0.));
#185=DIRECTION('ref_axis',(0.,-0.992888493269514,-0.119048057241581));
#186=DIRECTION('center_axis',(1.,0.,0.));
#187=DIRECTION('ref_axis',(0.,-0.992888493269514,-0.119048057241581));
#188=DIRECTION('center_axis',(1.,0.,0.));
#189=DIRECTION('ref_axis',(0.,-0.992888493269514,-0.119048057241581));
#190=DIRECTION('center_axis',(1.,0.,0.));
#191=DIRECTION('ref_axis',(0.,1.,0.));
#192=DIRECTION('center_axis',(1.,0.,0.));
#193=DIRECTION('ref_axis',(0.,1.,0.));
#194=CARTESIAN_POINT('',(0.,0.,0.));
#195=CARTESIAN_POINT('Origin',(100.,0.,0.));
#196=CARTESIAN_POINT('',(100.,6.99999999999999,-39.3827373350304));
#197=CARTESIAN_POINT('',(93.,-5.42818766845439E-16,-40.));
#198=CARTESIAN_POINT('Ctrl Pts',(100.,6.99999999999999,-39.3827373350304));
#199=CARTESIAN_POINT('Ctrl Pts',(100.880902367142,6.99999999999999,-39.3827373350304));
#200=CARTESIAN_POINT('Ctrl Pts',(101.819251802956,6.82357930586119,-39.4153520488908));
#201=CARTESIAN_POINT('Ctrl Pts',(103.543352318519,6.10864699266712,-39.5324631391412));
#202=CARTESIAN_POINT('Ctrl Pts',(104.329262989528,5.57023194708372,-39.6151928437528));
#203=CARTESIAN_POINT('Ctrl Pts',(105.570211748434,4.32928318817798,-39.7699417853901));
#204=CARTESIAN_POINT('Ctrl Pts',(106.108642633867,3.54336386802917,-39.852115165765));
#205=CARTESIAN_POINT('Ctrl Pts',(106.823586441895,1.81923355598156,-39.967948407675));
#206=CARTESIAN_POINT('Ctrl Pts',(107.,0.880873691100639,-40.));
#207=CARTESIAN_POINT('Ctrl Pts',(107.,-0.88087369110064,-40.));
#208=CARTESIAN_POINT('Ctrl Pts',(106.823586441895,-1.81923355598156,-39.967948407675));
#209=CARTESIAN_POINT('Ctrl Pts',(106.108642633867,-3.54336386802917,-39.852115165765));
#210=CARTESIAN_POINT('Ctrl Pts',(105.570211748434,-4.32928318817798,-39.7699417853901));
#211=CARTESIAN_POINT('Ctrl Pts',(104.329262989528,-5.57023194708372,-39.6151928437528));
#212=CARTESIAN_POINT('Ctrl Pts',(103.543352318519,-6.10864699266712,-39.5324631391412));
#213=CARTESIAN_POINT('Ctrl Pts',(101.819251802956,-6.82357930586119,-39.4153520488908));
#214=CARTESIAN_POINT('Ctrl Pts',(100.880902367142,-6.99999999999999,-39.3827373350304));
#215=CARTESIAN_POINT('Ctrl Pts',(99.1190976328579,-6.99999999999999,-39.3827373350304));
#216=CARTESIAN_POINT('Ctrl Pts',(98.1807481970445,-6.82357930586119,-39.4153520488908));
#217=CARTESIAN_POINT('Ctrl Pts',(96.4566476814812,-6.10864699266712,-39.5324631391412));
#218=CARTESIAN_POINT('Ctrl Pts',(95.6707370104721,-5.57023194708372,-39.6151928437528));
#219=CARTESIAN_POINT('Ctrl Pts',(94.4297882515663,-4.32928318817798,-39.7699417853901));
#220=CARTESIAN_POINT('Ctrl Pts',(93.8913573661327,-3.54336386802917,-39.852115165765));
#221=CARTESIAN_POINT('Ctrl Pts',(93.176413558105,-1.81923355598156,-39.967948407675));
#222=CARTESIAN_POINT('Ctrl Pts',(93.,-0.880873691100639,-40.));
#223=CARTESIAN_POINT('Ctrl Pts',(93.,5.55111512312578E-16,-40.));
#224=CARTESIAN_POINT('Ctrl Pts',(93.,-1.94289029309402E-15,-40.));
#225=CARTESIAN_POINT('Ctrl Pts',(93.,0.880873691100638,-40.));
#226=CARTESIAN_POINT('Ctrl Pts',(93.176413558105,1.81923355598156,-39.967948407675));
#227=CARTESIAN_POINT('Ctrl Pts',(93.8913573661327,3.54336386802917,-39.852115165765));
#228=CARTESIAN_POINT('Ctrl Pts',(94.4297882515663,4.32928318817798,-39.7699417853901));
#229=CARTESIAN_POINT('Ctrl Pts',(95.6707370104721,5.57023194708372,-39.6151928437528));
#230=CARTESIAN_POINT('Ctrl Pts',(96.4566476814812,6.10864699266712,-39.5324631391412));
#231=CARTESIAN_POINT('Ctrl Pts',(98.1807481970445,6.82357930586119,-39.4153520488908));
#232=CARTESIAN_POINT('Ctrl Pts',(99.1190976328579,6.99999999999999,-39.3827373350304));
#233=CARTESIAN_POINT('Ctrl Pts',(100.,6.99999999999999,-39.3827373350304));
#234=CARTESIAN_POINT('',(93.,8.57252759403146E-16,-42.0000031887414));
#235=CARTESIAN_POINT('',(93.,8.57252759403146E-16,0.));
#236=CARTESIAN_POINT('',(100.,6.99999999999999,-41.4125617156713));
#237=CARTESIAN_POINT('Ctrl Pts',(100.,6.99999999999999,-41.4125617156713));
#238=CARTESIAN_POINT('Ctrl Pts',(99.1192842064028,6.99999999999999,-41.4125617156713));
#239=CARTESIAN_POINT('Ctrl Pts',(98.1810116336072,6.82365159728547,-41.4435629868398));
#240=CARTESIAN_POINT('Ctrl Pts',(96.4568572296535,6.10877082360738,-41.5549521911123));
#241=CARTESIAN_POINT('Ctrl Pts',(95.6708313389199,5.57032627553151,-41.6336675695467));
#242=CARTESIAN_POINT('Ctrl Pts',(94.4296902994359,4.32918523604752,-41.7809639002952));
#243=CARTESIAN_POINT('Ctrl Pts',(93.8912327504502,3.54315222938129,-41.8591994568103));
#244=CARTESIAN_POINT('Ctrl Pts',(93.1763425368955,1.8189733800696,-41.96948704349));
#245=CARTESIAN_POINT('Ctrl Pts',(93.,0.880692270661252,-42.0000031887414));
#246=CARTESIAN_POINT('Ctrl Pts',(93.,8.32667268468867E-16,-42.0000031887414));
#247=CARTESIAN_POINT('Ctrl Pts',(93.,5.55111512312578E-16,-42.0000031887414));
#248=CARTESIAN_POINT('Ctrl Pts',(93.,-0.88069227066125,-42.0000031887414));
#249=CARTESIAN_POINT('Ctrl Pts',(93.1763425368955,-1.8189733800696,-41.96948704349));
#250=CARTESIAN_POINT('Ctrl Pts',(93.8912327504502,-3.54315222938129,-41.8591994568103));
#251=CARTESIAN_POINT('Ctrl Pts',(94.4296902994359,-4.32918523604752,-41.7809639002952));
#252=CARTESIAN_POINT('Ctrl Pts',(95.6708313389199,-5.57032627553151,-41.6336675695467));
#253=CARTESIAN_POINT('Ctrl Pts',(96.4568572296535,-6.10877082360738,-41.5549521911123));
#254=CARTESIAN_POINT('Ctrl Pts',(98.1810116336072,-6.82365159728547,-41.4435629868398));
#255=CARTESIAN_POINT('Ctrl Pts',(99.1192842064028,-6.99999999999999,-41.4125617156713));
#256=CARTESIAN_POINT('Ctrl Pts',(100.880715793597,-6.99999999999999,-41.4125617156713));
#257=CARTESIAN_POINT('Ctrl Pts',(101.818988366393,-6.82365159728547,-41.4435629868398));
#258=CARTESIAN_POINT('Ctrl Pts',(103.543142770346,-6.10877082360738,-41.5549521911123));
#259=CARTESIAN_POINT('Ctrl Pts',(104.32916866108,-5.57032627553151,-41.6336675695467));
#260=CARTESIAN_POINT('Ctrl Pts',(105.570309700564,-4.32918523604752,-41.7809639002952));
#261=CARTESIAN_POINT('Ctrl Pts',(106.10876724955,-3.54315222938129,-41.8591994568103));
#262=CARTESIAN_POINT('Ctrl Pts',(106.823657463104,-1.8189733800696,-41.96948704349));
#263=CARTESIAN_POINT('Ctrl Pts',(107.,-0.880692270661253,-42.0000031887414));
#264=CARTESIAN_POINT('Ctrl Pts',(107.,0.88069227066125,-42.0000031887414));
#265=CARTESIAN_POINT('Ctrl Pts',(106.823657463104,1.8189733800696,-41.96948704349));
#266=CARTESIAN_POINT('Ctrl Pts',(106.10876724955,3.54315222938129,-41.8591994568103));
#267=CARTESIAN_POINT('Ctrl Pts',(105.570309700564,4.32918523604752,-41.7809639002952));
#268=CARTESIAN_POINT('Ctrl Pts',(104.32916866108,5.57032627553151,-41.6336675695467));
#269=CARTESIAN_POINT('Ctrl Pts',(103.543142770346,6.10877082360738,-41.5549521911123));
#270=CARTESIAN_POINT('Ctrl Pts',(101.818988366393,6.82365159728547,-41.4435629868398));
#271=CARTESIAN_POINT('Ctrl Pts',(100.880715793597,6.99999999999999,-41.4125617156713));
#272=CARTESIAN_POINT('Ctrl Pts',(100.,6.99999999999999,-41.4125617156713));
#273=CARTESIAN_POINT('Origin',(0.,-39.6853737454851,-5.00710601856607));
#274=CARTESIAN_POINT('',(0.,-41.7013198833842,-5.00001878375987));
#275=CARTESIAN_POINT('',(0.,-39.6853737454851,-5.00710601856607));
#276=CARTESIAN_POINT('',(0.,-41.7013198833842,-5.00001878375987));
#277=CARTESIAN_POINT('',(200.,-41.7013198833842,-5.00001878375987));
#278=CARTESIAN_POINT('',(0.,-41.7013198833842,-5.00001878375987));
#279=CARTESIAN_POINT('',(200.,-39.6853737454851,-5.00710601856607));
#280=CARTESIAN_POINT('',(200.,-41.7013198833842,-5.00001878375987));
#281=CARTESIAN_POINT('',(0.,-39.6853737454851,-5.00710601856607));
#282=CARTESIAN_POINT('Origin',(0.,0.,0.));
#283=CARTESIAN_POINT('',(0.,39.6862962993284,-4.99978859972233));
#284=CARTESIAN_POINT('Origin',(0.,0.,0.));
#285=CARTESIAN_POINT('',(200.,39.6862962993284,-4.99978859972233));
#286=CARTESIAN_POINT('Origin',(200.,0.,0.));
#287=CARTESIAN_POINT('',(0.,39.6862962993284,-4.99978859972233));
#288=CARTESIAN_POINT('Origin',(0.,41.7013739320966,-4.99954067122388));
#289=CARTESIAN_POINT('',(0.,41.7013739320966,-4.99954067122388));
#290=CARTESIAN_POINT('',(0.,39.6862962993284,-4.99978859972233));
#291=CARTESIAN_POINT('',(200.,41.7013739320966,-4.99954067122388));
#292=CARTESIAN_POINT('',(200.,39.6862962993284,-4.99978859972233));
#293=CARTESIAN_POINT('',(0.,41.7013739320966,-4.99954067122388));
#294=CARTESIAN_POINT('Origin',(0.,0.,0.));
#295=CARTESIAN_POINT('Origin',(0.,0.,0.));
#296=CARTESIAN_POINT('Origin',(200.,0.,0.));
#297=CARTESIAN_POINT('Origin',(200.,3.36499901809617E-5,-23.4997653043487));
#298=CARTESIAN_POINT('Origin',(0.,3.36499901809617E-5,-23.4997653043487));
#299=UNCERTAINTY_MEASURE_WITH_UNIT(LENGTH_MEASURE(0.01),#303,
'DISTANCE_ACCURACY_VALUE',
'Maximum model space distance between geometric entities at asserted c
onnectivities');
#300=UNCERTAINTY_MEASURE_WITH_UNIT(LENGTH_MEASURE(0.01),#303,
'DISTANCE_ACCURACY_VALUE',
'Maximum model space distance between geometric entities at asserted c
onnectivities');
#301=(
GEOMETRIC_REPRESENTATION_CONTEXT(3)
GLOBAL_UNCERTAINTY_ASSIGNED_CONTEXT((#299))
GLOBAL_UNIT_ASSIGNED_CONTEXT((#303,#305,#306))
REPRESENTATION_CONTEXT('','3D')
);
#302=(
GEOMETRIC_REPRESENTATION_CONTEXT(3)
GLOBAL_UNCERTAINTY_ASSIGNED_CONTEXT((#300))
GLOBAL_UNIT_ASSIGNED_CONTEXT((#303,#305,#306))
REPRESENTATION_CONTEXT('','3D')
);
#303=(
LENGTH_UNIT()
NAMED_UNIT(*)
SI_UNIT(.MILLI.,.METRE.)
);
#304=(
LENGTH_UNIT()
NAMED_UNIT(*)
SI_UNIT($,.METRE.)
);
#305=(
NAMED_UNIT(*)
PLANE_ANGLE_UNIT()
SI_UNIT($,.RADIAN.)
);
#306=(
NAMED_UNIT(*)
SI_UNIT($,.STERADIAN.)
SOLID_ANGLE_UNIT()
);
#307=SHAPE_DEFINITION_REPRESENTATION(#308,#309);
#308=PRODUCT_DEFINITION_SHAPE('',$,#311);
#309=SHAPE_REPRESENTATION('',(#149),#301);
#310=PRODUCT_DEFINITION_CONTEXT('part definition',#315,'design');
#311=PRODUCT_DEFINITION('demi coque','demi coque v4',#312,#310);
#312=PRODUCT_DEFINITION_FORMATION('',$,#317);
#313=PRODUCT_RELATED_PRODUCT_CATEGORY('demi coque v4','demi coque v4',(#317));
#314=APPLICATION_PROTOCOL_DEFINITION('international standard',
'automotive_design',2009,#315);
#315=APPLICATION_CONTEXT(
'Core Data for Automotive Mechanical Design Process');
#316=PRODUCT_CONTEXT('part definition',#315,'mechanical');
#317=PRODUCT('demi coque','demi coque v4',$,(#316));
#318=PRESENTATION_STYLE_ASSIGNMENT((#319));
#319=SURFACE_STYLE_USAGE(.BOTH.,#320);
#320=SURFACE_SIDE_STYLE('',(#321));
#321=SURFACE_STYLE_FILL_AREA(#322);
#322=FILL_AREA_STYLE('Acier - Satin\X\E9',(#323));
#323=FILL_AREA_STYLE_COLOUR('Acier - Satin\X\E9',#324);
#324=COLOUR_RGB('Acier - Satin\X\E9',0.627450980392157,0.627450980392157,
0.627450980392157);
ENDSEC;
END-ISO-10303-21;
