ISO-10303-21;
HEADER;
FILE_DESCRIPTION(
 (''),
 '2;1');
FILE_NAME(
'C:\part.stp',
'2000-01-01T12:00:00+0:00',
(''),
(''),
'',
'fCAD',
'');
FILE_SCHEMA (('AUTOMOTIVE_DESIGN { 1 0 10303 214 3 1 1 }'));
ENDSEC;
DATA;
#10=MECHANICAL_DESIGN_GEOMETRIC_PRESENTATION_REPRESENTATION('',(#46,#45,
#47,#44,#48,#49,#50),#421);
#11=SHAPE_REPRESENTATION_RELATIONSHIP('SRR','None',#430,#12);
#12=ADVANCED_BREP_SHAPE_REPRESENTATION('',(#13),#420);
#13=MANIFOLD_SOLID_BREP('Solid1',#253);
#14=LINE('',#395,#26);
#15=LINE('',#397,#27);
#16=LINE('',#399,#28);
#17=LINE('',#400,#29);
#18=LINE('',#404,#30);
#19=LINE('',#405,#31);
#20=LINE('',#406,#32);
#21=LINE('',#409,#33);
#22=LINE('',#410,#34);
#23=LINE('',#413,#35);
#24=LINE('',#414,#36);
#25=LINE('',#416,#37);
#26=VECTOR('',#334,10.);
#27=VECTOR('',#335,10.);
#28=VECTOR('',#336,10.);
#29=VECTOR('',#337,10.);
#30=VECTOR('',#340,10.);
#31=VECTOR('',#341,10.);
#32=VECTOR('',#342,10.);
#33=VECTOR('',#345,10.);
#34=VECTOR('',#346,10.);
#35=VECTOR('',#349,10.);
#36=VECTOR('',#350,10.);
#37=VECTOR('',#353,10.);
#38=PLANE('',#282);
#39=PLANE('',#283);
#40=PLANE('',#284);
#41=PLANE('',#285);
#42=PLANE('',#286);
#43=PLANE('',#287);
#44=STYLED_ITEM('',(#440),#247);
#45=STYLED_ITEM('',(#440),#248);
#46=STYLED_ITEM('',(#440),#249);
#47=STYLED_ITEM('',(#440),#250);
#48=STYLED_ITEM('',(#440),#251);
#49=STYLED_ITEM('',(#440),#252);
#50=STYLED_ITEM('',(#440),#13);
#51=FACE_BOUND('',#86,.T.);
#52=FACE_BOUND('',#88,.T.);
#53=FACE_BOUND('',#90,.T.);
#54=FACE_BOUND('',#92,.T.);
#55=FACE_BOUND('',#94,.T.);
#56=FACE_BOUND('',#96,.T.);
#57=FACE_BOUND('',#98,.T.);
#58=FACE_BOUND('',#101,.T.);
#59=FACE_BOUND('',#102,.T.);
#60=FACE_BOUND('',#103,.T.);
#61=FACE_BOUND('',#105,.T.);
#62=FACE_BOUND('',#106,.T.);
#63=FACE_BOUND('',#107,.T.);
#64=FACE_BOUND('',#108,.T.);
#65=FACE_BOUND('',#110,.T.);
#66=FACE_BOUND('',#111,.T.);
#67=FACE_BOUND('',#112,.T.);
#68=FACE_BOUND('',#114,.T.);
#69=FACE_BOUND('',#115,.T.);
#70=FACE_BOUND('',#116,.T.);
#71=FACE_BOUND('',#117,.T.);
#72=FACE_OUTER_BOUND('',#85,.T.);
#73=FACE_OUTER_BOUND('',#87,.T.);
#74=FACE_OUTER_BOUND('',#89,.T.);
#75=FACE_OUTER_BOUND('',#91,.T.);
#76=FACE_OUTER_BOUND('',#93,.T.);
#77=FACE_OUTER_BOUND('',#95,.T.);
#78=FACE_OUTER_BOUND('',#97,.T.);
#79=FACE_OUTER_BOUND('',#99,.T.);
#80=FACE_OUTER_BOUND('',#100,.T.);
#81=FACE_OUTER_BOUND('',#104,.T.);
#82=FACE_OUTER_BOUND('',#109,.T.);
#83=FACE_OUTER_BOUND('',#113,.T.);
#84=FACE_OUTER_BOUND('',#118,.T.);
#85=EDGE_LOOP('',(#181));
#86=EDGE_LOOP('',(#182));
#87=EDGE_LOOP('',(#183));
#88=EDGE_LOOP('',(#184));
#89=EDGE_LOOP('',(#185));
#90=EDGE_LOOP('',(#186));
#91=EDGE_LOOP('',(#187));
#92=EDGE_LOOP('',(#188));
#93=EDGE_LOOP('',(#189));
#94=EDGE_LOOP('',(#190));
#95=EDGE_LOOP('',(#191));
#96=EDGE_LOOP('',(#192));
#97=EDGE_LOOP('',(#193));
#98=EDGE_LOOP('',(#194));
#99=EDGE_LOOP('',(#195,#196,#197,#198));
#100=EDGE_LOOP('',(#199,#200,#201,#202));
#101=EDGE_LOOP('',(#203));
#102=EDGE_LOOP('',(#204));
#103=EDGE_LOOP('',(#205));
#104=EDGE_LOOP('',(#206,#207,#208,#209));
#105=EDGE_LOOP('',(#210));
#106=EDGE_LOOP('',(#211));
#107=EDGE_LOOP('',(#212));
#108=EDGE_LOOP('',(#213));
#109=EDGE_LOOP('',(#214,#215,#216,#217));
#110=EDGE_LOOP('',(#218));
#111=EDGE_LOOP('',(#219));
#112=EDGE_LOOP('',(#220));
#113=EDGE_LOOP('',(#221,#222,#223,#224));
#114=EDGE_LOOP('',(#225));
#115=EDGE_LOOP('',(#226));
#116=EDGE_LOOP('',(#227));
#117=EDGE_LOOP('',(#228));
#118=EDGE_LOOP('',(#229,#230,#231,#232));
#119=CIRCLE('',#262,2.4585);
#120=CIRCLE('',#263,2.4585);
#121=CIRCLE('',#265,2.4585);
#122=CIRCLE('',#266,2.4585);
#123=CIRCLE('',#268,2.4585);
#124=CIRCLE('',#269,2.4585);
#125=CIRCLE('',#271,2.4585);
#126=CIRCLE('',#272,2.4585);
#127=CIRCLE('',#274,2.4585);
#128=CIRCLE('',#275,2.4585);
#129=CIRCLE('',#277,2.4585);
#130=CIRCLE('',#278,2.4585);
#131=CIRCLE('',#280,2.4585);
#132=CIRCLE('',#281,2.4585);
#133=VERTEX_POINT('',#358);
#134=VERTEX_POINT('',#360);
#135=VERTEX_POINT('',#363);
#136=VERTEX_POINT('',#365);
#137=VERTEX_POINT('',#368);
#138=VERTEX_POINT('',#370);
#139=VERTEX_POINT('',#373);
#140=VERTEX_POINT('',#375);
#141=VERTEX_POINT('',#378);
#142=VERTEX_POINT('',#380);
#143=VERTEX_POINT('',#383);
#144=VERTEX_POINT('',#385);
#145=VERTEX_POINT('',#388);
#146=VERTEX_POINT('',#390);
#147=VERTEX_POINT('',#393);
#148=VERTEX_POINT('',#394);
#149=VERTEX_POINT('',#396);
#150=VERTEX_POINT('',#398);
#151=VERTEX_POINT('',#402);
#152=VERTEX_POINT('',#403);
#153=VERTEX_POINT('',#408);
#154=VERTEX_POINT('',#412);
#155=EDGE_CURVE('',#133,#133,#119,.T.);
#156=EDGE_CURVE('',#134,#134,#120,.T.);
#157=EDGE_CURVE('',#135,#135,#121,.T.);
#158=EDGE_CURVE('',#136,#136,#122,.T.);
#159=EDGE_CURVE('',#137,#137,#123,.T.);
#160=EDGE_CURVE('',#138,#138,#124,.T.);
#161=EDGE_CURVE('',#139,#139,#125,.T.);
#162=EDGE_CURVE('',#140,#140,#126,.T.);
#163=EDGE_CURVE('',#141,#141,#127,.T.);
#164=EDGE_CURVE('',#142,#142,#128,.T.);
#165=EDGE_CURVE('',#143,#143,#129,.T.);
#166=EDGE_CURVE('',#144,#144,#130,.T.);
#167=EDGE_CURVE('',#145,#145,#131,.T.);
#168=EDGE_CURVE('',#146,#146,#132,.T.);
#169=EDGE_CURVE('',#147,#148,#14,.T.);
#170=EDGE_CURVE('',#149,#147,#15,.T.);
#171=EDGE_CURVE('',#150,#149,#16,.T.);
#172=EDGE_CURVE('',#148,#150,#17,.T.);
#173=EDGE_CURVE('',#151,#152,#18,.T.);
#174=EDGE_CURVE('',#152,#150,#19,.T.);
#175=EDGE_CURVE('',#151,#149,#20,.T.);
#176=EDGE_CURVE('',#152,#153,#21,.T.);
#177=EDGE_CURVE('',#153,#148,#22,.T.);
#178=EDGE_CURVE('',#153,#154,#23,.T.);
#179=EDGE_CURVE('',#147,#154,#24,.T.);
#180=EDGE_CURVE('',#154,#151,#25,.T.);
#181=ORIENTED_EDGE('',*,*,#155,.F.);
#182=ORIENTED_EDGE('',*,*,#156,.F.);
#183=ORIENTED_EDGE('',*,*,#157,.F.);
#184=ORIENTED_EDGE('',*,*,#158,.F.);
#185=ORIENTED_EDGE('',*,*,#159,.F.);
#186=ORIENTED_EDGE('',*,*,#160,.F.);
#187=ORIENTED_EDGE('',*,*,#161,.F.);
#188=ORIENTED_EDGE('',*,*,#162,.F.);
#189=ORIENTED_EDGE('',*,*,#163,.F.);
#190=ORIENTED_EDGE('',*,*,#164,.F.);
#191=ORIENTED_EDGE('',*,*,#165,.F.);
#192=ORIENTED_EDGE('',*,*,#166,.F.);
#193=ORIENTED_EDGE('',*,*,#167,.F.);
#194=ORIENTED_EDGE('',*,*,#168,.F.);
#195=ORIENTED_EDGE('',*,*,#169,.F.);
#196=ORIENTED_EDGE('',*,*,#170,.F.);
#197=ORIENTED_EDGE('',*,*,#171,.F.);
#198=ORIENTED_EDGE('',*,*,#172,.F.);
#199=ORIENTED_EDGE('',*,*,#173,.T.);
#200=ORIENTED_EDGE('',*,*,#174,.T.);
#201=ORIENTED_EDGE('',*,*,#171,.T.);
#202=ORIENTED_EDGE('',*,*,#175,.F.);
#203=ORIENTED_EDGE('',*,*,#163,.T.);
#204=ORIENTED_EDGE('',*,*,#165,.T.);
#205=ORIENTED_EDGE('',*,*,#167,.T.);
#206=ORIENTED_EDGE('',*,*,#176,.T.);
#207=ORIENTED_EDGE('',*,*,#177,.T.);
#208=ORIENTED_EDGE('',*,*,#172,.T.);
#209=ORIENTED_EDGE('',*,*,#174,.F.);
#210=ORIENTED_EDGE('',*,*,#156,.T.);
#211=ORIENTED_EDGE('',*,*,#158,.T.);
#212=ORIENTED_EDGE('',*,*,#160,.T.);
#213=ORIENTED_EDGE('',*,*,#162,.T.);
#214=ORIENTED_EDGE('',*,*,#178,.T.);
#215=ORIENTED_EDGE('',*,*,#179,.F.);
#216=ORIENTED_EDGE('',*,*,#169,.T.);
#217=ORIENTED_EDGE('',*,*,#177,.F.);
#218=ORIENTED_EDGE('',*,*,#164,.T.);
#219=ORIENTED_EDGE('',*,*,#166,.T.);
#220=ORIENTED_EDGE('',*,*,#168,.T.);
#221=ORIENTED_EDGE('',*,*,#180,.T.);
#222=ORIENTED_EDGE('',*,*,#175,.T.);
#223=ORIENTED_EDGE('',*,*,#170,.T.);
#224=ORIENTED_EDGE('',*,*,#179,.T.);
#225=ORIENTED_EDGE('',*,*,#155,.T.);
#226=ORIENTED_EDGE('',*,*,#157,.T.);
#227=ORIENTED_EDGE('',*,*,#159,.T.);
#228=ORIENTED_EDGE('',*,*,#161,.T.);
#229=ORIENTED_EDGE('',*,*,#173,.F.);
#230=ORIENTED_EDGE('',*,*,#180,.F.);
#231=ORIENTED_EDGE('',*,*,#178,.F.);
#232=ORIENTED_EDGE('',*,*,#176,.F.);
#233=CYLINDRICAL_SURFACE('',#261,2.4585);
#234=CYLINDRICAL_SURFACE('',#264,2.4585);
#235=CYLINDRICAL_SURFACE('',#267,2.4585);
#236=CYLINDRICAL_SURFACE('',#270,2.4585);
#237=CYLINDRICAL_SURFACE('',#273,2.4585);
#238=CYLINDRICAL_SURFACE('',#276,2.4585);
#239=CYLINDRICAL_SURFACE('',#279,2.4585);
#240=ADVANCED_FACE('',(#72,#51),#233,.F.);
#241=ADVANCED_FACE('',(#73,#52),#234,.F.);
#242=ADVANCED_FACE('',(#74,#53),#235,.F.);
#243=ADVANCED_FACE('',(#75,#54),#236,.F.);
#244=ADVANCED_FACE('',(#76,#55),#237,.F.);
#245=ADVANCED_FACE('',(#77,#56),#238,.F.);
#246=ADVANCED_FACE('',(#78,#57),#239,.F.);
#247=ADVANCED_FACE('',(#79),#38,.F.);
#248=ADVANCED_FACE('',(#80,#58,#59,#60),#39,.T.);
#249=ADVANCED_FACE('',(#81,#61,#62,#63,#64),#40,.T.);
#250=ADVANCED_FACE('',(#82,#65,#66,#67),#41,.T.);
#251=ADVANCED_FACE('',(#83,#68,#69,#70,#71),#42,.T.);
#252=ADVANCED_FACE('',(#84),#43,.T.);
#253=CLOSED_SHELL('',(#240,#241,#242,#243,#244,#245,#246,#247,#248,#249,
#250,#251,#252));
#254=DATE_TIME_ROLE('creation_date');
#255=APPLIED_DATE_AND_TIME_ASSIGNMENT(#256,#254,(#432));
#256=DATE_AND_TIME(#257,#258);
#257=CALENDAR_DATE(2014,18,6);
#258=LOCAL_TIME(6,49,34.,#259);
#259=COORDINATED_UNIVERSAL_TIME_OFFSET(0,0,.BEHIND.);
#260=AXIS2_PLACEMENT_3D('placement',#356,#288,#289);
#261=AXIS2_PLACEMENT_3D('',#357,#290,#291);
#262=AXIS2_PLACEMENT_3D('',#359,#292,#293);
#263=AXIS2_PLACEMENT_3D('',#361,#294,#295);
#264=AXIS2_PLACEMENT_3D('',#362,#296,#297);
#265=AXIS2_PLACEMENT_3D('',#364,#298,#299);
#266=AXIS2_PLACEMENT_3D('',#366,#300,#301);
#267=AXIS2_PLACEMENT_3D('',#367,#302,#303);
#268=AXIS2_PLACEMENT_3D('',#369,#304,#305);
#269=AXIS2_PLACEMENT_3D('',#371,#306,#307);
#270=AXIS2_PLACEMENT_3D('',#372,#308,#309);
#271=AXIS2_PLACEMENT_3D('',#374,#310,#311);
#272=AXIS2_PLACEMENT_3D('',#376,#312,#313);
#273=AXIS2_PLACEMENT_3D('',#377,#314,#315);
#274=AXIS2_PLACEMENT_3D('',#379,#316,#317);
#275=AXIS2_PLACEMENT_3D('',#381,#318,#319);
#276=AXIS2_PLACEMENT_3D('',#382,#320,#321);
#277=AXIS2_PLACEMENT_3D('',#384,#322,#323);
#278=AXIS2_PLACEMENT_3D('',#386,#324,#325);
#279=AXIS2_PLACEMENT_3D('',#387,#326,#327);
#280=AXIS2_PLACEMENT_3D('',#389,#328,#329);
#281=AXIS2_PLACEMENT_3D('',#391,#330,#331);
#282=AXIS2_PLACEMENT_3D('',#392,#332,#333);
#283=AXIS2_PLACEMENT_3D('',#401,#338,#339);
#284=AXIS2_PLACEMENT_3D('',#407,#343,#344);
#285=AXIS2_PLACEMENT_3D('',#411,#347,#348);
#286=AXIS2_PLACEMENT_3D('',#415,#351,#352);
#287=AXIS2_PLACEMENT_3D('',#417,#354,#355);
#288=DIRECTION('axis',(0.,0.,1.));
#289=DIRECTION('refdir',(1.,0.,0.));
#290=DIRECTION('center_axis',(0.,1.,0.));
#291=DIRECTION('ref_axis',(1.,0.,0.));
#292=DIRECTION('center_axis',(0.,1.,0.));
#293=DIRECTION('ref_axis',(1.,0.,0.));
#294=DIRECTION('center_axis',(0.,-1.,0.));
#295=DIRECTION('ref_axis',(1.,0.,0.));
#296=DIRECTION('center_axis',(0.,1.,0.));
#297=DIRECTION('ref_axis',(1.,0.,0.));
#298=DIRECTION('center_axis',(0.,1.,0.));
#299=DIRECTION('ref_axis',(1.,0.,0.));
#300=DIRECTION('center_axis',(0.,-1.,0.));
#301=DIRECTION('ref_axis',(1.,0.,0.));
#302=DIRECTION('center_axis',(0.,1.,0.));
#303=DIRECTION('ref_axis',(1.,0.,0.));
#304=DIRECTION('center_axis',(0.,1.,0.));
#305=DIRECTION('ref_axis',(1.,0.,0.));
#306=DIRECTION('center_axis',(0.,-1.,0.));
#307=DIRECTION('ref_axis',(1.,0.,0.));
#308=DIRECTION('center_axis',(0.,1.,0.));
#309=DIRECTION('ref_axis',(1.,0.,0.));
#310=DIRECTION('center_axis',(0.,1.,0.));
#311=DIRECTION('ref_axis',(1.,0.,0.));
#312=DIRECTION('center_axis',(0.,-1.,0.));
#313=DIRECTION('ref_axis',(1.,0.,0.));
#314=DIRECTION('center_axis',(1.,0.,0.));
#315=DIRECTION('ref_axis',(0.,0.,-1.));
#316=DIRECTION('center_axis',(1.,5.18104078158406E-16,0.));
#317=DIRECTION('ref_axis',(0.,0.,-1.));
#318=DIRECTION('center_axis',(-1.,0.,0.));
#319=DIRECTION('ref_axis',(0.,0.,-1.));
#320=DIRECTION('center_axis',(1.,0.,0.));
#321=DIRECTION('ref_axis',(0.,0.,-1.));
#322=DIRECTION('center_axis',(1.,5.18104078158406E-16,0.));
#323=DIRECTION('ref_axis',(0.,0.,-1.));
#324=DIRECTION('center_axis',(-1.,0.,0.));
#325=DIRECTION('ref_axis',(0.,0.,-1.));
#326=DIRECTION('center_axis',(1.,0.,0.));
#327=DIRECTION('ref_axis',(0.,0.,-1.));
#328=DIRECTION('center_axis',(1.,5.18104078158406E-16,0.));
#329=DIRECTION('ref_axis',(0.,0.,-1.));
#330=DIRECTION('center_axis',(-1.,0.,0.));
#331=DIRECTION('ref_axis',(0.,0.,-1.));
#332=DIRECTION('center_axis',(0.,0.,1.));
#333=DIRECTION('ref_axis',(1.,0.,0.));
#334=DIRECTION('',(0.,1.,0.));
#335=DIRECTION('',(1.,0.,0.));
#336=DIRECTION('',(5.18104078158406E-16,-1.,0.));
#337=DIRECTION('',(-1.,0.,0.));
#338=DIRECTION('center_axis',(-1.,-5.18104078158406E-16,0.));
#339=DIRECTION('ref_axis',(0.,0.,1.));
#340=DIRECTION('',(-5.18104078158406E-16,1.,0.));
#341=DIRECTION('',(0.,0.,-1.));
#342=DIRECTION('',(0.,0.,-1.));
#343=DIRECTION('center_axis',(0.,1.,0.));
#344=DIRECTION('ref_axis',(0.,0.,1.));
#345=DIRECTION('',(1.,0.,0.));
#346=DIRECTION('',(0.,0.,-1.));
#347=DIRECTION('center_axis',(1.,0.,0.));
#348=DIRECTION('ref_axis',(0.,0.,-1.));
#349=DIRECTION('',(0.,-1.,0.));
#350=DIRECTION('',(0.,0.,1.));
#351=DIRECTION('center_axis',(0.,-1.,0.));
#352=DIRECTION('ref_axis',(0.,0.,-1.));
#353=DIRECTION('',(-1.,0.,0.));
#354=DIRECTION('center_axis',(0.,0.,1.));
#355=DIRECTION('ref_axis',(1.,0.,0.));
#356=CARTESIAN_POINT('',(0.,0.,0.));
#357=CARTESIAN_POINT('Origin',(0.,-182.686750327146,69.5));
#358=CARTESIAN_POINT('',(-2.4585,-7.5,69.5));
#359=CARTESIAN_POINT('Origin',(0.,-7.5,69.5));
#360=CARTESIAN_POINT('',(2.4585,7.5,69.5));
#361=CARTESIAN_POINT('Origin',(0.,7.5,69.5));
#362=CARTESIAN_POINT('Origin',(0.,-182.686750327146,23.));
#363=CARTESIAN_POINT('',(-2.4585,-7.5,23.));
#364=CARTESIAN_POINT('Origin',(0.,-7.5,23.));
#365=CARTESIAN_POINT('',(2.4585,7.5,23.));
#366=CARTESIAN_POINT('Origin',(0.,7.5,23.));
#367=CARTESIAN_POINT('Origin',(0.,-182.686750327146,-23.));
#368=CARTESIAN_POINT('',(-2.4585,-7.5,-23.));
#369=CARTESIAN_POINT('Origin',(0.,-7.5,-23.));
#370=CARTESIAN_POINT('',(2.4585,7.5,-23.));
#371=CARTESIAN_POINT('Origin',(0.,7.5,-23.));
#372=CARTESIAN_POINT('Origin',(0.,-182.686750327146,-69.5));
#373=CARTESIAN_POINT('',(-2.4585,-7.5,-69.5));
#374=CARTESIAN_POINT('Origin',(0.,-7.5,-69.5));
#375=CARTESIAN_POINT('',(2.4585,7.5,-69.5));
#376=CARTESIAN_POINT('Origin',(0.,7.5,-69.5));
#377=CARTESIAN_POINT('Origin',(-182.686750327146,0.,0.));
#378=CARTESIAN_POINT('',(-7.5,-3.01079415570377E-16,2.4585));
#379=CARTESIAN_POINT('Origin',(-7.5,0.,0.));
#380=CARTESIAN_POINT('',(7.5,0.,-2.4585));
#381=CARTESIAN_POINT('Origin',(7.5,0.,0.));
#382=CARTESIAN_POINT('Origin',(-182.686750327146,0.,87.5));
#383=CARTESIAN_POINT('',(-7.5,-3.01079415570377E-16,89.9585));
#384=CARTESIAN_POINT('Origin',(-7.5,0.,87.5));
#385=CARTESIAN_POINT('',(7.5,0.,85.0415));
#386=CARTESIAN_POINT('Origin',(7.5,0.,87.5));
#387=CARTESIAN_POINT('Origin',(-182.686750327146,0.,-87.5));
#388=CARTESIAN_POINT('',(-7.5,-3.01079415570377E-16,-85.0415));
#389=CARTESIAN_POINT('Origin',(-7.5,0.,-87.5));
#390=CARTESIAN_POINT('',(7.5,0.,-89.9585));
#391=CARTESIAN_POINT('Origin',(7.5,0.,-87.5));
#392=CARTESIAN_POINT('Origin',(1.66533453693773E-15,1.11022302462516E-15,
-94.5));
#393=CARTESIAN_POINT('',(7.5,-7.5,-94.5));
#394=CARTESIAN_POINT('',(7.5,7.5,-94.5));
#395=CARTESIAN_POINT('',(7.5,7.5,-94.5));
#396=CARTESIAN_POINT('',(-7.49999999999999,-7.5,-94.5));
#397=CARTESIAN_POINT('',(7.5,-7.5,-94.5));
#398=CARTESIAN_POINT('',(-7.5,7.5,-94.5));
#399=CARTESIAN_POINT('',(-7.49999999999999,-7.5,-94.5));
#400=CARTESIAN_POINT('',(-7.5,7.5,-94.5));
#401=CARTESIAN_POINT('Origin',(-7.49999999999999,-7.5,0.));
#402=CARTESIAN_POINT('',(-7.49999999999999,-7.5,94.5));
#403=CARTESIAN_POINT('',(-7.5,7.5,94.5));
#404=CARTESIAN_POINT('',(-7.49999999999999,-7.5,94.5));
#405=CARTESIAN_POINT('',(-7.5,7.5,0.));
#406=CARTESIAN_POINT('',(-7.49999999999999,-7.5,0.));
#407=CARTESIAN_POINT('Origin',(-7.5,7.5,0.));
#408=CARTESIAN_POINT('',(7.5,7.5,94.5));
#409=CARTESIAN_POINT('',(-7.5,7.5,94.5));
#410=CARTESIAN_POINT('',(7.5,7.5,0.));
#411=CARTESIAN_POINT('Origin',(7.5,7.5,0.));
#412=CARTESIAN_POINT('',(7.5,-7.5,94.5));
#413=CARTESIAN_POINT('',(7.5,7.5,94.5));
#414=CARTESIAN_POINT('',(7.5,-7.5,0.));
#415=CARTESIAN_POINT('Origin',(7.5,-7.5,0.));
#416=CARTESIAN_POINT('',(7.5,-7.5,94.5));
#417=CARTESIAN_POINT('Origin',(1.66533453693773E-15,1.11022302462516E-15,
94.5));
#418=UNCERTAINTY_MEASURE_WITH_UNIT(LENGTH_MEASURE(0.01),#422,
'DISTANCE_ACCURACY_VALUE',
'Maximum model space distance between geometric entities at asserted c
onnectivities');
#419=UNCERTAINTY_MEASURE_WITH_UNIT(LENGTH_MEASURE(1.E-6),#422,
'DISTANCE_ACCURACY_VALUE',
'Maximum model space distance between geometric entities at asserted c
onnectivities');
#420=(
GEOMETRIC_REPRESENTATION_CONTEXT(3)
GLOBAL_UNCERTAINTY_ASSIGNED_CONTEXT((#418))
GLOBAL_UNIT_ASSIGNED_CONTEXT((#422,#425,#423))
REPRESENTATION_CONTEXT('','3D')
);
#421=(
GEOMETRIC_REPRESENTATION_CONTEXT(3)
GLOBAL_UNCERTAINTY_ASSIGNED_CONTEXT((#419))
GLOBAL_UNIT_ASSIGNED_CONTEXT((#422,#425,#423))
REPRESENTATION_CONTEXT('','3D')
);
#422=(
LENGTH_UNIT()
NAMED_UNIT(*)
SI_UNIT(.MILLI.,.METRE.)
);
#423=(
NAMED_UNIT(*)
SI_UNIT($,.STERADIAN.)
SOLID_ANGLE_UNIT()
);
#424=DIMENSIONAL_EXPONENTS(0.,0.,0.,0.,0.,0.,0.);
#425=(
CONVERSION_BASED_UNIT('degree',#427)
NAMED_UNIT(#424)
PLANE_ANGLE_UNIT()
);
#426=(
NAMED_UNIT(*)
PLANE_ANGLE_UNIT()
SI_UNIT($,.RADIAN.)
);
#427=PLANE_ANGLE_MEASURE_WITH_UNIT(PLANE_ANGLE_MEASURE(0.01745329252),#426);
#428=SHAPE_DEFINITION_REPRESENTATION(#429,#430);
#429=PRODUCT_DEFINITION_SHAPE('',$,#432);
#430=SHAPE_REPRESENTATION('',(#260),#420);
#431=PRODUCT_DEFINITION_CONTEXT('part definition',#436,'design');
#432=PRODUCT_DEFINITION('PCB-SFPSYNC','tasseau plaque mat',#433,#431);
#433=PRODUCT_DEFINITION_FORMATION('',$,#438);
#434=PRODUCT_RELATED_PRODUCT_CATEGORY('tasseau plaque mat',
'tasseau plaque mat',(#438));
#435=APPLICATION_PROTOCOL_DEFINITION('international standard',
'automotive_design',2009,#436);
#436=APPLICATION_CONTEXT(
'Core Data for Automotive Mechanical Design Process');
#437=PRODUCT_CONTEXT('part definition',#436,'mechanical');
#438=PRODUCT('PCB-SFPSYNC','tasseau plaque mat',$,(#437));
#439=PRESENTATION_STYLE_ASSIGNMENT((#441));
#440=PRESENTATION_STYLE_ASSIGNMENT((#442));
#441=SURFACE_STYLE_USAGE(.BOTH.,#443);
#442=SURFACE_STYLE_USAGE(.BOTH.,#444);
#443=SURFACE_SIDE_STYLE('',(#445));
#444=SURFACE_SIDE_STYLE('',(#446));
#445=SURFACE_STYLE_FILL_AREA(#447);
#446=SURFACE_STYLE_FILL_AREA(#448);
#447=FILL_AREA_STYLE('',(#449));
#448=FILL_AREA_STYLE('',(#450));
#449=FILL_AREA_STYLE_COLOUR('',#451);
#450=FILL_AREA_STYLE_COLOUR('',#452);
#451=COLOUR_RGB('',0.996078431372549,0.996078431372549,1.);
#452=COLOUR_RGB('',0.796078431372549,0.603921568627451,0.231372549019608);
ENDSEC;
END-ISO-10303-21;
