ISO-10303-21;
HEADER;
FILE_DESCRIPTION (( 'STEP AP214' ),
    '1' );
FILE_NAME ('15.5-7.8-17.STEP',
    '2021-06-01T07:39:37',
    ( '' ),
    ( '' ),
    'SwSTEP 2.0',
    'SolidWorks 2017',
    '' );
FILE_SCHEMA (( 'AUTOMOTIVE_DESIGN' ));
ENDSEC;

DATA;
#1 = DIRECTION ( 'NONE',  ( -0.0000000000000000000, -0.0000000000000000000, -1.000000000000000000 ) ) ;
#2 = UNCERTAINTY_MEASURE_WITH_UNIT (LENGTH_MEASURE( 1.000000000000000100E-005 ), #42, 'distance_accuracy_value', 'NONE');
#3 = CARTESIAN_POINT ( 'NONE',  ( -7.750000000000000900, 0.0000000000000000000, 0.0000000000000000000 ) ) ;
#4 = CARTESIAN_POINT ( 'NONE',  ( 0.0000000000000000000, 0.0000000000000000000, 2.000000000000000000 ) ) ;
#5 = FACE_OUTER_BOUND ( 'NONE', #81, .T. ) ;
#6 = VERTEX_POINT ( 'NONE', #84 ) ;
#7 =( NAMED_UNIT ( * ) PLANE_ANGLE_UNIT ( ) SI_UNIT ( $, .RADIAN. ) );
#8 = CARTESIAN_POINT ( 'NONE',  ( 0.0000000000000000000, 0.0000000000000000000, 0.0000000000000000000 ) ) ;
#9 = ADVANCED_FACE ( 'NONE', ( #71 ), #64, .T. ) ;
#10 = DIRECTION ( 'NONE',  ( 1.000000000000000000, 0.0000000000000000000, 0.0000000000000000000 ) ) ;
#11 = AXIS2_PLACEMENT_3D ( 'NONE', #8, #165, #10 ) ;
#12 = PRESENTATION_STYLE_ASSIGNMENT (( #209 ) ) ;
#13 = ORIENTED_EDGE ( 'NONE', *, *, #161, .T. ) ;
#14 = AXIS2_PLACEMENT_3D ( 'NONE', #4, #69, #56 ) ;
#15 = FACE_OUTER_BOUND ( 'NONE', #75, .T. ) ;
#16 = CARTESIAN_POINT ( 'NONE',  ( 0.0000000000000000000, 0.0000000000000000000, 19.00000000000000400 ) ) ;
#17 = DIRECTION ( 'NONE',  ( 0.0000000000000000000, 0.0000000000000000000, 1.000000000000000000 ) ) ;
#18 = PRODUCT_DEFINITION_SHAPE ( 'NONE', 'NONE',  #143 ) ;
#19 = VERTEX_POINT ( 'NONE', #3 ) ;
#20 = DIRECTION ( 'NONE',  ( 1.000000000000000000, 0.0000000000000000000, 0.0000000000000000000 ) ) ;
#21 = DIRECTION ( 'NONE',  ( 1.000000000000000000, 0.0000000000000000000, 0.0000000000000000000 ) ) ;
#22 = AXIS2_PLACEMENT_3D ( 'NONE', #170, #48, #151 ) ;
#23 = PRODUCT ( '15.5-7.8-17', '15.5-7.8-17', '', ( #132 ) ) ;
#24 =( NAMED_UNIT ( * ) SI_UNIT ( $, .STERADIAN. ) SOLID_ANGLE_UNIT ( ) );
#25 = ADVANCED_FACE ( 'NONE', ( #41, #212 ), #57, .T. ) ;
#26 = EDGE_LOOP ( 'NONE', ( #95, #185 ) ) ;
#27 = VECTOR ( 'NONE', #152, 1000.000000000000000 ) ;
#28 = PRODUCT_DEFINITION_FORMATION_WITH_SPECIFIED_SOURCE ( 'ANY', '', #23, .NOT_KNOWN. ) ;
#29 = ORIENTED_EDGE ( 'NONE', *, *, #72, .T. ) ;
#30 = DIRECTION ( 'NONE',  ( -0.0000000000000000000, -0.0000000000000000000, -1.000000000000000000 ) ) ;
#31 = STYLED_ITEM ( 'NONE', ( #12 ), #123 ) ;
#32 = CIRCLE ( 'NONE', #101, 3.900000000000001200 ) ;
#33 = DIRECTION ( 'NONE',  ( 0.0000000000000000000, 0.0000000000000000000, 1.000000000000000000 ) ) ;
#34 = LINE ( 'NONE', #35, #187 ) ;
#35 = CARTESIAN_POINT ( 'NONE',  ( 3.900000000000001200, 4.776122516674679300E-016, 19.00000000000000400 ) ) ;
#36 =( NAMED_UNIT ( * ) PLANE_ANGLE_UNIT ( ) SI_UNIT ( $, .RADIAN. ) );
#37 =( NAMED_UNIT ( * ) SI_UNIT ( $, .STERADIAN. ) SOLID_ANGLE_UNIT ( ) );
#38 = APPLICATION_PROTOCOL_DEFINITION ( 'draft international standard', 'automotive_design', 1998, #174 ) ;
#39 = DIRECTION ( 'NONE',  ( 0.0000000000000000000, 0.0000000000000000000, 1.000000000000000000 ) ) ;
#40 = CYLINDRICAL_SURFACE ( 'NONE', #58, 3.900000000000001200 ) ;
#41 = FACE_BOUND ( 'NONE', #49, .T. ) ;
#42 =( LENGTH_UNIT ( ) NAMED_UNIT ( * ) SI_UNIT ( .MILLI., .METRE. ) );
#43 = UNCERTAINTY_MEASURE_WITH_UNIT (LENGTH_MEASURE( 1.000000000000000100E-005 ), #109, 'distance_accuracy_value', 'NONE');
#44 = AXIS2_PLACEMENT_3D ( 'NONE', #119, #218, #97 ) ;
#45 = VERTEX_POINT ( 'NONE', #68 ) ;
#46 =( GEOMETRIC_REPRESENTATION_CONTEXT ( 3 ) GLOBAL_UNCERTAINTY_ASSIGNED_CONTEXT ( ( #43 ) ) GLOBAL_UNIT_ASSIGNED_CONTEXT ( ( #109, #36, #144 ) ) REPRESENTATION_CONTEXT ( 'NONE', 'WORKASPACE' ) );
#47 = AXIS2_PLACEMENT_3D ( 'NONE', #142, #88, #125 ) ;
#48 = DIRECTION ( 'NONE',  ( 0.0000000000000000000, 0.0000000000000000000, 1.000000000000000000 ) ) ;
#49 = EDGE_LOOP ( 'NONE', ( #198, #93 ) ) ;
#50 = CARTESIAN_POINT ( 'NONE',  ( 0.0000000000000000000, 0.0000000000000000000, 19.00000000000000400 ) ) ;
#51 = EDGE_CURVE ( 'NONE', #189, #6, #34, .T. ) ;
#52 = DIRECTION ( 'NONE',  ( 0.0000000000000000000, 0.0000000000000000000, 1.000000000000000000 ) ) ;
#53 = MECHANICAL_DESIGN_GEOMETRIC_PRESENTATION_REPRESENTATION (  '', ( #208 ), #183 ) ;
#54 = VECTOR ( 'NONE', #30, 1000.000000000000000 ) ;
#55 = AXIS2_PLACEMENT_3D ( 'NONE', #99, #200, #80 ) ;
#56 = DIRECTION ( 'NONE',  ( 1.000000000000000000, 0.0000000000000000000, 0.0000000000000000000 ) ) ;
#57 = PLANE ( 'NONE',  #217 ) ;
#58 = AXIS2_PLACEMENT_3D ( 'NONE', #16, #190, #100 ) ;
#59 = SURFACE_SIDE_STYLE ('',( #98 ) ) ;
#60 = APPLICATION_CONTEXT ( 'automotive_design' ) ;
#61 = SURFACE_STYLE_FILL_AREA ( #86 ) ;
#62 = VERTEX_POINT ( 'NONE', #102 ) ;
#63 = PRESENTATION_LAYER_ASSIGNMENT (  '', '', ( #31 ) ) ;
#64 = CYLINDRICAL_SURFACE ( 'NONE', #188, 7.750000000000000900 ) ;
#65 = VERTEX_POINT ( 'NONE', #83 ) ;
#66 = CARTESIAN_POINT ( 'NONE',  ( 0.0000000000000000000, 0.0000000000000000000, 0.0000000000000000000 ) ) ;
#67 = ORIENTED_EDGE ( 'NONE', *, *, #51, .T. ) ;
#68 = CARTESIAN_POINT ( 'NONE',  ( -3.900000000000001200, 0.0000000000000000000, 19.00000000000000400 ) ) ;
#69 = DIRECTION ( 'NONE',  ( 0.0000000000000000000, 0.0000000000000000000, 1.000000000000000000 ) ) ;
#70 = CARTESIAN_POINT ( 'NONE',  ( 0.0000000000000000000, 0.0000000000000000000, 0.0000000000000000000 ) ) ;
#71 = FACE_OUTER_BOUND ( 'NONE', #137, .T. ) ;
#72 = EDGE_CURVE ( 'NONE', #62, #6, #32, .T. ) ;
#73 = CARTESIAN_POINT ( 'NONE',  ( 3.900000000000001200, 4.776122516674679300E-016, 19.00000000000000400 ) ) ;
#74 = CIRCLE ( 'NONE', #90, 7.750000000000000900 ) ;
#75 = EDGE_LOOP ( 'NONE', ( #186, #67, #203, #216 ) ) ;
#76 = FILL_AREA_STYLE_COLOUR ( '', #118 ) ;
#77 = ADVANCED_FACE ( 'NONE', ( #111 ), #192, .T. ) ;
#78 = CIRCLE ( 'NONE', #22, 3.900000000000001200 ) ;
#79 = ORIENTED_EDGE ( 'NONE', *, *, #150, .F. ) ;
#80 = DIRECTION ( 'NONE',  ( 1.000000000000000000, 0.0000000000000000000, 0.0000000000000000000 ) ) ;
#81 = EDGE_LOOP ( 'NONE', ( #173, #215, #196, #79 ) ) ;
#82 = ORIENTED_EDGE ( 'NONE', *, *, #133, .T. ) ;
#83 = CARTESIAN_POINT ( 'NONE',  ( 7.750000000000000900, 9.491012693391987800E-016, 2.000000000000000000 ) ) ;
#84 = CARTESIAN_POINT ( 'NONE',  ( 3.900000000000001200, 4.776122516674679300E-016, 2.000000000000000000 ) ) ;
#85 = DIRECTION ( 'NONE',  ( 1.000000000000000000, 0.0000000000000000000, 0.0000000000000000000 ) ) ;
#86 = FILL_AREA_STYLE ('',( #193 ) ) ;
#87 = ORIENTED_EDGE ( 'NONE', *, *, #205, .T. ) ;
#88 = DIRECTION ( 'NONE',  ( -0.0000000000000000000, -0.0000000000000000000, -1.000000000000000000 ) ) ;
#89 = ADVANCED_FACE ( 'NONE', ( #175 ), #220, .F. ) ;
#90 = AXIS2_PLACEMENT_3D ( 'NONE', #70, #39, #85 ) ;
#91 = CIRCLE ( 'NONE', #55, 3.900000000000001200 ) ;
#92 = PRODUCT_RELATED_PRODUCT_CATEGORY ( 'part', '', ( #23 ) ) ;
#93 = ORIENTED_EDGE ( 'NONE', *, *, #107, .F. ) ;
#94 = VERTEX_POINT ( 'NONE', #201 ) ;
#95 = ORIENTED_EDGE ( 'NONE', *, *, #205, .F. ) ;
#96 = EDGE_CURVE ( 'NONE', #65, #94, #168, .T. ) ;
#97 = DIRECTION ( 'NONE',  ( 1.000000000000000000, 0.0000000000000000000, 0.0000000000000000000 ) ) ;
#98 = SURFACE_STYLE_FILL_AREA ( #195 ) ;
#99 = CARTESIAN_POINT ( 'NONE',  ( 0.0000000000000000000, 0.0000000000000000000, 2.000000000000000000 ) ) ;
#100 = DIRECTION ( 'NONE',  ( -1.000000000000000000, 0.0000000000000000000, 0.0000000000000000000 ) ) ;
#101 = AXIS2_PLACEMENT_3D ( 'NONE', #154, #33, #139 ) ;
#102 = CARTESIAN_POINT ( 'NONE',  ( -3.900000000000001200, 0.0000000000000000000, 2.000000000000000000 ) ) ;
#103 = COLOUR_RGB ( '',0.7921568627450980000, 0.8196078431372548800, 0.9333333333333333500 ) ;
#104 = CARTESIAN_POINT ( 'NONE',  ( 0.0000000000000000000, 0.0000000000000000000, 2.000000000000000000 ) ) ;
#105 = EDGE_LOOP ( 'NONE', ( #129, #122, #13, #29 ) ) ;
#106 = DIRECTION ( 'NONE',  ( 0.0000000000000000000, 0.0000000000000000000, 1.000000000000000000 ) ) ;
#107 = EDGE_CURVE ( 'NONE', #6, #62, #91, .T. ) ;
#108 = AXIS2_PLACEMENT_3D ( 'NONE', #180, #213, #131 ) ;
#109 =( LENGTH_UNIT ( ) NAMED_UNIT ( * ) SI_UNIT ( .MILLI., .METRE. ) );
#110 = DIRECTION ( 'NONE',  ( -0.0000000000000000000, -0.0000000000000000000, -1.000000000000000000 ) ) ;
#111 = FACE_OUTER_BOUND ( 'NONE', #149, .T. ) ;
#112 = AXIS2_PLACEMENT_3D ( 'NONE', #66, #140, #191 ) ;
#113 =( LENGTH_UNIT ( ) NAMED_UNIT ( * ) SI_UNIT ( .MILLI., .METRE. ) );
#114 = ORIENTED_EDGE ( 'NONE', *, *, #141, .T. ) ;
#115 = MECHANICAL_DESIGN_GEOMETRIC_PRESENTATION_REPRESENTATION (  '', ( #31 ), #135 ) ;
#116 = PRODUCT_DEFINITION_CONTEXT ( 'detailed design', #60, 'design' ) ;
#117 = EDGE_LOOP ( 'NONE', ( #138, #163 ) ) ;
#118 = COLOUR_RGB ( '',0.7921568627450980000, 0.8196078431372548800, 0.9333333333333333500 ) ;
#119 = CARTESIAN_POINT ( 'NONE',  ( 0.0000000000000000000, 0.0000000000000000000, 19.00000000000000400 ) ) ;
#120 = DIRECTION ( 'NONE',  ( 1.000000000000000000, 0.0000000000000000000, -0.0000000000000000000 ) ) ;
#121 = FACE_OUTER_BOUND ( 'NONE', #105, .T. ) ;
#122 = ORIENTED_EDGE ( 'NONE', *, *, #133, .F. ) ;
#123 = ADVANCED_BREP_SHAPE_REPRESENTATION ( '15.5-7.8-17', ( #169, #11 ), #46 ) ;
#124 = DIRECTION ( 'NONE',  ( -1.000000000000000000, 0.0000000000000000000, 0.0000000000000000000 ) ) ;
#125 = DIRECTION ( 'NONE',  ( -1.000000000000000000, 0.0000000000000000000, 0.0000000000000000000 ) ) ;
#126 = CYLINDRICAL_SURFACE ( 'NONE', #47, 7.750000000000000900 ) ;
#127 = AXIS2_PLACEMENT_3D ( 'NONE', #50, #17, #120 ) ;
#128 = SURFACE_SIDE_STYLE ('',( #61 ) ) ;
#129 = ORIENTED_EDGE ( 'NONE', *, *, #51, .F. ) ;
#130 = PRESENTATION_LAYER_ASSIGNMENT (  '', '', ( #208 ) ) ;
#131 = DIRECTION ( 'NONE',  ( -1.000000000000000000, 0.0000000000000000000, 0.0000000000000000000 ) ) ;
#132 = PRODUCT_CONTEXT ( 'NONE', #174, 'mechanical' ) ;
#133 = EDGE_CURVE ( 'NONE', #45, #189, #78, .T. ) ;
#134 = ORIENTED_EDGE ( 'NONE', *, *, #96, .F. ) ;
#135 =( GEOMETRIC_REPRESENTATION_CONTEXT ( 3 ) GLOBAL_UNCERTAINTY_ASSIGNED_CONTEXT ( ( #147 ) ) GLOBAL_UNIT_ASSIGNED_CONTEXT ( ( #113, #7, #37 ) ) REPRESENTATION_CONTEXT ( 'NONE', 'WORKASPACE' ) );
#136 = SHAPE_DEFINITION_REPRESENTATION ( #18, #123 ) ;
#137 = EDGE_LOOP ( 'NONE', ( #134, #156, #179, #87 ) ) ;
#138 = ORIENTED_EDGE ( 'NONE', *, *, #160, .T. ) ;
#139 = DIRECTION ( 'NONE',  ( 1.000000000000000000, 0.0000000000000000000, 0.0000000000000000000 ) ) ;
#140 = DIRECTION ( 'NONE',  ( 0.0000000000000000000, 0.0000000000000000000, 1.000000000000000000 ) ) ;
#141 = EDGE_CURVE ( 'NONE', #189, #45, #159, .T. ) ;
#142 = CARTESIAN_POINT ( 'NONE',  ( 0.0000000000000000000, 0.0000000000000000000, 2.000000000000000000 ) ) ;
#143 = PRODUCT_DEFINITION ( 'UNKNOWN', '', #28, #116 ) ;
#144 =( NAMED_UNIT ( * ) SI_UNIT ( $, .STERADIAN. ) SOLID_ANGLE_UNIT ( ) );
#145 = DIRECTION ( 'NONE',  ( -0.0000000000000000000, -0.0000000000000000000, -1.000000000000000000 ) ) ;
#146 = ADVANCED_FACE ( 'NONE', ( #121 ), #40, .T. ) ;
#147 = UNCERTAINTY_MEASURE_WITH_UNIT (LENGTH_MEASURE( 1.000000000000000100E-005 ), #113, 'distance_accuracy_value', 'NONE');
#148 = APPLICATION_PROTOCOL_DEFINITION ( 'draft international standard', 'automotive_design', 1998, #60 ) ;
#149 = EDGE_LOOP ( 'NONE', ( #82, #114 ) ) ;
#150 = EDGE_CURVE ( 'NONE', #219, #19, #167, .T. ) ;
#151 = DIRECTION ( 'NONE',  ( 1.000000000000000000, 0.0000000000000000000, 0.0000000000000000000 ) ) ;
#152 = DIRECTION ( 'NONE',  ( -0.0000000000000000000, -0.0000000000000000000, -1.000000000000000000 ) ) ;
#153 = EDGE_CURVE ( 'NONE', #65, #219, #172, .T. ) ;
#154 = CARTESIAN_POINT ( 'NONE',  ( 0.0000000000000000000, 0.0000000000000000000, 2.000000000000000000 ) ) ;
#155 = DIRECTION ( 'NONE',  ( 1.000000000000000000, 0.0000000000000000000, -0.0000000000000000000 ) ) ;
#156 = ORIENTED_EDGE ( 'NONE', *, *, #160, .F. ) ;
#157 = CARTESIAN_POINT ( 'NONE',  ( -7.750000000000000900, 0.0000000000000000000, 2.000000000000000000 ) ) ;
#158 = DIRECTION ( 'NONE',  ( 0.0000000000000000000, 0.0000000000000000000, 1.000000000000000000 ) ) ;
#159 = CIRCLE ( 'NONE', #44, 3.900000000000001200 ) ;
#160 = EDGE_CURVE ( 'NONE', #219, #65, #214, .T. ) ;
#161 = EDGE_CURVE ( 'NONE', #45, #62, #178, .T. ) ;
#162 =( NAMED_UNIT ( * ) PLANE_ANGLE_UNIT ( ) SI_UNIT ( $, .RADIAN. ) );
#163 = ORIENTED_EDGE ( 'NONE', *, *, #153, .T. ) ;
#164 = ADVANCED_FACE ( 'NONE', ( #5 ), #126, .T. ) ;
#165 = DIRECTION ( 'NONE',  ( 0.0000000000000000000, 0.0000000000000000000, 1.000000000000000000 ) ) ;
#166 = AXIS2_PLACEMENT_3D ( 'NONE', #206, #106, #20 ) ;
#167 = LINE ( 'NONE', #157, #211 ) ;
#168 = LINE ( 'NONE', #171, #54 ) ;
#169 = MANIFOLD_SOLID_BREP ( 'Boss.-Extru.2', #199 ) ;
#170 = CARTESIAN_POINT ( 'NONE',  ( 0.0000000000000000000, 0.0000000000000000000, 19.00000000000000400 ) ) ;
#171 = CARTESIAN_POINT ( 'NONE',  ( 7.750000000000000900, 9.491012693391987800E-016, 2.000000000000000000 ) ) ;
#172 = CIRCLE ( 'NONE', #166, 7.750000000000000900 ) ;
#173 = ORIENTED_EDGE ( 'NONE', *, *, #153, .F. ) ;
#174 = APPLICATION_CONTEXT ( 'automotive_design' ) ;
#175 = FACE_OUTER_BOUND ( 'NONE', #26, .T. ) ;
#176 = AXIS2_PLACEMENT_3D ( 'NONE', #207, #158, #21 ) ;
#177 = CARTESIAN_POINT ( 'NONE',  ( -3.900000000000001200, 0.0000000000000000000, 19.00000000000000400 ) ) ;
#178 = LINE ( 'NONE', #177, #27 ) ;
#179 = ORIENTED_EDGE ( 'NONE', *, *, #150, .T. ) ;
#180 = CARTESIAN_POINT ( 'NONE',  ( 0.0000000000000000000, 0.0000000000000000000, 19.00000000000000400 ) ) ;
#181 = SURFACE_STYLE_USAGE ( .BOTH. , #59 ) ;
#182 = ADVANCED_FACE ( 'NONE', ( #15 ), #202, .T. ) ;
#183 =( GEOMETRIC_REPRESENTATION_CONTEXT ( 3 ) GLOBAL_UNCERTAINTY_ASSIGNED_CONTEXT ( ( #2 ) ) GLOBAL_UNIT_ASSIGNED_CONTEXT ( ( #42, #162, #24 ) ) REPRESENTATION_CONTEXT ( 'NONE', 'WORKASPACE' ) );
#184 = PRESENTATION_STYLE_ASSIGNMENT (( #181 ) ) ;
#185 = ORIENTED_EDGE ( 'NONE', *, *, #194, .F. ) ;
#186 = ORIENTED_EDGE ( 'NONE', *, *, #141, .F. ) ;
#187 = VECTOR ( 'NONE', #1, 1000.000000000000000 ) ;
#188 = AXIS2_PLACEMENT_3D ( 'NONE', #204, #145, #124 ) ;
#189 = VERTEX_POINT ( 'NONE', #73 ) ;
#190 = DIRECTION ( 'NONE',  ( -0.0000000000000000000, -0.0000000000000000000, -1.000000000000000000 ) ) ;
#191 = DIRECTION ( 'NONE',  ( 1.000000000000000000, 0.0000000000000000000, -0.0000000000000000000 ) ) ;
#192 = PLANE ( 'NONE',  #127 ) ;
#193 = FILL_AREA_STYLE_COLOUR ( '', #103 ) ;
#194 = EDGE_CURVE ( 'NONE', #94, #19, #74, .T. ) ;
#195 = FILL_AREA_STYLE ('',( #76 ) ) ;
#196 = ORIENTED_EDGE ( 'NONE', *, *, #194, .T. ) ;
#197 = CIRCLE ( 'NONE', #176, 7.750000000000000900 ) ;
#198 = ORIENTED_EDGE ( 'NONE', *, *, #72, .F. ) ;
#199 = CLOSED_SHELL ( 'NONE', ( #182, #164, #9, #25, #89, #146, #77 ) ) ;
#200 = DIRECTION ( 'NONE',  ( 0.0000000000000000000, 0.0000000000000000000, 1.000000000000000000 ) ) ;
#201 = CARTESIAN_POINT ( 'NONE',  ( 7.750000000000000900, 9.491012693391987800E-016, 0.0000000000000000000 ) ) ;
#202 = CYLINDRICAL_SURFACE ( 'NONE', #108, 3.900000000000001200 ) ;
#203 = ORIENTED_EDGE ( 'NONE', *, *, #107, .T. ) ;
#204 = CARTESIAN_POINT ( 'NONE',  ( 0.0000000000000000000, 0.0000000000000000000, 2.000000000000000000 ) ) ;
#205 = EDGE_CURVE ( 'NONE', #19, #94, #197, .T. ) ;
#206 = CARTESIAN_POINT ( 'NONE',  ( 0.0000000000000000000, 0.0000000000000000000, 2.000000000000000000 ) ) ;
#207 = CARTESIAN_POINT ( 'NONE',  ( 0.0000000000000000000, 0.0000000000000000000, 0.0000000000000000000 ) ) ;
#208 = STYLED_ITEM ( 'NONE', ( #184 ), #169 ) ;
#209 = SURFACE_STYLE_USAGE ( .BOTH. , #128 ) ;
#210 = CARTESIAN_POINT ( 'NONE',  ( -7.750000000000000900, 0.0000000000000000000, 2.000000000000000000 ) ) ;
#211 = VECTOR ( 'NONE', #110, 1000.000000000000000 ) ;
#212 = FACE_OUTER_BOUND ( 'NONE', #117, .T. ) ;
#213 = DIRECTION ( 'NONE',  ( -0.0000000000000000000, -0.0000000000000000000, -1.000000000000000000 ) ) ;
#214 = CIRCLE ( 'NONE', #14, 7.750000000000000900 ) ;
#215 = ORIENTED_EDGE ( 'NONE', *, *, #96, .T. ) ;
#216 = ORIENTED_EDGE ( 'NONE', *, *, #161, .F. ) ;
#217 = AXIS2_PLACEMENT_3D ( 'NONE', #104, #52, #155 ) ;
#218 = DIRECTION ( 'NONE',  ( 0.0000000000000000000, 0.0000000000000000000, 1.000000000000000000 ) ) ;
#219 = VERTEX_POINT ( 'NONE', #210 ) ;
#220 = PLANE ( 'NONE',  #112 ) ;
ENDSEC;
END-ISO-10303-21;
