ISO-10303-21;
HEADER;
FILE_DESCRIPTION (( 'STEP AP214' ),
    '1' );
FILE_NAME ('bou.STEP',
    '2021-05-23T16:52:34',
    ( '' ),
    ( '' ),
    'SwSTEP 2.0',
    'SolidWorks 2018',
    '' );
FILE_SCHEMA (( 'AUTOMOTIVE_DESIGN' ));
ENDSEC;

DATA;
#1 = CYLINDRICAL_SURFACE ( 'NONE', #257, 10.49999999999999112 ) ;
#2 = ORIENTED_EDGE ( 'NONE', *, *, #346, .F. ) ;
#3 = EDGE_CURVE ( 'NONE', #56, #341, #161, .T. ) ;
#4 = ADVANCED_FACE ( 'NONE', ( #225, #170 ), #305, .T. ) ;
#5 = EDGE_CURVE ( 'NONE', #340, #17, #75, .T. ) ;
#6 = CARTESIAN_POINT ( 'NONE',  ( 1.285879139104720436E-15, 0.0000000000000000000, -10.49999999999999645 ) ) ;
#7 = CIRCLE ( 'NONE', #301, 22.23673019291539177 ) ;
#8 = ORIENTED_EDGE ( 'NONE', *, *, #185, .T. ) ;
#9 = ORIENTED_EDGE ( 'NONE', *, *, #260, .F. ) ;
#10 = PRESENTATION_LAYER_ASSIGNMENT (  '', '', ( #363 ) ) ;
#11 = PRODUCT_DEFINITION ( 'UNKNOWN', '', #118, #142 ) ;
#12 = AXIS2_PLACEMENT_3D ( 'NONE', #106, #105, #137 ) ;
#13 = UNCERTAINTY_MEASURE_WITH_UNIT (LENGTH_MEASURE( 1.000000000000000082E-05 ), #323, 'distance_accuracy_value', 'NONE');
#14 = DIRECTION ( 'NONE',  ( 0.0000000000000000000, -1.000000000000000000, 0.0000000000000000000 ) ) ;
#15 = COLOUR_RGB ( '',0.6980392156862744724, 0.6980392156862744724, 0.6980392156862744724 ) ;
#16 = DIRECTION ( 'NONE',  ( 0.0000000000000000000, 0.0000000000000000000, -1.000000000000000000 ) ) ;
#17 = VERTEX_POINT ( 'NONE', #266 ) ;
#18 = CARTESIAN_POINT ( 'NONE',  ( 0.0000000000000000000, 2.000000000000000000, 0.0000000000000000000 ) ) ;
#19 =( LENGTH_UNIT ( ) NAMED_UNIT ( * ) SI_UNIT ( .MILLI., .METRE. ) );
#20 = CARTESIAN_POINT ( 'NONE',  ( 0.0000000000000000000, 2.000000000000000000, 0.0000000000000000000 ) ) ;
#21 = VERTEX_POINT ( 'NONE', #6 ) ;
#22 = AXIS2_PLACEMENT_3D ( 'NONE', #96, #217, #242 ) ;
#23 = DIRECTION ( 'NONE',  ( -0.0000000000000000000, -1.000000000000000000, -0.0000000000000000000 ) ) ;
#24 = CARTESIAN_POINT ( 'NONE',  ( 0.0000000000000000000, 17.00000000000000000, -22.23673019291539177 ) ) ;
#25 = EDGE_CURVE ( 'NONE', #146, #80, #54, .T. ) ;
#26 = SURFACE_STYLE_USAGE ( .BOTH. , #52 ) ;
#27 = FACE_OUTER_BOUND ( 'NONE', #315, .T. ) ;
#28 = AXIS2_PLACEMENT_3D ( 'NONE', #102, #278, #337 ) ;
#29 = SURFACE_SIDE_STYLE ('',( #232 ) ) ;
#30 = AXIS2_PLACEMENT_3D ( 'NONE', #359, #190, #358 ) ;
#31 = SURFACE_STYLE_USAGE ( .BOTH. , #29 ) ;
#32 = ORIENTED_EDGE ( 'NONE', *, *, #141, .T. ) ;
#33 =( NAMED_UNIT ( * ) PLANE_ANGLE_UNIT ( ) SI_UNIT ( $, .RADIAN. ) );
#34 = APPLICATION_PROTOCOL_DEFINITION ( 'draft international standard', 'automotive_design', 1998, #259 ) ;
#35 = CARTESIAN_POINT ( 'NONE',  ( 0.0000000000000000000, 17.00000000000000000, 0.0000000000000000000 ) ) ;
#36 = LINE ( 'NONE', #111, #263 ) ;
#37 = CIRCLE ( 'NONE', #186, 24.00000000000000355 ) ;
#38 = ADVANCED_FACE ( 'NONE', ( #43 ), #360, .T. ) ;
#39 = PRODUCT_DEFINITION_SHAPE ( 'NONE', 'NONE',  #11 ) ;
#40 = AXIS2_PLACEMENT_3D ( 'NONE', #147, #178, #322 ) ;
#41 = MECHANICAL_DESIGN_GEOMETRIC_PRESENTATION_REPRESENTATION (  '', ( #313 ), #139 ) ;
#42 = VECTOR ( 'NONE', #88, 1000.000000000000000 ) ;
#43 = FACE_OUTER_BOUND ( 'NONE', #353, .T. ) ;
#44 = ORIENTED_EDGE ( 'NONE', *, *, #162, .T. ) ;
#45 =( NAMED_UNIT ( * ) PLANE_ANGLE_UNIT ( ) SI_UNIT ( $, .RADIAN. ) );
#46 = DIRECTION ( 'NONE',  ( -0.0000000000000000000, 1.000000000000000000, -0.0000000000000000000 ) ) ;
#47 = AXIS2_PLACEMENT_3D ( 'NONE', #203, #226, #114 ) ;
#48 = CARTESIAN_POINT ( 'NONE',  ( 0.0000000000000000000, 17.00000000000000000, 0.0000000000000000000 ) ) ;
#49 = CARTESIAN_POINT ( 'NONE',  ( 0.0000000000000000000, 0.0000000000000000000, 10.49999999999999645 ) ) ;
#50 = ORIENTED_EDGE ( 'NONE', *, *, #5, .T. ) ;
#51 = CARTESIAN_POINT ( 'NONE',  ( 0.0000000000000000000, 2.000000000000000000, 0.0000000000000000000 ) ) ;
#52 = SURFACE_SIDE_STYLE ('',( #82 ) ) ;
#53 = PRESENTATION_STYLE_ASSIGNMENT (( #26 ) ) ;
#54 = CIRCLE ( 'NONE', #30, 24.00000000000000355 ) ;
#55 = FILL_AREA_STYLE_COLOUR ( '', #15 ) ;
#56 = VERTEX_POINT ( 'NONE', #218 ) ;
#57 = MECHANICAL_DESIGN_GEOMETRIC_PRESENTATION_REPRESENTATION (  '', ( #363 ), #191 ) ;
#58 = DIRECTION ( 'NONE',  ( 0.0000000000000000000, 0.0000000000000000000, 1.000000000000000000 ) ) ;
#59 = CARTESIAN_POINT ( 'NONE',  ( 0.0000000000000000000, 17.00000000000000000, 10.49999999999999112 ) ) ;
#60 = DIRECTION ( 'NONE',  ( -0.0000000000000000000, 1.000000000000000000, -0.0000000000000000000 ) ) ;
#61 = SURFACE_STYLE_FILL_AREA ( #308 ) ;
#62 = DIRECTION ( 'NONE',  ( -0.0000000000000000000, 1.000000000000000000, -0.0000000000000000000 ) ) ;
#63 = DIRECTION ( 'NONE',  ( 0.0000000000000000000, 0.0000000000000000000, 1.000000000000000000 ) ) ;
#64 = AXIS2_PLACEMENT_3D ( 'NONE', #182, #71, #95 ) ;
#65 =( NAMED_UNIT ( * ) SI_UNIT ( $, .STERADIAN. ) SOLID_ANGLE_UNIT ( ) );
#66 = DIRECTION ( 'NONE',  ( 0.0000000000000000000, 0.0000000000000000000, 1.000000000000000000 ) ) ;
#67 = CARTESIAN_POINT ( 'NONE',  ( 0.0000000000000000000, 2.000000000000000000, 0.0000000000000000000 ) ) ;
#68 = EDGE_CURVE ( 'NONE', #277, #123, #264, .T. ) ;
#69 = ORIENTED_EDGE ( 'NONE', *, *, #284, .T. ) ;
#70 = ADVANCED_FACE ( 'NONE', ( #250 ), #327, .F. ) ;
#71 = DIRECTION ( 'NONE',  ( 0.0000000000000000000, 1.000000000000000000, 0.0000000000000000000 ) ) ;
#72 = EDGE_CURVE ( 'NONE', #80, #146, #37, .T. ) ;
#73 = AXIS2_PLACEMENT_3D ( 'NONE', #202, #364, #258 ) ;
#74 = LINE ( 'NONE', #208, #302 ) ;
#75 = CIRCLE ( 'NONE', #22, 25.00000000000000000 ) ;
#76 = ADVANCED_FACE ( 'NONE', ( #244, #97 ), #221, .T. ) ;
#77 = STYLED_ITEM ( 'NONE', ( #352 ), #70 ) ;
#78 = COLOUR_RGB ( '',0.6980392156862744724, 0.6980392156862744724, 0.6980392156862744724 ) ;
#79 = FACE_OUTER_BOUND ( 'NONE', #256, .T. ) ;
#80 = VERTEX_POINT ( 'NONE', #247 ) ;
#81 = DIRECTION ( 'NONE',  ( -0.0000000000000000000, 1.000000000000000000, -0.0000000000000000000 ) ) ;
#82 = SURFACE_STYLE_FILL_AREA ( #224 ) ;
#83 = ORIENTED_EDGE ( 'NONE', *, *, #68, .T. ) ;
#84 = FILL_AREA_STYLE_COLOUR ( '', #116 ) ;
#85 = AXIS2_PLACEMENT_3D ( 'NONE', #174, #62, #293 ) ;
#86 = ORIENTED_EDGE ( 'NONE', *, *, #324, .T. ) ;
#87 = DIRECTION ( 'NONE',  ( -0.0000000000000000000, 1.000000000000000000, -0.0000000000000000000 ) ) ;
#88 = DIRECTION ( 'NONE',  ( -0.0000000000000000000, -1.000000000000000000, -0.0000000000000000000 ) ) ;
#89 = DIRECTION ( 'NONE',  ( 0.0000000000000000000, 0.0000000000000000000, -1.000000000000000000 ) ) ;
#90 = VERTEX_POINT ( 'NONE', #49 ) ;
#91 = SURFACE_STYLE_USAGE ( .BOTH. , #261 ) ;
#92 = DIRECTION ( 'NONE',  ( 0.0000000000000000000, -0.9848077530122087975, -0.1736481776669268895 ) ) ;
#93 = SURFACE_STYLE_FILL_AREA ( #344 ) ;
#94 = DIRECTION ( 'NONE',  ( 0.0000000000000000000, 1.000000000000000000, 0.0000000000000000000 ) ) ;
#95 = DIRECTION ( 'NONE',  ( 0.0000000000000000000, -0.0000000000000000000, 1.000000000000000000 ) ) ;
#96 = CARTESIAN_POINT ( 'NONE',  ( 0.0000000000000000000, 0.0000000000000000000, 0.0000000000000000000 ) ) ;
#97 = FACE_OUTER_BOUND ( 'NONE', #289, .T. ) ;
#98 = ORIENTED_EDGE ( 'NONE', *, *, #72, .T. ) ;
#99 = CYLINDRICAL_SURFACE ( 'NONE', #316, 25.00000000000000000 ) ;
#100 = ORIENTED_EDGE ( 'NONE', *, *, #68, .F. ) ;
#101 = EDGE_CURVE ( 'NONE', #21, #90, #228, .T. ) ;
#102 = CARTESIAN_POINT ( 'NONE',  ( 0.0000000000000000000, 17.00000000000000000, 0.0000000000000000000 ) ) ;
#103 = CARTESIAN_POINT ( 'NONE',  ( 0.0000000000000000000, 7.000000000000006217, 0.0000000000000000000 ) ) ;
#104 =( GEOMETRIC_REPRESENTATION_CONTEXT ( 3 ) GLOBAL_UNCERTAINTY_ASSIGNED_CONTEXT ( ( #108 ) ) GLOBAL_UNIT_ASSIGNED_CONTEXT ( ( #19, #45, #134 ) ) REPRESENTATION_CONTEXT ( 'NONE', 'WORKASPACE' ) );
#105 = DIRECTION ( 'NONE',  ( -0.0000000000000000000, 1.000000000000000000, -0.0000000000000000000 ) ) ;
#106 = CARTESIAN_POINT ( 'NONE',  ( 0.0000000000000000000, 17.00000000000000000, 0.0000000000000000000 ) ) ;
#107 = DIRECTION ( 'NONE',  ( -0.0000000000000000000, -1.000000000000000000, -0.0000000000000000000 ) ) ;
#108 = UNCERTAINTY_MEASURE_WITH_UNIT (LENGTH_MEASURE( 1.000000000000000082E-05 ), #19, 'distance_accuracy_value', 'NONE');
#109 =( LENGTH_UNIT ( ) NAMED_UNIT ( * ) SI_UNIT ( .MILLI., .METRE. ) );
#110 = EDGE_CURVE ( 'NONE', #333, #212, #222, .T. ) ;
#111 = CARTESIAN_POINT ( 'NONE',  ( 1.285879139104720042E-15, 17.00000000000000000, -10.49999999999999112 ) ) ;
#112 = FACE_OUTER_BOUND ( 'NONE', #184, .T. ) ;
#113 = AXIS2_PLACEMENT_3D ( 'NONE', #251, #196, #58 ) ;
#114 = DIRECTION ( 'NONE',  ( 0.0000000000000000000, 0.0000000000000000000, 1.000000000000000000 ) ) ;
#115 = EDGE_CURVE ( 'NONE', #127, #146, #155, .T. ) ;
#116 = COLOUR_RGB ( '',0.6980392156862744724, 0.6980392156862744724, 0.6980392156862744724 ) ;
#117 = DIRECTION ( 'NONE',  ( 0.0000000000000000000, 0.0000000000000000000, 1.000000000000000000 ) ) ;
#118 = PRODUCT_DEFINITION_FORMATION_WITH_SPECIFIED_SOURCE ( 'ANY', '', #197, .NOT_KNOWN. ) ;
#119 = DIRECTION ( 'NONE',  ( 0.0000000000000000000, 1.000000000000000000, 0.0000000000000000000 ) ) ;
#120 =( NAMED_UNIT ( * ) PLANE_ANGLE_UNIT ( ) SI_UNIT ( $, .RADIAN. ) );
#121 = FILL_AREA_STYLE_COLOUR ( '', #78 ) ;
#122 = PRESENTATION_STYLE_ASSIGNMENT (( #31 ) ) ;
#123 = VERTEX_POINT ( 'NONE', #246 ) ;
#124 = ADVANCED_FACE ( 'NONE', ( #112 ), #294, .T. ) ;
#125 = ADVANCED_FACE ( 'NONE', ( #157 ), #332, .T. ) ;
#126 = ORIENTED_EDGE ( 'NONE', *, *, #265, .F. ) ;
#127 = VERTEX_POINT ( 'NONE', #168 ) ;
#128 = ADVANCED_FACE ( 'NONE', ( #275 ), #271, .T. ) ;
#129 = ORIENTED_EDGE ( 'NONE', *, *, #265, .T. ) ;
#130 = VECTOR ( 'NONE', #23, 1000.000000000000000 ) ;
#131 = ORIENTED_EDGE ( 'NONE', *, *, #181, .F. ) ;
#132 = ORIENTED_EDGE ( 'NONE', *, *, #324, .F. ) ;
#133 = MECHANICAL_DESIGN_GEOMETRIC_PRESENTATION_REPRESENTATION (  '', ( #77 ), #104 ) ;
#134 =( NAMED_UNIT ( * ) SI_UNIT ( $, .STERADIAN. ) SOLID_ANGLE_UNIT ( ) );
#135 = CARTESIAN_POINT ( 'NONE',  ( 0.0000000000000000000, 0.0000000000000000000, 0.0000000000000000000 ) ) ;
#136 = ORIENTED_EDGE ( 'NONE', *, *, #101, .T. ) ;
#137 = DIRECTION ( 'NONE',  ( 0.0000000000000000000, 0.0000000000000000000, 1.000000000000000000 ) ) ;
#138 = CARTESIAN_POINT ( 'NONE',  ( 0.0000000000000000000, 17.00000000000000000, 0.0000000000000000000 ) ) ;
#139 =( GEOMETRIC_REPRESENTATION_CONTEXT ( 3 ) GLOBAL_UNCERTAINTY_ASSIGNED_CONTEXT ( ( #153 ) ) GLOBAL_UNIT_ASSIGNED_CONTEXT ( ( #109, #143, #312 ) ) REPRESENTATION_CONTEXT ( 'NONE', 'WORKASPACE' ) );
#140 = DIRECTION ( 'NONE',  ( -0.0000000000000000000, -1.000000000000000000, -0.0000000000000000000 ) ) ;
#141 = EDGE_CURVE ( 'NONE', #123, #277, #199, .T. ) ;
#142 = PRODUCT_DEFINITION_CONTEXT ( 'detailed design', #173, 'design' ) ;
#143 =( NAMED_UNIT ( * ) PLANE_ANGLE_UNIT ( ) SI_UNIT ( $, .RADIAN. ) );
#144 = CARTESIAN_POINT ( 'NONE',  ( 0.0000000000000000000, 0.0000000000000000000, 0.0000000000000000000 ) ) ;
#145 = CIRCLE ( 'NONE', #331, 22.23673019291539177 ) ;
#146 = VERTEX_POINT ( 'NONE', #169 ) ;
#147 = CARTESIAN_POINT ( 'NONE',  ( 0.0000000000000000000, 2.000000000000000000, 0.0000000000000000000 ) ) ;
#148 = CARTESIAN_POINT ( 'NONE',  ( 0.0000000000000000000, 0.0000000000000000000, 0.0000000000000000000 ) ) ;
#149 = CIRCLE ( 'NONE', #47, 25.00000000000000000 ) ;
#150 = CARTESIAN_POINT ( 'NONE',  ( 0.0000000000000000000, 0.0000000000000000000, -25.00000000000000000 ) ) ;
#151 = EDGE_LOOP ( 'NONE', ( #239, #100 ) ) ;
#152 = PRESENTATION_LAYER_ASSIGNMENT (  '', '', ( #300 ) ) ;
#153 = UNCERTAINTY_MEASURE_WITH_UNIT (LENGTH_MEASURE( 1.000000000000000082E-05 ), #109, 'distance_accuracy_value', 'NONE');
#154 = AXIS2_PLACEMENT_3D ( 'NONE', #339, #107, #253 ) ;
#155 = LINE ( 'NONE', #165, #211 ) ;
#156 = ORIENTED_EDGE ( 'NONE', *, *, #214, .T. ) ;
#157 = FACE_OUTER_BOUND ( 'NONE', #188, .T. ) ;
#158 = ORIENTED_EDGE ( 'NONE', *, *, #72, .F. ) ;
#159 = DIRECTION ( 'NONE',  ( 2.126576849575729082E-17, -0.9848077530122087975, 0.1736481776669268895 ) ) ;
#160 = CARTESIAN_POINT ( 'NONE',  ( 0.0000000000000000000, 17.00000000000000000, 0.0000000000000000000 ) ) ;
#161 = CIRCLE ( 'NONE', #172, 24.00000000000000355 ) ;
#162 = EDGE_CURVE ( 'NONE', #90, #123, #215, .T. ) ;
#163 = DIRECTION ( 'NONE',  ( -0.0000000000000000000, -1.000000000000000000, -0.0000000000000000000 ) ) ;
#164 = DIRECTION ( 'NONE',  ( 0.0000000000000000000, 1.000000000000000000, 0.0000000000000000000 ) ) ;
#165 = CARTESIAN_POINT ( 'NONE',  ( 2.723214045425713906E-15, 17.00000000000000000, 22.23673019291539177 ) ) ;
#166 = FILL_AREA_STYLE_COLOUR ( '', #297 ) ;
#167 = LINE ( 'NONE', #367, #42 ) ;
#168 = CARTESIAN_POINT ( 'NONE',  ( 2.831183181689680703E-15, 17.00000000000000000, 22.23673019291539177 ) ) ;
#169 = CARTESIAN_POINT ( 'NONE',  ( 2.939152317953648289E-15, 7.000000000000006217, 24.00000000000000355 ) ) ;
#170 = FACE_OUTER_BOUND ( 'NONE', #373, .T. ) ;
#171 = EDGE_LOOP ( 'NONE', ( #238, #235, #83, #176 ) ) ;
#172 = AXIS2_PLACEMENT_3D ( 'NONE', #67, #296, #262 ) ;
#173 = APPLICATION_CONTEXT ( 'automotive_design' ) ;
#174 = CARTESIAN_POINT ( 'NONE',  ( 0.0000000000000000000, 0.0000000000000000000, 0.0000000000000000000 ) ) ;
#175 =( NAMED_UNIT ( * ) SI_UNIT ( $, .STERADIAN. ) SOLID_ANGLE_UNIT ( ) );
#176 = ORIENTED_EDGE ( 'NONE', *, *, #162, .F. ) ;
#177 = CARTESIAN_POINT ( 'NONE',  ( 0.0000000000000000000, 17.00000000000000000, -22.23673019291539177 ) ) ;
#178 = DIRECTION ( 'NONE',  ( 0.0000000000000000000, 1.000000000000000000, 0.0000000000000000000 ) ) ;
#179 = VECTOR ( 'NONE', #286, 1000.000000000000000 ) ;
#180 =( GEOMETRIC_REPRESENTATION_CONTEXT ( 3 ) GLOBAL_UNCERTAINTY_ASSIGNED_CONTEXT ( ( #371 ) ) GLOBAL_UNIT_ASSIGNED_CONTEXT ( ( #236, #120, #65 ) ) REPRESENTATION_CONTEXT ( 'NONE', 'WORKASPACE' ) );
#181 = EDGE_CURVE ( 'NONE', #17, #340, #149, .T. ) ;
#182 = CARTESIAN_POINT ( 'NONE',  ( 0.0000000000000000000, 17.00000000000000000, 0.0000000000000000000 ) ) ;
#183 = AXIS2_PLACEMENT_3D ( 'NONE', #20, #164, #335 ) ;
#184 = EDGE_LOOP ( 'NONE', ( #223, #213, #219, #307 ) ) ;
#185 = EDGE_CURVE ( 'NONE', #212, #333, #310, .T. ) ;
#186 = AXIS2_PLACEMENT_3D ( 'NONE', #103, #14, #220 ) ;
#187 = DIRECTION ( 'NONE',  ( 0.0000000000000000000, 0.0000000000000000000, 1.000000000000000000 ) ) ;
#188 = EDGE_LOOP ( 'NONE', ( #126, #255, #158, #267 ) ) ;
#189 = DIRECTION ( 'NONE',  ( 0.0000000000000000000, 1.000000000000000000, 0.0000000000000000000 ) ) ;
#190 = DIRECTION ( 'NONE',  ( 0.0000000000000000000, -1.000000000000000000, 0.0000000000000000000 ) ) ;
#191 =( GEOMETRIC_REPRESENTATION_CONTEXT ( 3 ) GLOBAL_UNCERTAINTY_ASSIGNED_CONTEXT ( ( #357 ) ) GLOBAL_UNIT_ASSIGNED_CONTEXT ( ( #319, #230, #234 ) ) REPRESENTATION_CONTEXT ( 'NONE', 'WORKASPACE' ) );
#192 = DIRECTION ( 'NONE',  ( 0.0000000000000000000, -0.0000000000000000000, 1.000000000000000000 ) ) ;
#193 = ORIENTED_EDGE ( 'NONE', *, *, #5, .F. ) ;
#194 = MECHANICAL_DESIGN_GEOMETRIC_PRESENTATION_REPRESENTATION (  '', ( #300 ), #180 ) ;
#195 = CARTESIAN_POINT ( 'NONE',  ( 1.285879139104719844E-15, 17.00000000000000000, -10.49999999999998934 ) ) ;
#196 = DIRECTION ( 'NONE',  ( -0.0000000000000000000, 1.000000000000000000, -0.0000000000000000000 ) ) ;
#197 = PRODUCT ( 'bou', 'bou', '', ( #342 ) ) ;
#198 = CARTESIAN_POINT ( 'NONE',  ( 2.939152317953648289E-15, 17.00000000000000000, 24.00000000000000355 ) ) ;
#199 = CIRCLE ( 'NONE', #113, 10.49999999999998934 ) ;
#200 = EDGE_CURVE ( 'NONE', #146, #56, #254, .T. ) ;
#201 = ORIENTED_EDGE ( 'NONE', *, *, #273, .T. ) ;
#202 = CARTESIAN_POINT ( 'NONE',  ( 0.0000000000000000000, 2.000000000000000000, 0.0000000000000000000 ) ) ;
#203 = CARTESIAN_POINT ( 'NONE',  ( 0.0000000000000000000, 0.0000000000000000000, 0.0000000000000000000 ) ) ;
#204 = MANIFOLD_SOLID_BREP ( 'Trou taraudé M241', #245 ) ;
#205 = EDGE_LOOP ( 'NONE', ( #193, #131 ) ) ;
#206 = PLANE ( 'NONE',  #282 ) ;
#207 = FILL_AREA_STYLE ('',( #121 ) ) ;
#208 = CARTESIAN_POINT ( 'NONE',  ( 3.061616997868383043E-15, 2.000000000000000000, 25.00000000000000000 ) ) ;
#209 = ORIENTED_EDGE ( 'NONE', *, *, #200, .F. ) ;
#210 = VERTEX_POINT ( 'NONE', #24 ) ;
#211 = VECTOR ( 'NONE', #159, 999.9999999999998863 ) ;
#212 = VERTEX_POINT ( 'NONE', #280 ) ;
#213 = ORIENTED_EDGE ( 'NONE', *, *, #284, .F. ) ;
#214 = EDGE_CURVE ( 'NONE', #212, #340, #167, .T. ) ;
#215 = LINE ( 'NONE', #59, #179 ) ;
#216 = ORIENTED_EDGE ( 'NONE', *, *, #338, .T. ) ;
#217 = DIRECTION ( 'NONE',  ( 0.0000000000000000000, 1.000000000000000000, 0.0000000000000000000 ) ) ;
#218 = CARTESIAN_POINT ( 'NONE',  ( 2.939152317953648289E-15, 2.000000000000000000, 24.00000000000000355 ) ) ;
#219 = ORIENTED_EDGE ( 'NONE', *, *, #350, .T. ) ;
#220 = DIRECTION ( 'NONE',  ( 0.0000000000000000000, 0.0000000000000000000, 1.000000000000000000 ) ) ;
#221 = PLANE ( 'NONE',  #241 ) ;
#222 = CIRCLE ( 'NONE', #183, 25.00000000000000000 ) ;
#223 = ORIENTED_EDGE ( 'NONE', *, *, #115, .F. ) ;
#224 = FILL_AREA_STYLE ('',( #55 ) ) ;
#225 = FACE_BOUND ( 'NONE', #151, .T. ) ;
#226 = DIRECTION ( 'NONE',  ( 0.0000000000000000000, 1.000000000000000000, 0.0000000000000000000 ) ) ;
#227 = DIRECTION ( 'NONE',  ( 0.0000000000000000000, 0.0000000000000000000, -1.000000000000000000 ) ) ;
#228 = CIRCLE ( 'NONE', #285, 10.49999999999999645 ) ;
#229 = EDGE_LOOP ( 'NONE', ( #9, #343, #44, #32 ) ) ;
#230 =( NAMED_UNIT ( * ) PLANE_ANGLE_UNIT ( ) SI_UNIT ( $, .RADIAN. ) );
#231 = CARTESIAN_POINT ( 'NONE',  ( 0.0000000000000000000, 17.00000000000000000, 0.0000000000000000000 ) ) ;
#232 = SURFACE_STYLE_FILL_AREA ( #207 ) ;
#233 = CIRCLE ( 'NONE', #85, 10.49999999999999645 ) ;
#234 =( NAMED_UNIT ( * ) SI_UNIT ( $, .STERADIAN. ) SOLID_ANGLE_UNIT ( ) );
#235 = ORIENTED_EDGE ( 'NONE', *, *, #260, .T. ) ;
#236 =( LENGTH_UNIT ( ) NAMED_UNIT ( * ) SI_UNIT ( .MILLI., .METRE. ) );
#237 = ORIENTED_EDGE ( 'NONE', *, *, #181, .T. ) ;
#238 = ORIENTED_EDGE ( 'NONE', *, *, #101, .F. ) ;
#239 = ORIENTED_EDGE ( 'NONE', *, *, #141, .F. ) ;
#240 = ADVANCED_FACE ( 'NONE', ( #79 ), #348, .T. ) ;
#241 = AXIS2_PLACEMENT_3D ( 'NONE', #18, #189, #192 ) ;
#242 = DIRECTION ( 'NONE',  ( 0.0000000000000000000, 0.0000000000000000000, 1.000000000000000000 ) ) ;
#243 = PRESENTATION_STYLE_ASSIGNMENT (( #91 ) ) ;
#244 = FACE_BOUND ( 'NONE', #321, .T. ) ;
#245 = CLOSED_SHELL ( 'NONE', ( #299, #125, #128, #269, #38, #76, #354, #240, #4, #124, #70 ) ) ;
#246 = CARTESIAN_POINT ( 'NONE',  ( 0.0000000000000000000, 17.00000000000000000, 10.49999999999998934 ) ) ;
#247 = CARTESIAN_POINT ( 'NONE',  ( 0.0000000000000000000, 7.000000000000006217, -24.00000000000000355 ) ) ;
#248 = DIRECTION ( 'NONE',  ( 0.0000000000000000000, -1.000000000000000000, 0.0000000000000000000 ) ) ;
#249 = ADVANCED_BREP_SHAPE_REPRESENTATION ( 'bou', ( #204, #355 ), #369 ) ;
#250 = FACE_OUTER_BOUND ( 'NONE', #229, .T. ) ;
#251 = CARTESIAN_POINT ( 'NONE',  ( 0.0000000000000000000, 17.00000000000000000, 0.0000000000000000000 ) ) ;
#252 = AXIS2_PLACEMENT_3D ( 'NONE', #304, #163, #279 ) ;
#253 = DIRECTION ( 'NONE',  ( 0.0000000000000000000, 0.0000000000000000000, -1.000000000000000000 ) ) ;
#254 = LINE ( 'NONE', #198, #130 ) ;
#255 = ORIENTED_EDGE ( 'NONE', *, *, #115, .T. ) ;
#256 = EDGE_LOOP ( 'NONE', ( #209, #366, #201, #86 ) ) ;
#257 = AXIS2_PLACEMENT_3D ( 'NONE', #231, #60, #117 ) ;
#258 = DIRECTION ( 'NONE',  ( 0.0000000000000000000, 0.0000000000000000000, 1.000000000000000000 ) ) ;
#259 = APPLICATION_CONTEXT ( 'automotive_design' ) ;
#260 = EDGE_CURVE ( 'NONE', #21, #277, #36, .T. ) ;
#261 = SURFACE_SIDE_STYLE ('',( #93 ) ) ;
#262 = DIRECTION ( 'NONE',  ( 0.0000000000000000000, 0.0000000000000000000, 1.000000000000000000 ) ) ;
#263 = VECTOR ( 'NONE', #87, 1000.000000000000000 ) ;
#264 = CIRCLE ( 'NONE', #12, 10.49999999999998934 ) ;
#265 = EDGE_CURVE ( 'NONE', #127, #210, #7, .T. ) ;
#266 = CARTESIAN_POINT ( 'NONE',  ( 3.061616997868383043E-15, 0.0000000000000000000, 25.00000000000000000 ) ) ;
#267 = ORIENTED_EDGE ( 'NONE', *, *, #350, .F. ) ;
#268 = AXIS2_PLACEMENT_3D ( 'NONE', #48, #46, #356 ) ;
#269 = ADVANCED_FACE ( 'NONE', ( #27 ), #99, .T. ) ;
#270 = ORIENTED_EDGE ( 'NONE', *, *, #110, .F. ) ;
#271 = CYLINDRICAL_SURFACE ( 'NONE', #336, 24.00000000000000355 ) ;
#272 = ORIENTED_EDGE ( 'NONE', *, *, #200, .T. ) ;
#273 = EDGE_CURVE ( 'NONE', #80, #341, #351, .T. ) ;
#274 = SURFACE_STYLE_USAGE ( .BOTH. , #361 ) ;
#275 = FACE_OUTER_BOUND ( 'NONE', #370, .T. ) ;
#276 = PRESENTATION_LAYER_ASSIGNMENT (  '', '', ( #313 ) ) ;
#277 = VERTEX_POINT ( 'NONE', #195 ) ;
#278 = DIRECTION ( 'NONE',  ( 0.0000000000000000000, -1.000000000000000000, 0.0000000000000000000 ) ) ;
#279 = DIRECTION ( 'NONE',  ( 0.0000000000000000000, 0.0000000000000000000, -1.000000000000000000 ) ) ;
#280 = CARTESIAN_POINT ( 'NONE',  ( 0.0000000000000000000, 2.000000000000000000, -25.00000000000000000 ) ) ;
#281 = ORIENTED_EDGE ( 'NONE', *, *, #273, .F. ) ;
#282 = AXIS2_PLACEMENT_3D ( 'NONE', #148, #94, #345 ) ;
#283 = DIRECTION ( 'NONE',  ( -0.0000000000000000000, -1.000000000000000000, -0.0000000000000000000 ) ) ;
#284 = EDGE_CURVE ( 'NONE', #210, #127, #145, .T. ) ;
#285 = AXIS2_PLACEMENT_3D ( 'NONE', #135, #81, #187 ) ;
#286 = DIRECTION ( 'NONE',  ( -0.0000000000000000000, 1.000000000000000000, -0.0000000000000000000 ) ) ;
#287 = CARTESIAN_POINT ( 'NONE',  ( 0.0000000000000000000, 17.00000000000000000, 0.0000000000000000000 ) ) ;
#288 = CIRCLE ( 'NONE', #40, 24.00000000000000355 ) ;
#289 = EDGE_LOOP ( 'NONE', ( #8, #330 ) ) ;
#290 = CARTESIAN_POINT ( 'NONE',  ( 3.061616997868383043E-15, 2.000000000000000000, 25.00000000000000000 ) ) ;
#291 = ORIENTED_EDGE ( 'NONE', *, *, #346, .T. ) ;
#292 = DIRECTION ( 'NONE',  ( -0.0000000000000000000, -1.000000000000000000, -0.0000000000000000000 ) ) ;
#293 = DIRECTION ( 'NONE',  ( 0.0000000000000000000, 0.0000000000000000000, 1.000000000000000000 ) ) ;
#294 = CONICAL_SURFACE ( 'NONE', #326, 22.23673019291539177, 0.1745329251994294228 ) ;
#295 = ORIENTED_EDGE ( 'NONE', *, *, #3, .F. ) ;
#296 = DIRECTION ( 'NONE',  ( 0.0000000000000000000, 1.000000000000000000, 0.0000000000000000000 ) ) ;
#297 = COLOUR_RGB ( '',0.6980392156862744724, 0.6980392156862744724, 0.6980392156862744724 ) ;
#298 = ORIENTED_EDGE ( 'NONE', *, *, #185, .F. ) ;
#299 = ADVANCED_FACE ( 'NONE', ( #325 ), #1, .F. ) ;
#300 = STYLED_ITEM ( 'NONE', ( #243 ), #299 ) ;
#301 = AXIS2_PLACEMENT_3D ( 'NONE', #287, #311, #362 ) ;
#302 = VECTOR ( 'NONE', #292, 1000.000000000000000 ) ;
#303 = FACE_BOUND ( 'NONE', #365, .T. ) ;
#304 = CARTESIAN_POINT ( 'NONE',  ( 0.0000000000000000000, 2.000000000000000000, 0.0000000000000000000 ) ) ;
#305 = PLANE ( 'NONE',  #64 ) ;
#306 = VECTOR ( 'NONE', #317, 1000.000000000000000 ) ;
#307 = ORIENTED_EDGE ( 'NONE', *, *, #25, .F. ) ;
#308 = FILL_AREA_STYLE ('',( #84 ) ) ;
#309 = FACE_OUTER_BOUND ( 'NONE', #205, .T. ) ;
#310 = CIRCLE ( 'NONE', #73, 25.00000000000000000 ) ;
#311 = DIRECTION ( 'NONE',  ( 0.0000000000000000000, 1.000000000000000000, 0.0000000000000000000 ) ) ;
#312 =( NAMED_UNIT ( * ) SI_UNIT ( $, .STERADIAN. ) SOLID_ANGLE_UNIT ( ) );
#313 = STYLED_ITEM ( 'NONE', ( #53 ), #204 ) ;
#314 = VECTOR ( 'NONE', #92, 999.9999999999998863 ) ;
#315 = EDGE_LOOP ( 'NONE', ( #270, #291, #237, #328 ) ) ;
#316 = AXIS2_PLACEMENT_3D ( 'NONE', #51, #283, #227 ) ;
#317 = DIRECTION ( 'NONE',  ( -0.0000000000000000000, -1.000000000000000000, -0.0000000000000000000 ) ) ;
#318 = DIRECTION ( 'NONE',  ( 1.000000000000000000, 0.0000000000000000000, 0.0000000000000000000 ) ) ;
#319 =( LENGTH_UNIT ( ) NAMED_UNIT ( * ) SI_UNIT ( .MILLI., .METRE. ) );
#320 = SHAPE_DEFINITION_REPRESENTATION ( #39, #249 ) ;
#321 = EDGE_LOOP ( 'NONE', ( #132, #295 ) ) ;
#322 = DIRECTION ( 'NONE',  ( 0.0000000000000000000, 0.0000000000000000000, 1.000000000000000000 ) ) ;
#323 =( LENGTH_UNIT ( ) NAMED_UNIT ( * ) SI_UNIT ( .MILLI., .METRE. ) );
#324 = EDGE_CURVE ( 'NONE', #341, #56, #288, .T. ) ;
#325 = FACE_OUTER_BOUND ( 'NONE', #171, .T. ) ;
#326 = AXIS2_PLACEMENT_3D ( 'NONE', #160, #248, #16 ) ;
#327 = CYLINDRICAL_SURFACE ( 'NONE', #268, 10.49999999999999112 ) ;
#328 = ORIENTED_EDGE ( 'NONE', *, *, #214, .F. ) ;
#329 = PRODUCT_RELATED_PRODUCT_CATEGORY ( 'part', '', ( #197 ) ) ;
#330 = ORIENTED_EDGE ( 'NONE', *, *, #110, .T. ) ;
#331 = AXIS2_PLACEMENT_3D ( 'NONE', #35, #119, #63 ) ;
#332 = CONICAL_SURFACE ( 'NONE', #28, 22.23673019291539177, 0.1745329251994294228 ) ;
#333 = VERTEX_POINT ( 'NONE', #290 ) ;
#334 = LINE ( 'NONE', #177, #314 ) ;
#335 = DIRECTION ( 'NONE',  ( 0.0000000000000000000, 0.0000000000000000000, 1.000000000000000000 ) ) ;
#336 = AXIS2_PLACEMENT_3D ( 'NONE', #138, #140, #89 ) ;
#337 = DIRECTION ( 'NONE',  ( 0.0000000000000000000, 0.0000000000000000000, -1.000000000000000000 ) ) ;
#338 = EDGE_CURVE ( 'NONE', #90, #21, #233, .T. ) ;
#339 = CARTESIAN_POINT ( 'NONE',  ( 0.0000000000000000000, 17.00000000000000000, 0.0000000000000000000 ) ) ;
#340 = VERTEX_POINT ( 'NONE', #150 ) ;
#341 = VERTEX_POINT ( 'NONE', #374 ) ;
#342 = PRODUCT_CONTEXT ( 'NONE', #259, 'mechanical' ) ;
#343 = ORIENTED_EDGE ( 'NONE', *, *, #338, .F. ) ;
#344 = FILL_AREA_STYLE ('',( #166 ) ) ;
#345 = DIRECTION ( 'NONE',  ( 0.0000000000000000000, -0.0000000000000000000, 1.000000000000000000 ) ) ;
#346 = EDGE_CURVE ( 'NONE', #333, #17, #74, .T. ) ;
#347 = PRESENTATION_LAYER_ASSIGNMENT (  '', '', ( #77 ) ) ;
#348 = CYLINDRICAL_SURFACE ( 'NONE', #154, 24.00000000000000355 ) ;
#349 = ORIENTED_EDGE ( 'NONE', *, *, #3, .T. ) ;
#350 = EDGE_CURVE ( 'NONE', #210, #80, #334, .T. ) ;
#351 = LINE ( 'NONE', #368, #306 ) ;
#352 = PRESENTATION_STYLE_ASSIGNMENT (( #274 ) ) ;
#353 = EDGE_LOOP ( 'NONE', ( #2, #298, #156, #50 ) ) ;
#354 = ADVANCED_FACE ( 'NONE', ( #303, #309 ), #206, .F. ) ;
#355 = AXIS2_PLACEMENT_3D ( 'NONE', #144, #66, #318 ) ;
#356 = DIRECTION ( 'NONE',  ( 0.0000000000000000000, 0.0000000000000000000, 1.000000000000000000 ) ) ;
#357 = UNCERTAINTY_MEASURE_WITH_UNIT (LENGTH_MEASURE( 1.000000000000000082E-05 ), #319, 'distance_accuracy_value', 'NONE');
#358 = DIRECTION ( 'NONE',  ( 0.0000000000000000000, 0.0000000000000000000, 1.000000000000000000 ) ) ;
#359 = CARTESIAN_POINT ( 'NONE',  ( 0.0000000000000000000, 7.000000000000006217, 0.0000000000000000000 ) ) ;
#360 = CYLINDRICAL_SURFACE ( 'NONE', #252, 25.00000000000000000 ) ;
#361 = SURFACE_SIDE_STYLE ('',( #61 ) ) ;
#362 = DIRECTION ( 'NONE',  ( 0.0000000000000000000, 0.0000000000000000000, 1.000000000000000000 ) ) ;
#363 = STYLED_ITEM ( 'NONE', ( #122 ), #249 ) ;
#364 = DIRECTION ( 'NONE',  ( 0.0000000000000000000, 1.000000000000000000, 0.0000000000000000000 ) ) ;
#365 = EDGE_LOOP ( 'NONE', ( #216, #136 ) ) ;
#366 = ORIENTED_EDGE ( 'NONE', *, *, #25, .T. ) ;
#367 = CARTESIAN_POINT ( 'NONE',  ( 0.0000000000000000000, 2.000000000000000000, -25.00000000000000000 ) ) ;
#368 = CARTESIAN_POINT ( 'NONE',  ( 0.0000000000000000000, 17.00000000000000000, -24.00000000000000355 ) ) ;
#369 =( GEOMETRIC_REPRESENTATION_CONTEXT ( 3 ) GLOBAL_UNCERTAINTY_ASSIGNED_CONTEXT ( ( #13 ) ) GLOBAL_UNIT_ASSIGNED_CONTEXT ( ( #323, #33, #175 ) ) REPRESENTATION_CONTEXT ( 'NONE', 'WORKASPACE' ) );
#370 = EDGE_LOOP ( 'NONE', ( #98, #272, #349, #281 ) ) ;
#371 = UNCERTAINTY_MEASURE_WITH_UNIT (LENGTH_MEASURE( 1.000000000000000082E-05 ), #236, 'distance_accuracy_value', 'NONE');
#372 = APPLICATION_PROTOCOL_DEFINITION ( 'draft international standard', 'automotive_design', 1998, #173 ) ;
#373 = EDGE_LOOP ( 'NONE', ( #69, #129 ) ) ;
#374 = CARTESIAN_POINT ( 'NONE',  ( 0.0000000000000000000, 2.000000000000000000, -24.00000000000000355 ) ) ;
ENDSEC;
END-ISO-10303-21;
