ISO-10303-21;
HEADER;
FILE_DESCRIPTION (( 'STEP AP214' ),
    '1' );
FILE_NAME ('canon 1 cnc.STEP',
    '2021-06-28T14:50:39',
    ( '' ),
    ( '' ),
    'SwSTEP 2.0',
    'SolidWorks 2020',
    '' );
FILE_SCHEMA (( 'AUTOMOTIVE_DESIGN' ));
ENDSEC;

DATA;
#1 = DIRECTION ( 'NONE',  ( 1.000000000000000000, 0.000000000000000000, 0.000000000000000000 ) ) ;
#2 = EDGE_CURVE ( 'NONE', #332, #214, #105, .T. ) ;
#3 =( NAMED_UNIT ( * ) PLANE_ANGLE_UNIT ( ) SI_UNIT ( $, .RADIAN. ) );
#4 = DIRECTION ( 'NONE',  ( -0.000000000000000000, -0.000000000000000000, -1.000000000000000000 ) ) ;
#5 = VECTOR ( 'NONE', #45, 1000.000000000000000 ) ;
#6 = PRODUCT_DEFINITION_FORMATION_WITH_SPECIFIED_SOURCE ( 'ANY', '', #108, .NOT_KNOWN. ) ;
#7 = DIRECTION ( 'NONE',  ( 1.000000000000000000, 0.000000000000000000, 0.000000000000000000 ) ) ;
#8 = DIRECTION ( 'NONE',  ( 1.000000000000000000, 0.000000000000000000, 0.000000000000000000 ) ) ;
#9 = CARTESIAN_POINT ( 'NONE',  ( 0.000000000000000000, 0.000000000000000000, 71.50000000000001421 ) ) ;
#10 = VERTEX_POINT ( 'NONE', #52 ) ;
#11 =( NAMED_UNIT ( * ) PLANE_ANGLE_UNIT ( ) SI_UNIT ( $, .RADIAN. ) );
#12 = DIRECTION ( 'NONE',  ( 0.000000000000000000, 0.000000000000000000, 1.000000000000000000 ) ) ;
#13 = ORIENTED_EDGE ( 'NONE', *, *, #20, .F. ) ;
#14 = VECTOR ( 'NONE', #299, 1000.000000000000000 ) ;
#15 = PLANE ( 'NONE',  #23 ) ;
#16 = DIRECTION ( 'NONE',  ( 1.000000000000000000, 0.000000000000000000, 0.000000000000000000 ) ) ;
#17 = EDGE_LOOP ( 'NONE', ( #103, #160 ) ) ;
#18 = FACE_OUTER_BOUND ( 'NONE', #315, .T. ) ;
#19 = EDGE_LOOP ( 'NONE', ( #238, #13 ) ) ;
#20 = EDGE_CURVE ( 'NONE', #134, #64, #54, .T. ) ;
#21 = APPLICATION_PROTOCOL_DEFINITION ( 'draft international standard', 'automotive_design', 1998, #233 ) ;
#22 = ORIENTED_EDGE ( 'NONE', *, *, #339, .T. ) ;
#23 = AXIS2_PLACEMENT_3D ( 'NONE', #122, #319, #97 ) ;
#24 = DIRECTION ( 'NONE',  ( 0.000000000000000000, 0.000000000000000000, 1.000000000000000000 ) ) ;
#25 = EDGE_CURVE ( 'NONE', #75, #187, #149, .T. ) ;
#26 = FACE_OUTER_BOUND ( 'NONE', #79, .T. ) ;
#27 = DIRECTION ( 'NONE',  ( 0.000000000000000000, 0.000000000000000000, 1.000000000000000000 ) ) ;
#28 = LINE ( 'NONE', #361, #85 ) ;
#29 = CIRCLE ( 'NONE', #53, 4.000000000000000000 ) ;
#30 =( GEOMETRIC_REPRESENTATION_CONTEXT ( 3 ) GLOBAL_UNCERTAINTY_ASSIGNED_CONTEXT ( ( #300 ) ) GLOBAL_UNIT_ASSIGNED_CONTEXT ( ( #174, #288, #261 ) ) REPRESENTATION_CONTEXT ( 'NONE', 'WORKASPACE' ) );
#31 = ADVANCED_FACE ( 'NONE', ( #142 ), #227, .T. ) ;
#32 = ORIENTED_EDGE ( 'NONE', *, *, #323, .T. ) ;
#33 = DIRECTION ( 'NONE',  ( 1.000000000000000000, 0.000000000000000000, 0.000000000000000000 ) ) ;
#34 = FACE_BOUND ( 'NONE', #366, .T. ) ;
#35 = CARTESIAN_POINT ( 'NONE',  ( 4.000000000000000000, 4.898587196589411843E-16, 48.50000000000000000 ) ) ;
#36 = CYLINDRICAL_SURFACE ( 'NONE', #126, 4.000000000000000000 ) ;
#37 = AXIS2_PLACEMENT_3D ( 'NONE', #248, #87, #317 ) ;
#38 = ORIENTED_EDGE ( 'NONE', *, *, #49, .T. ) ;
#39 =( NAMED_UNIT ( * ) SI_UNIT ( $, .STERADIAN. ) SOLID_ANGLE_UNIT ( ) );
#40 = CARTESIAN_POINT ( 'NONE',  ( 5.500000000000000000, 6.735557395310441037E-16, 48.50000000000000000 ) ) ;
#41 = VERTEX_POINT ( 'NONE', #281 ) ;
#42 = CARTESIAN_POINT ( 'NONE',  ( 4.000000000000000000, 4.898587196589411843E-16, 0.000000000000000000 ) ) ;
#43 = VERTEX_POINT ( 'NONE', #252 ) ;
#44 = SURFACE_SIDE_STYLE ('',( #145 ) ) ;
#45 = DIRECTION ( 'NONE',  ( -0.000000000000000000, -0.000000000000000000, -1.000000000000000000 ) ) ;
#46 = CIRCLE ( 'NONE', #164, 5.500000000000000000 ) ;
#47 = ORIENTED_EDGE ( 'NONE', *, *, #144, .T. ) ;
#48 = CARTESIAN_POINT ( 'NONE',  ( 0.000000000000000000, 0.000000000000000000, 50.00000000000000000 ) ) ;
#49 = EDGE_CURVE ( 'NONE', #209, #214, #89, .T. ) ;
#50 = EDGE_LOOP ( 'NONE', ( #272, #367, #352, #95 ) ) ;
#51 = ORIENTED_EDGE ( 'NONE', *, *, #294, .T. ) ;
#52 = CARTESIAN_POINT ( 'NONE',  ( 5.500000000000000000, 6.735557395310441037E-16, 0.000000000000000000 ) ) ;
#53 = AXIS2_PLACEMENT_3D ( 'NONE', #66, #295, #211 ) ;
#54 = CIRCLE ( 'NONE', #292, 6.500000000000000888 ) ;
#55 = CARTESIAN_POINT ( 'NONE',  ( 0.000000000000000000, 0.000000000000000000, 48.50000000000000000 ) ) ;
#56 = ADVANCED_FACE ( 'NONE', ( #62, #342 ), #114, .F. ) ;
#57 = PLANE ( 'NONE',  #167 ) ;
#58 = CARTESIAN_POINT ( 'NONE',  ( -5.500000000000000000, 0.000000000000000000, 0.000000000000000000 ) ) ;
#59 = CARTESIAN_POINT ( 'NONE',  ( -5.500000000000000000, 0.000000000000000000, 71.50000000000001421 ) ) ;
#60 = AXIS2_PLACEMENT_3D ( 'NONE', #9, #12, #7 ) ;
#61 = ORIENTED_EDGE ( 'NONE', *, *, #320, .T. ) ;
#62 = FACE_BOUND ( 'NONE', #297, .T. ) ;
#63 = PRODUCT_DEFINITION_SHAPE ( 'NONE', 'NONE',  #99 ) ;
#64 = VERTEX_POINT ( 'NONE', #286 ) ;
#65 = FILL_AREA_STYLE ('',( #176 ) ) ;
#66 = CARTESIAN_POINT ( 'NONE',  ( 0.000000000000000000, 0.000000000000000000, 0.000000000000000000 ) ) ;
#67 = LINE ( 'NONE', #267, #324 ) ;
#68 = AXIS2_PLACEMENT_3D ( 'NONE', #169, #345, #139 ) ;
#69 = EDGE_LOOP ( 'NONE', ( #269, #242 ) ) ;
#70 = CARTESIAN_POINT ( 'NONE',  ( 0.000000000000000000, 0.000000000000000000, 71.50000000000001421 ) ) ;
#71 = CARTESIAN_POINT ( 'NONE',  ( 6.500000000000000888, 7.960204194457796463E-16, 50.00000000000000000 ) ) ;
#72 = EDGE_LOOP ( 'NONE', ( #217, #235 ) ) ;
#73 =( NAMED_UNIT ( * ) SI_UNIT ( $, .STERADIAN. ) SOLID_ANGLE_UNIT ( ) );
#74 = CYLINDRICAL_SURFACE ( 'NONE', #284, 6.500000000000000888 ) ;
#75 = VERTEX_POINT ( 'NONE', #255 ) ;
#76 = EDGE_CURVE ( 'NONE', #332, #41, #346, .T. ) ;
#77 = LINE ( 'NONE', #184, #341 ) ;
#78 = AXIS2_PLACEMENT_3D ( 'NONE', #370, #222, #196 ) ;
#79 = EDGE_LOOP ( 'NONE', ( #360, #290 ) ) ;
#80 = EDGE_LOOP ( 'NONE', ( #91, #61, #165, #101 ) ) ;
#81 = ORIENTED_EDGE ( 'NONE', *, *, #276, .F. ) ;
#82 = DIRECTION ( 'NONE',  ( 0.000000000000000000, 0.000000000000000000, 1.000000000000000000 ) ) ;
#83 = STYLED_ITEM ( 'NONE', ( #210 ), #359 ) ;
#84 = EDGE_CURVE ( 'NONE', #10, #183, #216, .T. ) ;
#85 = VECTOR ( 'NONE', #232, 1000.000000000000000 ) ;
#86 = DIRECTION ( 'NONE',  ( -1.000000000000000000, 0.000000000000000000, 0.000000000000000000 ) ) ;
#87 = DIRECTION ( 'NONE',  ( 0.000000000000000000, 0.000000000000000000, 1.000000000000000000 ) ) ;
#88 = DIRECTION ( 'NONE',  ( 0.000000000000000000, 0.000000000000000000, 1.000000000000000000 ) ) ;
#89 = CIRCLE ( 'NONE', #133, 4.000000000000000000 ) ;
#90 = CARTESIAN_POINT ( 'NONE',  ( 0.000000000000000000, 0.000000000000000000, 50.00000000000000000 ) ) ;
#91 = ORIENTED_EDGE ( 'NONE', *, *, #247, .F. ) ;
#92 = CARTESIAN_POINT ( 'NONE',  ( 5.500000000000000000, 6.735557395310442023E-16, 71.50000000000001421 ) ) ;
#93 = DIRECTION ( 'NONE',  ( 0.000000000000000000, 0.000000000000000000, 1.000000000000000000 ) ) ;
#94 = CARTESIAN_POINT ( 'NONE',  ( -4.000000000000000000, 0.000000000000000000, 0.000000000000000000 ) ) ;
#95 = ORIENTED_EDGE ( 'NONE', *, *, #263, .T. ) ;
#96 = DIRECTION ( 'NONE',  ( -1.000000000000000000, 0.000000000000000000, 0.000000000000000000 ) ) ;
#97 = DIRECTION ( 'NONE',  ( 1.000000000000000000, 0.000000000000000000, -0.000000000000000000 ) ) ;
#98 = CIRCLE ( 'NONE', #307, 5.500000000000000000 ) ;
#99 = PRODUCT_DEFINITION ( 'UNKNOWN', '', #6, #358 ) ;
#100 = FACE_OUTER_BOUND ( 'NONE', #189, .T. ) ;
#101 = ORIENTED_EDGE ( 'NONE', *, *, #215, .F. ) ;
#102 = DIRECTION ( 'NONE',  ( 0.000000000000000000, 0.000000000000000000, 1.000000000000000000 ) ) ;
#103 = ORIENTED_EDGE ( 'NONE', *, *, #190, .F. ) ;
#104 = DIRECTION ( 'NONE',  ( -1.000000000000000000, 0.000000000000000000, 0.000000000000000000 ) ) ;
#105 = LINE ( 'NONE', #219, #246 ) ;
#106 = EDGE_LOOP ( 'NONE', ( #306, #51, #157, #153 ) ) ;
#107 = CYLINDRICAL_SURFACE ( 'NONE', #68, 5.500000000000000000 ) ;
#108 = PRODUCT ( 'canon 1 cnc', 'canon 1 cnc', '', ( #132 ) ) ;
#109 = AXIS2_PLACEMENT_3D ( 'NONE', #351, #120, #260 ) ;
#110 = PRESENTATION_LAYER_ASSIGNMENT (  '', '', ( #83 ) ) ;
#111 = ADVANCED_FACE ( 'NONE', ( #115, #34 ), #57, .F. ) ;
#112 = PLANE ( 'NONE',  #78 ) ;
#113 = AXIS2_PLACEMENT_3D ( 'NONE', #158, #322, #175 ) ;
#114 = PLANE ( 'NONE',  #372 ) ;
#115 = FACE_OUTER_BOUND ( 'NONE', #69, .T. ) ;
#116 = FACE_OUTER_BOUND ( 'NONE', #336, .T. ) ;
#117 = CARTESIAN_POINT ( 'NONE',  ( -5.500000000000000000, 0.000000000000000000, 71.50000000000001421 ) ) ;
#118 = CYLINDRICAL_SURFACE ( 'NONE', #310, 5.500000000000000000 ) ;
#119 = ADVANCED_FACE ( 'NONE', ( #116 ), #107, .T. ) ;
#120 = DIRECTION ( 'NONE',  ( 0.000000000000000000, 0.000000000000000000, 1.000000000000000000 ) ) ;
#121 = CARTESIAN_POINT ( 'NONE',  ( 0.000000000000000000, 0.000000000000000000, 0.000000000000000000 ) ) ;
#122 = CARTESIAN_POINT ( 'NONE',  ( 0.000000000000000000, 0.000000000000000000, 50.00000000000000000 ) ) ;
#123 = EDGE_CURVE ( 'NONE', #328, #318, #277, .T. ) ;
#124 = ORIENTED_EDGE ( 'NONE', *, *, #25, .F. ) ;
#125 = DIRECTION ( 'NONE',  ( 1.000000000000000000, 0.000000000000000000, 0.000000000000000000 ) ) ;
#126 = AXIS2_PLACEMENT_3D ( 'NONE', #150, #349, #152 ) ;
#127 = ORIENTED_EDGE ( 'NONE', *, *, #264, .F. ) ;
#128 = CARTESIAN_POINT ( 'NONE',  ( 0.000000000000000000, 0.000000000000000000, 71.50000000000001421 ) ) ;
#129 = ORIENTED_EDGE ( 'NONE', *, *, #348, .T. ) ;
#130 = CYLINDRICAL_SURFACE ( 'NONE', #159, 5.500000000000000000 ) ;
#131 = VERTEX_POINT ( 'NONE', #59 ) ;
#132 = PRODUCT_CONTEXT ( 'NONE', #233, 'mechanical' ) ;
#133 = AXIS2_PLACEMENT_3D ( 'NONE', #344, #88, #343 ) ;
#134 = VERTEX_POINT ( 'NONE', #201 ) ;
#135 = DIRECTION ( 'NONE',  ( 1.000000000000000000, 0.000000000000000000, 0.000000000000000000 ) ) ;
#136 = EDGE_CURVE ( 'NONE', #131, #163, #309, .T. ) ;
#137 = CLOSED_SHELL ( 'NONE', ( #365, #287, #280, #119, #111, #31, #147, #218, #56, #200, #151, #340 ) ) ;
#138 = FACE_BOUND ( 'NONE', #72, .T. ) ;
#139 = DIRECTION ( 'NONE',  ( -1.000000000000000000, 0.000000000000000000, 0.000000000000000000 ) ) ;
#140 = CIRCLE ( 'NONE', #109, 5.500000000000000000 ) ;
#141 = MECHANICAL_DESIGN_GEOMETRIC_PRESENTATION_REPRESENTATION (  '', ( #83 ), #30 ) ;
#142 = FACE_OUTER_BOUND ( 'NONE', #198, .T. ) ;
#143 = DIRECTION ( 'NONE',  ( 1.000000000000000000, 0.000000000000000000, 0.000000000000000000 ) ) ;
#144 = EDGE_CURVE ( 'NONE', #318, #328, #228, .T. ) ;
#145 = SURFACE_STYLE_FILL_AREA ( #65 ) ;
#146 = CARTESIAN_POINT ( 'NONE',  ( 0.000000000000000000, 0.000000000000000000, 48.50000000000000000 ) ) ;
#147 = ADVANCED_FACE ( 'NONE', ( #194 ), #308, .F. ) ;
#148 =( LENGTH_UNIT ( ) NAMED_UNIT ( * ) SI_UNIT ( .MILLI., .METRE. ) );
#149 = CIRCLE ( 'NONE', #369, 5.500000000000000000 ) ;
#150 = CARTESIAN_POINT ( 'NONE',  ( 0.000000000000000000, 0.000000000000000000, 48.50000000000000000 ) ) ;
#151 = ADVANCED_FACE ( 'NONE', ( #26, #138 ), #112, .T. ) ;
#152 = DIRECTION ( 'NONE',  ( -1.000000000000000000, 0.000000000000000000, 0.000000000000000000 ) ) ;
#153 = ORIENTED_EDGE ( 'NONE', *, *, #188, .F. ) ;
#154 = SURFACE_STYLE_USAGE ( .BOTH. , #44 ) ;
#155 = FACE_OUTER_BOUND ( 'NONE', #334, .T. ) ;
#156 = DIRECTION ( 'NONE',  ( 0.000000000000000000, 0.000000000000000000, 1.000000000000000000 ) ) ;
#157 = ORIENTED_EDGE ( 'NONE', *, *, #20, .T. ) ;
#158 = CARTESIAN_POINT ( 'NONE',  ( 0.000000000000000000, 0.000000000000000000, 48.50000000000000000 ) ) ;
#159 = AXIS2_PLACEMENT_3D ( 'NONE', #270, #363, #104 ) ;
#160 = ORIENTED_EDGE ( 'NONE', *, *, #278, .F. ) ;
#161 = DIRECTION ( 'NONE',  ( 0.000000000000000000, 0.000000000000000000, 1.000000000000000000 ) ) ;
#162 = ORIENTED_EDGE ( 'NONE', *, *, #320, .F. ) ;
#163 = VERTEX_POINT ( 'NONE', #312 ) ;
#164 = AXIS2_PLACEMENT_3D ( 'NONE', #354, #102, #327 ) ;
#165 = ORIENTED_EDGE ( 'NONE', *, *, #278, .T. ) ;
#166 =( GEOMETRIC_REPRESENTATION_CONTEXT ( 3 ) GLOBAL_UNCERTAINTY_ASSIGNED_CONTEXT ( ( #207 ) ) GLOBAL_UNIT_ASSIGNED_CONTEXT ( ( #148, #11, #73 ) ) REPRESENTATION_CONTEXT ( 'NONE', 'WORKASPACE' ) );
#167 = AXIS2_PLACEMENT_3D ( 'NONE', #283, #27, #250 ) ;
#168 = DIRECTION ( 'NONE',  ( -0.000000000000000000, -0.000000000000000000, -1.000000000000000000 ) ) ;
#169 = CARTESIAN_POINT ( 'NONE',  ( 0.000000000000000000, 0.000000000000000000, 48.50000000000000000 ) ) ;
#170 = CARTESIAN_POINT ( 'NONE',  ( 5.500000000000000000, 6.735557395310441037E-16, 48.50000000000000000 ) ) ;
#171 = DIRECTION ( 'NONE',  ( 0.000000000000000000, 0.000000000000000000, 1.000000000000000000 ) ) ;
#172 = SURFACE_STYLE_FILL_AREA ( #254 ) ;
#173 = DIRECTION ( 'NONE',  ( 0.000000000000000000, 0.000000000000000000, 1.000000000000000000 ) ) ;
#174 =( LENGTH_UNIT ( ) NAMED_UNIT ( * ) SI_UNIT ( .MILLI., .METRE. ) );
#175 = DIRECTION ( 'NONE',  ( 1.000000000000000000, 0.000000000000000000, 0.000000000000000000 ) ) ;
#176 = FILL_AREA_STYLE_COLOUR ( '', #325 ) ;
#177 = AXIS2_PLACEMENT_3D ( 'NONE', #289, #195, #1 ) ;
#178 = CARTESIAN_POINT ( 'NONE',  ( -6.500000000000000888, 0.000000000000000000, 50.00000000000000000 ) ) ;
#179 = LINE ( 'NONE', #35, #224 ) ;
#180 = DIRECTION ( 'NONE',  ( -0.000000000000000000, -0.000000000000000000, -1.000000000000000000 ) ) ;
#181 = ORIENTED_EDGE ( 'NONE', *, *, #374, .T. ) ;
#182 = FACE_BOUND ( 'NONE', #17, .T. ) ;
#183 = VERTEX_POINT ( 'NONE', #58 ) ;
#184 = CARTESIAN_POINT ( 'NONE',  ( 6.500000000000000888, 7.960204194457796463E-16, 50.00000000000000000 ) ) ;
#185 = UNCERTAINTY_MEASURE_WITH_UNIT (LENGTH_MEASURE( 1.000000000000000082E-05 ), #321, 'distance_accuracy_value', 'NONE');
#186 = AXIS2_PLACEMENT_3D ( 'NONE', #311, #220, #33 ) ;
#187 = VERTEX_POINT ( 'NONE', #170 ) ;
#188 = EDGE_CURVE ( 'NONE', #328, #64, #28, .T. ) ;
#189 = EDGE_LOOP ( 'NONE', ( #304, #47 ) ) ;
#190 = EDGE_CURVE ( 'NONE', #259, #43, #140, .T. ) ;
#191 = ORIENTED_EDGE ( 'NONE', *, *, #190, .T. ) ;
#192 = PRODUCT_RELATED_PRODUCT_CATEGORY ( 'part', '', ( #108 ) ) ;
#193 = CIRCLE ( 'NONE', #113, 6.500000000000000888 ) ;
#194 = FACE_OUTER_BOUND ( 'NONE', #265, .T. ) ;
#195 = DIRECTION ( 'NONE',  ( 0.000000000000000000, 0.000000000000000000, 1.000000000000000000 ) ) ;
#196 = DIRECTION ( 'NONE',  ( 1.000000000000000000, 0.000000000000000000, -0.000000000000000000 ) ) ;
#197 = DIRECTION ( 'NONE',  ( 1.000000000000000000, 0.000000000000000000, 0.000000000000000000 ) ) ;
#198 = EDGE_LOOP ( 'NONE', ( #231, #124, #240, #129 ) ) ;
#199 = AXIS2_PLACEMENT_3D ( 'NONE', #121, #93, #8 ) ;
#200 = ADVANCED_FACE ( 'NONE', ( #206 ), #357, .T. ) ;
#201 = CARTESIAN_POINT ( 'NONE',  ( 6.500000000000000888, 7.960204194457796463E-16, 48.50000000000000000 ) ) ;
#202 = ORIENTED_EDGE ( 'NONE', *, *, #374, .F. ) ;
#203 = DIRECTION ( 'NONE',  ( -1.000000000000000000, 0.000000000000000000, 0.000000000000000000 ) ) ;
#204 = ORIENTED_EDGE ( 'NONE', *, *, #25, .T. ) ;
#205 = FACE_OUTER_BOUND ( 'NONE', #80, .T. ) ;
#206 = FACE_OUTER_BOUND ( 'NONE', #50, .T. ) ;
#207 = UNCERTAINTY_MEASURE_WITH_UNIT (LENGTH_MEASURE( 1.000000000000000082E-05 ), #148, 'distance_accuracy_value', 'NONE');
#208 = DIRECTION ( 'NONE',  ( 1.000000000000000000, 0.000000000000000000, 0.000000000000000000 ) ) ;
#209 = VERTEX_POINT ( 'NONE', #42 ) ;
#210 = PRESENTATION_STYLE_ASSIGNMENT (( #326 ) ) ;
#211 = DIRECTION ( 'NONE',  ( 1.000000000000000000, 0.000000000000000000, 0.000000000000000000 ) ) ;
#212 = ORIENTED_EDGE ( 'NONE', *, *, #276, .T. ) ;
#213 = DIRECTION ( 'NONE',  ( -0.000000000000000000, -0.000000000000000000, -1.000000000000000000 ) ) ;
#214 = VERTEX_POINT ( 'NONE', #94 ) ;
#215 = EDGE_CURVE ( 'NONE', #131, #259, #234, .T. ) ;
#216 = CIRCLE ( 'NONE', #186, 5.500000000000000000 ) ;
#217 = ORIENTED_EDGE ( 'NONE', *, *, #76, .F. ) ;
#218 = ADVANCED_FACE ( 'NONE', ( #182, #100 ), #15, .T. ) ;
#219 = CARTESIAN_POINT ( 'NONE',  ( -4.000000000000000000, 0.000000000000000000, 48.50000000000000000 ) ) ;
#220 = DIRECTION ( 'NONE',  ( 0.000000000000000000, 0.000000000000000000, 1.000000000000000000 ) ) ;
#221 = CIRCLE ( 'NONE', #60, 4.000000000000000000 ) ;
#222 = DIRECTION ( 'NONE',  ( 0.000000000000000000, 0.000000000000000000, 1.000000000000000000 ) ) ;
#223 = AXIS2_PLACEMENT_3D ( 'NONE', #253, #313, #86 ) ;
#224 = VECTOR ( 'NONE', #356, 1000.000000000000000 ) ;
#225 = DIRECTION ( 'NONE',  ( 1.000000000000000000, 0.000000000000000000, -0.000000000000000000 ) ) ;
#226 = DIRECTION ( 'NONE',  ( 0.000000000000000000, 0.000000000000000000, 1.000000000000000000 ) ) ;
#227 = CYLINDRICAL_SURFACE ( 'NONE', #223, 5.500000000000000000 ) ;
#228 = CIRCLE ( 'NONE', #302, 6.500000000000000888 ) ;
#229 = AXIS2_PLACEMENT_3D ( 'NONE', #296, #156, #16 ) ;
#230 = CARTESIAN_POINT ( 'NONE',  ( 0.000000000000000000, 0.000000000000000000, 50.00000000000000000 ) ) ;
#231 = ORIENTED_EDGE ( 'NONE', *, *, #339, .F. ) ;
#232 = DIRECTION ( 'NONE',  ( -0.000000000000000000, -0.000000000000000000, -1.000000000000000000 ) ) ;
#233 = APPLICATION_CONTEXT ( 'automotive_design' ) ;
#234 = LINE ( 'NONE', #117, #5 ) ;
#235 = ORIENTED_EDGE ( 'NONE', *, *, #323, .F. ) ;
#236 = DIRECTION ( 'NONE',  ( 0.000000000000000000, 0.000000000000000000, 1.000000000000000000 ) ) ;
#237 =( GEOMETRIC_REPRESENTATION_CONTEXT ( 3 ) GLOBAL_UNCERTAINTY_ASSIGNED_CONTEXT ( ( #185 ) ) GLOBAL_UNIT_ASSIGNED_CONTEXT ( ( #321, #3, #39 ) ) REPRESENTATION_CONTEXT ( 'NONE', 'WORKASPACE' ) );
#238 = ORIENTED_EDGE ( 'NONE', *, *, #263, .F. ) ;
#239 = CARTESIAN_POINT ( 'NONE',  ( -5.500000000000000000, 0.000000000000000000, 50.00000000000000000 ) ) ;
#240 = ORIENTED_EDGE ( 'NONE', *, *, #264, .T. ) ;
#241 = DIRECTION ( 'NONE',  ( -0.000000000000000000, -0.000000000000000000, -1.000000000000000000 ) ) ;
#242 = ORIENTED_EDGE ( 'NONE', *, *, #84, .F. ) ;
#243 = AXIS2_PLACEMENT_3D ( 'NONE', #55, #168, #279 ) ;
#244 = ORIENTED_EDGE ( 'NONE', *, *, #76, .T. ) ;
#245 = ORIENTED_EDGE ( 'NONE', *, *, #215, .T. ) ;
#246 = VECTOR ( 'NONE', #337, 1000.000000000000000 ) ;
#247 = EDGE_CURVE ( 'NONE', #163, #131, #257, .T. ) ;
#248 = CARTESIAN_POINT ( 'NONE',  ( 0.000000000000000000, 0.000000000000000000, 71.50000000000001421 ) ) ;
#249 = APPLICATION_CONTEXT ( 'automotive_design' ) ;
#250 = DIRECTION ( 'NONE',  ( 1.000000000000000000, 0.000000000000000000, -0.000000000000000000 ) ) ;
#251 = AXIS2_PLACEMENT_3D ( 'NONE', #128, #161, #125 ) ;
#252 = CARTESIAN_POINT ( 'NONE',  ( 5.500000000000000000, 6.735557395310442023E-16, 50.00000000000000000 ) ) ;
#253 = CARTESIAN_POINT ( 'NONE',  ( 0.000000000000000000, 0.000000000000000000, 48.50000000000000000 ) ) ;
#254 = FILL_AREA_STYLE ('',( #350 ) ) ;
#255 = CARTESIAN_POINT ( 'NONE',  ( -5.500000000000000000, 0.000000000000000000, 48.50000000000000000 ) ) ;
#256 = ORIENTED_EDGE ( 'NONE', *, *, #136, .F. ) ;
#257 = CIRCLE ( 'NONE', #251, 5.500000000000000000 ) ;
#258 = LINE ( 'NONE', #92, #14 ) ;
#259 = VERTEX_POINT ( 'NONE', #239 ) ;
#260 = DIRECTION ( 'NONE',  ( 1.000000000000000000, 0.000000000000000000, 0.000000000000000000 ) ) ;
#261 =( NAMED_UNIT ( * ) SI_UNIT ( $, .STERADIAN. ) SOLID_ANGLE_UNIT ( ) );
#262 = LINE ( 'NONE', #40, #266 ) ;
#263 = EDGE_CURVE ( 'NONE', #64, #134, #193, .T. ) ;
#264 = EDGE_CURVE ( 'NONE', #75, #183, #67, .T. ) ;
#265 = EDGE_LOOP ( 'NONE', ( #202, #32, #301, #305 ) ) ;
#266 = VECTOR ( 'NONE', #241, 1000.000000000000000 ) ;
#267 = CARTESIAN_POINT ( 'NONE',  ( -5.500000000000000000, 0.000000000000000000, 48.50000000000000000 ) ) ;
#268 = EDGE_CURVE ( 'NONE', #187, #75, #46, .T. ) ;
#269 = ORIENTED_EDGE ( 'NONE', *, *, #348, .F. ) ;
#270 = CARTESIAN_POINT ( 'NONE',  ( 0.000000000000000000, 0.000000000000000000, 71.50000000000001421 ) ) ;
#271 = APPLICATION_PROTOCOL_DEFINITION ( 'draft international standard', 'automotive_design', 1998, #249 ) ;
#272 = ORIENTED_EDGE ( 'NONE', *, *, #294, .F. ) ;
#273 = ORIENTED_EDGE ( 'NONE', *, *, #84, .T. ) ;
#274 = AXIS2_PLACEMENT_3D ( 'NONE', #90, #226, #197 ) ;
#275 = CARTESIAN_POINT ( 'NONE',  ( 0.000000000000000000, 0.000000000000000000, 48.50000000000000000 ) ) ;
#276 = EDGE_CURVE ( 'NONE', #214, #209, #29, .T. ) ;
#277 = CIRCLE ( 'NONE', #274, 6.500000000000000888 ) ;
#278 = EDGE_CURVE ( 'NONE', #43, #259, #98, .T. ) ;
#279 = DIRECTION ( 'NONE',  ( -1.000000000000000000, 0.000000000000000000, 0.000000000000000000 ) ) ;
#280 = ADVANCED_FACE ( 'NONE', ( #155 ), #36, .F. ) ;
#281 = CARTESIAN_POINT ( 'NONE',  ( 4.000000000000000000, 4.898587196589411843E-16, 71.50000000000001421 ) ) ;
#282 = ADVANCED_BREP_SHAPE_REPRESENTATION ( 'canon 1 cnc', ( #359, #229 ), #237 ) ;
#283 = CARTESIAN_POINT ( 'NONE',  ( 0.000000000000000000, 0.000000000000000000, 0.000000000000000000 ) ) ;
#284 = AXIS2_PLACEMENT_3D ( 'NONE', #303, #213, #333 ) ;
#285 = STYLED_ITEM ( 'NONE', ( #329 ), #282 ) ;
#286 = CARTESIAN_POINT ( 'NONE',  ( -6.500000000000000888, 0.000000000000000000, 48.50000000000000000 ) ) ;
#287 = ADVANCED_FACE ( 'NONE', ( #330 ), #74, .T. ) ;
#288 =( NAMED_UNIT ( * ) PLANE_ANGLE_UNIT ( ) SI_UNIT ( $, .RADIAN. ) );
#289 = CARTESIAN_POINT ( 'NONE',  ( 0.000000000000000000, 0.000000000000000000, 71.50000000000001421 ) ) ;
#290 = ORIENTED_EDGE ( 'NONE', *, *, #247, .T. ) ;
#291 = DIRECTION ( 'NONE',  ( -0.000000000000000000, -0.000000000000000000, -1.000000000000000000 ) ) ;
#292 = AXIS2_PLACEMENT_3D ( 'NONE', #275, #24, #135 ) ;
#293 = CARTESIAN_POINT ( 'NONE',  ( -4.000000000000000000, 0.000000000000000000, 71.50000000000001421 ) ) ;
#294 = EDGE_CURVE ( 'NONE', #318, #134, #77, .T. ) ;
#295 = DIRECTION ( 'NONE',  ( 0.000000000000000000, 0.000000000000000000, 1.000000000000000000 ) ) ;
#296 = CARTESIAN_POINT ( 'NONE',  ( 0.000000000000000000, 0.000000000000000000, 0.000000000000000000 ) ) ;
#297 = EDGE_LOOP ( 'NONE', ( #204, #364 ) ) ;
#298 = SURFACE_SIDE_STYLE ('',( #172 ) ) ;
#299 = DIRECTION ( 'NONE',  ( -0.000000000000000000, -0.000000000000000000, -1.000000000000000000 ) ) ;
#300 = UNCERTAINTY_MEASURE_WITH_UNIT (LENGTH_MEASURE( 1.000000000000000082E-05 ), #174, 'distance_accuracy_value', 'NONE');
#301 = ORIENTED_EDGE ( 'NONE', *, *, #2, .T. ) ;
#302 = AXIS2_PLACEMENT_3D ( 'NONE', #338, #82, #371 ) ;
#303 = CARTESIAN_POINT ( 'NONE',  ( 0.000000000000000000, 0.000000000000000000, 50.00000000000000000 ) ) ;
#304 = ORIENTED_EDGE ( 'NONE', *, *, #123, .T. ) ;
#305 = ORIENTED_EDGE ( 'NONE', *, *, #49, .F. ) ;
#306 = ORIENTED_EDGE ( 'NONE', *, *, #144, .F. ) ;
#307 = AXIS2_PLACEMENT_3D ( 'NONE', #230, #236, #208 ) ;
#308 = CYLINDRICAL_SURFACE ( 'NONE', #243, 4.000000000000000000 ) ;
#309 = CIRCLE ( 'NONE', #37, 5.500000000000000000 ) ;
#310 = AXIS2_PLACEMENT_3D ( 'NONE', #70, #353, #96 ) ;
#311 = CARTESIAN_POINT ( 'NONE',  ( 0.000000000000000000, 0.000000000000000000, 0.000000000000000000 ) ) ;
#312 = CARTESIAN_POINT ( 'NONE',  ( 5.500000000000000000, 6.735557395310442023E-16, 71.50000000000001421 ) ) ;
#313 = DIRECTION ( 'NONE',  ( -0.000000000000000000, -0.000000000000000000, -1.000000000000000000 ) ) ;
#314 = CIRCLE ( 'NONE', #199, 5.500000000000000000 ) ;
#315 = EDGE_LOOP ( 'NONE', ( #162, #256, #245, #191 ) ) ;
#316 = PRESENTATION_LAYER_ASSIGNMENT (  '', '', ( #285 ) ) ;
#317 = DIRECTION ( 'NONE',  ( 1.000000000000000000, 0.000000000000000000, 0.000000000000000000 ) ) ;
#318 = VERTEX_POINT ( 'NONE', #71 ) ;
#319 = DIRECTION ( 'NONE',  ( 0.000000000000000000, 0.000000000000000000, 1.000000000000000000 ) ) ;
#320 = EDGE_CURVE ( 'NONE', #163, #43, #258, .T. ) ;
#321 =( LENGTH_UNIT ( ) NAMED_UNIT ( * ) SI_UNIT ( .MILLI., .METRE. ) );
#322 = DIRECTION ( 'NONE',  ( 0.000000000000000000, 0.000000000000000000, 1.000000000000000000 ) ) ;
#323 = EDGE_CURVE ( 'NONE', #41, #332, #221, .T. ) ;
#324 = VECTOR ( 'NONE', #180, 1000.000000000000000 ) ;
#325 = COLOUR_RGB ( '',0.7921568627450980005, 0.8196078431372548767, 0.9333333333333333481 ) ;
#326 = SURFACE_STYLE_USAGE ( .BOTH. , #298 ) ;
#327 = DIRECTION ( 'NONE',  ( 1.000000000000000000, 0.000000000000000000, 0.000000000000000000 ) ) ;
#328 = VERTEX_POINT ( 'NONE', #178 ) ;
#329 = PRESENTATION_STYLE_ASSIGNMENT (( #154 ) ) ;
#330 = FACE_OUTER_BOUND ( 'NONE', #106, .T. ) ;
#331 = SHAPE_DEFINITION_REPRESENTATION ( #63, #282 ) ;
#332 = VERTEX_POINT ( 'NONE', #293 ) ;
#333 = DIRECTION ( 'NONE',  ( -1.000000000000000000, 0.000000000000000000, 0.000000000000000000 ) ) ;
#334 = EDGE_LOOP ( 'NONE', ( #244, #181, #81, #347 ) ) ;
#335 = AXIS2_PLACEMENT_3D ( 'NONE', #48, #291, #203 ) ;
#336 = EDGE_LOOP ( 'NONE', ( #362, #22, #273, #127 ) ) ;
#337 = DIRECTION ( 'NONE',  ( -0.000000000000000000, -0.000000000000000000, -1.000000000000000000 ) ) ;
#338 = CARTESIAN_POINT ( 'NONE',  ( 0.000000000000000000, 0.000000000000000000, 50.00000000000000000 ) ) ;
#339 = EDGE_CURVE ( 'NONE', #187, #10, #262, .T. ) ;
#340 = ADVANCED_FACE ( 'NONE', ( #18 ), #130, .T. ) ;
#341 = VECTOR ( 'NONE', #4, 1000.000000000000000 ) ;
#342 = FACE_OUTER_BOUND ( 'NONE', #19, .T. ) ;
#343 = DIRECTION ( 'NONE',  ( 1.000000000000000000, 0.000000000000000000, 0.000000000000000000 ) ) ;
#344 = CARTESIAN_POINT ( 'NONE',  ( 0.000000000000000000, 0.000000000000000000, 0.000000000000000000 ) ) ;
#345 = DIRECTION ( 'NONE',  ( -0.000000000000000000, -0.000000000000000000, -1.000000000000000000 ) ) ;
#346 = CIRCLE ( 'NONE', #177, 4.000000000000000000 ) ;
#347 = ORIENTED_EDGE ( 'NONE', *, *, #2, .F. ) ;
#348 = EDGE_CURVE ( 'NONE', #183, #10, #314, .T. ) ;
#349 = DIRECTION ( 'NONE',  ( -0.000000000000000000, -0.000000000000000000, -1.000000000000000000 ) ) ;
#350 = FILL_AREA_STYLE_COLOUR ( '', #368 ) ;
#351 = CARTESIAN_POINT ( 'NONE',  ( 0.000000000000000000, 0.000000000000000000, 50.00000000000000000 ) ) ;
#352 = ORIENTED_EDGE ( 'NONE', *, *, #188, .T. ) ;
#353 = DIRECTION ( 'NONE',  ( -0.000000000000000000, -0.000000000000000000, -1.000000000000000000 ) ) ;
#354 = CARTESIAN_POINT ( 'NONE',  ( 0.000000000000000000, 0.000000000000000000, 48.50000000000000000 ) ) ;
#355 = MECHANICAL_DESIGN_GEOMETRIC_PRESENTATION_REPRESENTATION (  '', ( #285 ), #166 ) ;
#356 = DIRECTION ( 'NONE',  ( -0.000000000000000000, -0.000000000000000000, -1.000000000000000000 ) ) ;
#357 = CYLINDRICAL_SURFACE ( 'NONE', #335, 6.500000000000000888 ) ;
#358 = PRODUCT_DEFINITION_CONTEXT ( 'detailed design', #249, 'design' ) ;
#359 = MANIFOLD_SOLID_BREP ( 'Boss.-Extru.3', #137 ) ;
#360 = ORIENTED_EDGE ( 'NONE', *, *, #136, .T. ) ;
#361 = CARTESIAN_POINT ( 'NONE',  ( -6.500000000000000888, 0.000000000000000000, 50.00000000000000000 ) ) ;
#362 = ORIENTED_EDGE ( 'NONE', *, *, #268, .F. ) ;
#363 = DIRECTION ( 'NONE',  ( -0.000000000000000000, -0.000000000000000000, -1.000000000000000000 ) ) ;
#364 = ORIENTED_EDGE ( 'NONE', *, *, #268, .T. ) ;
#365 = ADVANCED_FACE ( 'NONE', ( #205 ), #118, .T. ) ;
#366 = EDGE_LOOP ( 'NONE', ( #212, #38 ) ) ;
#367 = ORIENTED_EDGE ( 'NONE', *, *, #123, .F. ) ;
#368 = COLOUR_RGB ( '',0.7921568627450980005, 0.8196078431372548767, 0.9333333333333333481 ) ;
#369 = AXIS2_PLACEMENT_3D ( 'NONE', #146, #171, #143 ) ;
#370 = CARTESIAN_POINT ( 'NONE',  ( 0.000000000000000000, 0.000000000000000000, 71.50000000000001421 ) ) ;
#371 = DIRECTION ( 'NONE',  ( 1.000000000000000000, 0.000000000000000000, 0.000000000000000000 ) ) ;
#372 = AXIS2_PLACEMENT_3D ( 'NONE', #373, #173, #225 ) ;
#373 = CARTESIAN_POINT ( 'NONE',  ( 0.000000000000000000, 0.000000000000000000, 48.50000000000000000 ) ) ;
#374 = EDGE_CURVE ( 'NONE', #41, #209, #179, .T. ) ;
ENDSEC;
END-ISO-10303-21;
