ISO-10303-21;
HEADER;
FILE_DESCRIPTION(('CATIA V5 STEP Exchange'),'2;1');

FILE_NAME('E:\\Users\\Fran\X2\00E7\X0\ois\\Documents\\Astro\\Supports moteurs SP\\Cales_simples.stp','2021-07-14T16:34:17+00:00',('none'),('none'),'CATIA Version 5 Release 18 GA (IN-10)','CATIA V5 STEP AP203','none');

FILE_SCHEMA(('CONFIG_CONTROL_DESIGN'));

ENDSEC;
/* file written by CATIA V5R18 */
DATA;
#5=PRODUCT('Part1','','',(#2)) ;
#1=APPLICATION_CONTEXT('configuration controlled 3D design of mechanical parts and assemblies') ;
#14=PRODUCT_DEFINITION(' ',' ',#6,#3) ;
#16=SECURITY_CLASSIFICATION(' ',' ',#15) ;
#15=SECURITY_CLASSIFICATION_LEVEL('unclassified') ;
#47=CARTESIAN_POINT(' ',(0.,0.,0.)) ;
#52=CARTESIAN_POINT('Axis2P3D Location',(6.,-16.75,-0.1)) ;
#57=CARTESIAN_POINT('Line Origine',(4.57743866718,-15.9728512019,-4.5)) ;
#61=CARTESIAN_POINT('Vertex',(4.57743866718,-15.9728512019,-9.)) ;
#63=CARTESIAN_POINT('Vertex',(4.57743866718,-15.9728512019,-3.60822483003E-016)) ;
#66=CARTESIAN_POINT('Axis2P3D Location',(6.,-16.75,-9.)) ;
#70=CARTESIAN_POINT('Vertex',(7.42256133282,-17.5271487981,-9.)) ;
#73=CARTESIAN_POINT('Line Origine',(7.42256133282,-17.5271487981,-4.5)) ;
#77=CARTESIAN_POINT('Vertex',(7.42256133282,-17.5271487981,-3.60822483003E-016)) ;
#80=CARTESIAN_POINT('Axis2P3D Location',(6.,-16.75,0.)) ;
#92=CARTESIAN_POINT('Axis2P3D Location',(6.,-16.75,-9.)) ;
#97=CARTESIAN_POINT('Axis2P3D Location',(6.,-16.75,0.)) ;
#109=CARTESIAN_POINT('Axis2P3D Location',(-9.5,23.25,0.)) ;
#114=CARTESIAN_POINT('Line Origine',(-9.5,1.06581410364E-014,-9.)) ;
#118=CARTESIAN_POINT('Vertex',(-9.5,23.25,-9.)) ;
#120=CARTESIAN_POINT('Vertex',(-9.5,-23.25,-9.)) ;
#123=CARTESIAN_POINT('Line Origine',(-9.5,-23.25,-4.5)) ;
#127=CARTESIAN_POINT('Vertex',(-9.5,-23.25,0.)) ;
#130=CARTESIAN_POINT('Line Origine',(-9.5,1.06581410364E-014,0.)) ;
#134=CARTESIAN_POINT('Vertex',(-9.5,23.25,0.)) ;
#137=CARTESIAN_POINT('Line Origine',(-9.5,23.25,-4.5)) ;
#149=CARTESIAN_POINT('Axis2P3D Location',(9.5,-23.25,0.)) ;
#154=CARTESIAN_POINT('Line Origine',(-2.6645352591E-014,-23.25,-9.)) ;
#158=CARTESIAN_POINT('Vertex',(9.5,-23.25,-9.)) ;
#161=CARTESIAN_POINT('Line Origine',(9.5,-23.25,-4.5)) ;
#165=CARTESIAN_POINT('Vertex',(9.5,-23.25,0.)) ;
#168=CARTESIAN_POINT('Line Origine',(-2.6645352591E-014,-23.25,0.)) ;
#180=CARTESIAN_POINT('Axis2P3D Location',(9.5,-23.25,0.)) ;
#185=CARTESIAN_POINT('Line Origine',(9.5,3.5527136788E-015,-9.)) ;
#189=CARTESIAN_POINT('Vertex',(9.5,23.25,-9.)) ;
#192=CARTESIAN_POINT('Line Origine',(9.5,23.25,-4.5)) ;
#196=CARTESIAN_POINT('Vertex',(9.5,23.25,0.)) ;
#199=CARTESIAN_POINT('Line Origine',(9.5,3.5527136788E-015,0.)) ;
#211=CARTESIAN_POINT('Axis2P3D Location',(-9.5,23.25,0.)) ;
#216=CARTESIAN_POINT('Line Origine',(3.5527136788E-015,23.25,-9.)) ;
#221=CARTESIAN_POINT('Line Origine',(3.5527136788E-015,23.25,0.)) ;
#233=CARTESIAN_POINT('Axis2P3D Location',(-2.93098878501E-014,13.25,-0.1)) ;
#238=CARTESIAN_POINT('Line Origine',(-2.15753672841,14.4286676867,-4.50000018999)) ;
#242=CARTESIAN_POINT('Vertex',(-2.15753672841,14.4286676867,-9.)) ;
#244=CARTESIAN_POINT('Vertex',(-2.15753672841,14.4286676867,-3.60822483003E-016)) ;
#247=CARTESIAN_POINT('Axis2P3D Location',(-2.93098878501E-014,13.25,-9.)) ;
#251=CARTESIAN_POINT('Vertex',(2.15753672841,12.0713323133,-9.)) ;
#254=CARTESIAN_POINT('Line Origine',(2.15753672841,12.0713323133,-4.50000018999)) ;
#258=CARTESIAN_POINT('Vertex',(2.15753672841,12.0713323133,-3.60822483003E-016)) ;
#261=CARTESIAN_POINT('Axis2P3D Location',(-2.93098878501E-014,13.25,0.)) ;
#273=CARTESIAN_POINT('Axis2P3D Location',(-2.93098878501E-014,13.25,-9.)) ;
#278=CARTESIAN_POINT('Axis2P3D Location',(-2.93098878501E-014,13.25,0.)) ;
#290=CARTESIAN_POINT('Axis2P3D Location',(6.,13.25,-0.1)) ;
#295=CARTESIAN_POINT('Line Origine',(4.57743866718,14.0271487981,-4.5)) ;
#299=CARTESIAN_POINT('Vertex',(4.57743866718,14.0271487981,-9.)) ;
#301=CARTESIAN_POINT('Vertex',(4.57743866718,14.0271487981,-3.60822483003E-016)) ;
#304=CARTESIAN_POINT('Axis2P3D Location',(6.,13.25,-9.)) ;
#308=CARTESIAN_POINT('Vertex',(7.42256133282,12.4728512019,-9.)) ;
#311=CARTESIAN_POINT('Line Origine',(7.42256133282,12.4728512019,-4.5)) ;
#315=CARTESIAN_POINT('Vertex',(7.42256133282,12.4728512019,-3.60822483003E-016)) ;
#318=CARTESIAN_POINT('Axis2P3D Location',(6.,13.25,0.)) ;
#330=CARTESIAN_POINT('Axis2P3D Location',(6.,13.25,-9.)) ;
#335=CARTESIAN_POINT('Axis2P3D Location',(6.,13.25,0.)) ;
#347=CARTESIAN_POINT('Axis2P3D Location',(-6.,13.25,-0.1)) ;
#352=CARTESIAN_POINT('Line Origine',(-4.57743866718,12.4728512019,-4.5)) ;
#356=CARTESIAN_POINT('Vertex',(-4.57743866718,12.4728512019,-9.)) ;
#358=CARTESIAN_POINT('Vertex',(-4.57743866718,12.4728512019,-3.60822483003E-016)) ;
#361=CARTESIAN_POINT('Axis2P3D Location',(-6.,13.25,-9.)) ;
#365=CARTESIAN_POINT('Vertex',(-7.42256133282,14.0271487981,-9.)) ;
#368=CARTESIAN_POINT('Line Origine',(-7.42256133282,14.0271487981,-4.5)) ;
#372=CARTESIAN_POINT('Vertex',(-7.42256133282,14.0271487981,0.)) ;
#375=CARTESIAN_POINT('Axis2P3D Location',(-6.,13.25,0.)) ;
#387=CARTESIAN_POINT('Axis2P3D Location',(-6.,13.25,-9.)) ;
#392=CARTESIAN_POINT('Axis2P3D Location',(-6.,13.25,0.)) ;
#404=CARTESIAN_POINT('Axis2P3D Location',(0.,0.,-9.)) ;
#415=CARTESIAN_POINT('Axis2P3D Location',(-6.,-16.75,-9.)) ;
#419=CARTESIAN_POINT('Vertex',(-7.42256133282,-15.9728512019,-9.)) ;
#421=CARTESIAN_POINT('Vertex',(-4.57743866718,-17.5271487981,-9.)) ;
#424=CARTESIAN_POINT('Axis2P3D Location',(-6.,-16.75,-9.)) ;
#450=CARTESIAN_POINT('Axis2P3D Location',(0.,0.,0.)) ;
#461=CARTESIAN_POINT('Axis2P3D Location',(-6.,-16.75,0.)) ;
#465=CARTESIAN_POINT('Vertex',(-4.57743866718,-17.5271487981,-3.60822483003E-016)) ;
#467=CARTESIAN_POINT('Vertex',(-7.42256133282,-15.9728512019,0.)) ;
#470=CARTESIAN_POINT('Axis2P3D Location',(-6.,-16.75,0.)) ;
#496=CARTESIAN_POINT('Axis2P3D Location',(-6.,-16.75,-0.1)) ;
#501=CARTESIAN_POINT('Line Origine',(-7.42256133282,-15.9728512019,-4.5)) ;
#506=CARTESIAN_POINT('Line Origine',(-4.57743866718,-17.5271487981,-4.5)) ;
#53=DIRECTION('Axis2P3D Direction',(0.,-0.,-1.)) ;
#54=DIRECTION('Axis2P3D XDirection',(0.87758256189,-0.479425538604,0.)) ;
#58=DIRECTION('Vector Direction',(0.,0.,-1.)) ;
#67=DIRECTION('Axis2P3D Direction',(0.,-0.,-1.)) ;
#74=DIRECTION('Vector Direction',(0.,0.,-1.)) ;
#81=DIRECTION('Axis2P3D Direction',(0.,-0.,-1.)) ;
#93=DIRECTION('Axis2P3D Direction',(0.,-0.,-1.)) ;
#98=DIRECTION('Axis2P3D Direction',(0.,-0.,-1.)) ;
#110=DIRECTION('Axis2P3D Direction',(1.,0.,0.)) ;
#111=DIRECTION('Axis2P3D XDirection',(0.,-1.,0.)) ;
#115=DIRECTION('Vector Direction',(0.,-1.,0.)) ;
#124=DIRECTION('Vector Direction',(0.,0.,-1.)) ;
#131=DIRECTION('Vector Direction',(0.,-1.,0.)) ;
#138=DIRECTION('Vector Direction',(0.,0.,-1.)) ;
#150=DIRECTION('Axis2P3D Direction',(-0.,-1.,-0.)) ;
#151=DIRECTION('Axis2P3D XDirection',(-1.,0.,0.)) ;
#155=DIRECTION('Vector Direction',(-1.,0.,0.)) ;
#162=DIRECTION('Vector Direction',(0.,0.,-1.)) ;
#169=DIRECTION('Vector Direction',(-1.,0.,0.)) ;
#181=DIRECTION('Axis2P3D Direction',(-1.,0.,0.)) ;
#182=DIRECTION('Axis2P3D XDirection',(0.,1.,0.)) ;
#186=DIRECTION('Vector Direction',(0.,1.,0.)) ;
#193=DIRECTION('Vector Direction',(0.,0.,-1.)) ;
#200=DIRECTION('Vector Direction',(0.,1.,0.)) ;
#212=DIRECTION('Axis2P3D Direction',(-0.,1.,0.)) ;
#213=DIRECTION('Axis2P3D XDirection',(1.,0.,0.)) ;
#217=DIRECTION('Vector Direction',(1.,0.,0.)) ;
#222=DIRECTION('Vector Direction',(1.,0.,0.)) ;
#234=DIRECTION('Axis2P3D Direction',(0.,-0.,-1.)) ;
#235=DIRECTION('Axis2P3D XDirection',(0.87758256189,-0.479425538604,0.)) ;
#239=DIRECTION('Vector Direction',(0.,0.,-1.)) ;
#248=DIRECTION('Axis2P3D Direction',(0.,-0.,-1.)) ;
#255=DIRECTION('Vector Direction',(0.,0.,-1.)) ;
#262=DIRECTION('Axis2P3D Direction',(0.,-0.,-1.)) ;
#274=DIRECTION('Axis2P3D Direction',(0.,-0.,-1.)) ;
#279=DIRECTION('Axis2P3D Direction',(0.,-0.,-1.)) ;
#291=DIRECTION('Axis2P3D Direction',(0.,-0.,-1.)) ;
#292=DIRECTION('Axis2P3D XDirection',(0.87758256189,-0.479425538604,0.)) ;
#296=DIRECTION('Vector Direction',(0.,0.,-1.)) ;
#305=DIRECTION('Axis2P3D Direction',(0.,-0.,-1.)) ;
#312=DIRECTION('Vector Direction',(0.,0.,-1.)) ;
#319=DIRECTION('Axis2P3D Direction',(0.,-0.,-1.)) ;
#331=DIRECTION('Axis2P3D Direction',(0.,-0.,-1.)) ;
#336=DIRECTION('Axis2P3D Direction',(0.,-0.,-1.)) ;
#348=DIRECTION('Axis2P3D Direction',(0.,0.,-1.)) ;
#349=DIRECTION('Axis2P3D XDirection',(0.87758256189,-0.479425538604,0.)) ;
#353=DIRECTION('Vector Direction',(0.,0.,-1.)) ;
#362=DIRECTION('Axis2P3D Direction',(0.,0.,-1.)) ;
#369=DIRECTION('Vector Direction',(0.,0.,-1.)) ;
#376=DIRECTION('Axis2P3D Direction',(0.,0.,-1.)) ;
#388=DIRECTION('Axis2P3D Direction',(0.,0.,-1.)) ;
#393=DIRECTION('Axis2P3D Direction',(0.,0.,-1.)) ;
#405=DIRECTION('Axis2P3D Direction',(0.,0.,1.)) ;
#406=DIRECTION('Axis2P3D XDirection',(1.,0.,0.)) ;
#416=DIRECTION('Axis2P3D Direction',(0.,0.,1.)) ;
#425=DIRECTION('Axis2P3D Direction',(0.,0.,1.)) ;
#451=DIRECTION('Axis2P3D Direction',(0.,0.,1.)) ;
#452=DIRECTION('Axis2P3D XDirection',(1.,0.,0.)) ;
#462=DIRECTION('Axis2P3D Direction',(0.,0.,1.)) ;
#471=DIRECTION('Axis2P3D Direction',(0.,0.,1.)) ;
#497=DIRECTION('Axis2P3D Direction',(0.,0.,-1.)) ;
#498=DIRECTION('Axis2P3D XDirection',(0.87758256189,-0.479425538604,0.)) ;
#502=DIRECTION('Vector Direction',(0.,0.,-1.)) ;
#507=DIRECTION('Vector Direction',(0.,0.,-1.)) ;
#48=AXIS2_PLACEMENT_3D(' ',#47,$,$) ;
#55=AXIS2_PLACEMENT_3D('Cylinder Axis2P3D',#52,#53,#54) ;
#68=AXIS2_PLACEMENT_3D('Circle Axis2P3D',#66,#67,$) ;
#82=AXIS2_PLACEMENT_3D('Circle Axis2P3D',#80,#81,$) ;
#94=AXIS2_PLACEMENT_3D('Circle Axis2P3D',#92,#93,$) ;
#99=AXIS2_PLACEMENT_3D('Circle Axis2P3D',#97,#98,$) ;
#112=AXIS2_PLACEMENT_3D('Plane Axis2P3D',#109,#110,#111) ;
#152=AXIS2_PLACEMENT_3D('Plane Axis2P3D',#149,#150,#151) ;
#183=AXIS2_PLACEMENT_3D('Plane Axis2P3D',#180,#181,#182) ;
#214=AXIS2_PLACEMENT_3D('Plane Axis2P3D',#211,#212,#213) ;
#236=AXIS2_PLACEMENT_3D('Cylinder Axis2P3D',#233,#234,#235) ;
#249=AXIS2_PLACEMENT_3D('Circle Axis2P3D',#247,#248,$) ;
#263=AXIS2_PLACEMENT_3D('Circle Axis2P3D',#261,#262,$) ;
#275=AXIS2_PLACEMENT_3D('Circle Axis2P3D',#273,#274,$) ;
#280=AXIS2_PLACEMENT_3D('Circle Axis2P3D',#278,#279,$) ;
#293=AXIS2_PLACEMENT_3D('Cylinder Axis2P3D',#290,#291,#292) ;
#306=AXIS2_PLACEMENT_3D('Circle Axis2P3D',#304,#305,$) ;
#320=AXIS2_PLACEMENT_3D('Circle Axis2P3D',#318,#319,$) ;
#332=AXIS2_PLACEMENT_3D('Circle Axis2P3D',#330,#331,$) ;
#337=AXIS2_PLACEMENT_3D('Circle Axis2P3D',#335,#336,$) ;
#350=AXIS2_PLACEMENT_3D('Cylinder Axis2P3D',#347,#348,#349) ;
#363=AXIS2_PLACEMENT_3D('Circle Axis2P3D',#361,#362,$) ;
#377=AXIS2_PLACEMENT_3D('Circle Axis2P3D',#375,#376,$) ;
#389=AXIS2_PLACEMENT_3D('Circle Axis2P3D',#387,#388,$) ;
#394=AXIS2_PLACEMENT_3D('Circle Axis2P3D',#392,#393,$) ;
#407=AXIS2_PLACEMENT_3D('Plane Axis2P3D',#404,#405,#406) ;
#417=AXIS2_PLACEMENT_3D('Circle Axis2P3D',#415,#416,$) ;
#426=AXIS2_PLACEMENT_3D('Circle Axis2P3D',#424,#425,$) ;
#453=AXIS2_PLACEMENT_3D('Plane Axis2P3D',#450,#451,#452) ;
#463=AXIS2_PLACEMENT_3D('Circle Axis2P3D',#461,#462,$) ;
#472=AXIS2_PLACEMENT_3D('Circle Axis2P3D',#470,#471,$) ;
#499=AXIS2_PLACEMENT_3D('Cylinder Axis2P3D',#496,#497,#498) ;
#40=PRODUCT_DEFINITION_SHAPE(' ',' ',#14) ;
#31=APPROVAL_PERSON_ORGANIZATION(#25,#21,#19) ;
#25=PERSON_AND_ORGANIZATION(#22,#23) ;
#22=PERSON(' ',' ',' ',$,$,$) ;
#23=ORGANIZATION(' ',' ',' ') ;
#21=APPROVAL(#20,' ') ;
#20=APPROVAL_STATUS('not_yet_approved') ;
#19=APPROVAL_ROLE('APPROVER') ;
#13=DATE_AND_TIME(#11,#12) ;
#12=LOCAL_TIME(18,34,17.,#10) ;
#10=COORDINATED_UNIVERSAL_TIME_OFFSET(0,0,.AHEAD.) ;
#86=ORIENTED_EDGE('',*,*,#65,.F.) ;
#87=ORIENTED_EDGE('',*,*,#72,.F.) ;
#88=ORIENTED_EDGE('',*,*,#79,.T.) ;
#89=ORIENTED_EDGE('',*,*,#84,.T.) ;
#103=ORIENTED_EDGE('',*,*,#79,.F.) ;
#104=ORIENTED_EDGE('',*,*,#96,.F.) ;
#105=ORIENTED_EDGE('',*,*,#65,.T.) ;
#106=ORIENTED_EDGE('',*,*,#101,.T.) ;
#143=ORIENTED_EDGE('',*,*,#122,.T.) ;
#144=ORIENTED_EDGE('',*,*,#129,.F.) ;
#145=ORIENTED_EDGE('',*,*,#136,.F.) ;
#146=ORIENTED_EDGE('',*,*,#141,.T.) ;
#174=ORIENTED_EDGE('',*,*,#160,.T.) ;
#175=ORIENTED_EDGE('',*,*,#167,.F.) ;
#176=ORIENTED_EDGE('',*,*,#172,.F.) ;
#177=ORIENTED_EDGE('',*,*,#129,.T.) ;
#205=ORIENTED_EDGE('',*,*,#191,.T.) ;
#206=ORIENTED_EDGE('',*,*,#198,.F.) ;
#207=ORIENTED_EDGE('',*,*,#203,.F.) ;
#208=ORIENTED_EDGE('',*,*,#167,.T.) ;
#227=ORIENTED_EDGE('',*,*,#220,.T.) ;
#228=ORIENTED_EDGE('',*,*,#141,.F.) ;
#229=ORIENTED_EDGE('',*,*,#225,.F.) ;
#230=ORIENTED_EDGE('',*,*,#198,.T.) ;
#267=ORIENTED_EDGE('',*,*,#246,.F.) ;
#268=ORIENTED_EDGE('',*,*,#253,.F.) ;
#269=ORIENTED_EDGE('',*,*,#260,.T.) ;
#270=ORIENTED_EDGE('',*,*,#265,.T.) ;
#284=ORIENTED_EDGE('',*,*,#260,.F.) ;
#285=ORIENTED_EDGE('',*,*,#277,.F.) ;
#286=ORIENTED_EDGE('',*,*,#246,.T.) ;
#287=ORIENTED_EDGE('',*,*,#282,.T.) ;
#324=ORIENTED_EDGE('',*,*,#303,.F.) ;
#325=ORIENTED_EDGE('',*,*,#310,.F.) ;
#326=ORIENTED_EDGE('',*,*,#317,.T.) ;
#327=ORIENTED_EDGE('',*,*,#322,.T.) ;
#341=ORIENTED_EDGE('',*,*,#317,.F.) ;
#342=ORIENTED_EDGE('',*,*,#334,.F.) ;
#343=ORIENTED_EDGE('',*,*,#303,.T.) ;
#344=ORIENTED_EDGE('',*,*,#339,.T.) ;
#381=ORIENTED_EDGE('',*,*,#360,.F.) ;
#382=ORIENTED_EDGE('',*,*,#367,.F.) ;
#383=ORIENTED_EDGE('',*,*,#374,.T.) ;
#384=ORIENTED_EDGE('',*,*,#379,.T.) ;
#398=ORIENTED_EDGE('',*,*,#374,.F.) ;
#399=ORIENTED_EDGE('',*,*,#391,.F.) ;
#400=ORIENTED_EDGE('',*,*,#360,.T.) ;
#401=ORIENTED_EDGE('',*,*,#396,.T.) ;
#410=ORIENTED_EDGE('',*,*,#220,.F.) ;
#411=ORIENTED_EDGE('',*,*,#191,.F.) ;
#412=ORIENTED_EDGE('',*,*,#160,.F.) ;
#413=ORIENTED_EDGE('',*,*,#122,.F.) ;
#430=ORIENTED_EDGE('',*,*,#423,.T.) ;
#431=ORIENTED_EDGE('',*,*,#428,.T.) ;
#434=ORIENTED_EDGE('',*,*,#72,.T.) ;
#435=ORIENTED_EDGE('',*,*,#96,.T.) ;
#438=ORIENTED_EDGE('',*,*,#367,.T.) ;
#439=ORIENTED_EDGE('',*,*,#391,.T.) ;
#442=ORIENTED_EDGE('',*,*,#310,.T.) ;
#443=ORIENTED_EDGE('',*,*,#334,.T.) ;
#446=ORIENTED_EDGE('',*,*,#253,.T.) ;
#447=ORIENTED_EDGE('',*,*,#277,.T.) ;
#456=ORIENTED_EDGE('',*,*,#136,.T.) ;
#457=ORIENTED_EDGE('',*,*,#172,.T.) ;
#458=ORIENTED_EDGE('',*,*,#203,.T.) ;
#459=ORIENTED_EDGE('',*,*,#225,.T.) ;
#476=ORIENTED_EDGE('',*,*,#469,.F.) ;
#477=ORIENTED_EDGE('',*,*,#474,.F.) ;
#480=ORIENTED_EDGE('',*,*,#101,.F.) ;
#481=ORIENTED_EDGE('',*,*,#84,.F.) ;
#484=ORIENTED_EDGE('',*,*,#396,.F.) ;
#485=ORIENTED_EDGE('',*,*,#379,.F.) ;
#488=ORIENTED_EDGE('',*,*,#339,.F.) ;
#489=ORIENTED_EDGE('',*,*,#322,.F.) ;
#492=ORIENTED_EDGE('',*,*,#282,.F.) ;
#493=ORIENTED_EDGE('',*,*,#265,.F.) ;
#512=ORIENTED_EDGE('',*,*,#505,.F.) ;
#513=ORIENTED_EDGE('',*,*,#428,.F.) ;
#514=ORIENTED_EDGE('',*,*,#510,.T.) ;
#515=ORIENTED_EDGE('',*,*,#469,.T.) ;
#519=ORIENTED_EDGE('',*,*,#510,.F.) ;
#520=ORIENTED_EDGE('',*,*,#423,.F.) ;
#521=ORIENTED_EDGE('',*,*,#505,.T.) ;
#522=ORIENTED_EDGE('',*,*,#474,.T.) ;
#432=FACE_BOUND('',#429,.T.) ;
#436=FACE_BOUND('',#433,.T.) ;
#440=FACE_BOUND('',#437,.T.) ;
#444=FACE_BOUND('',#441,.T.) ;
#448=FACE_BOUND('',#445,.T.) ;
#478=FACE_BOUND('',#475,.T.) ;
#482=FACE_BOUND('',#479,.T.) ;
#486=FACE_BOUND('',#483,.T.) ;
#490=FACE_BOUND('',#487,.T.) ;
#494=FACE_BOUND('',#491,.T.) ;
#51=CLOSED_SHELL('Closed Shell',(#91,#108,#148,#179,#210,#232,#272,#289,#329,#346,#386,#403,#449,#495,#517,#524)) ;
#59=VECTOR('Line Direction',#58,1.) ;
#75=VECTOR('Line Direction',#74,1.) ;
#116=VECTOR('Line Direction',#115,1.) ;
#125=VECTOR('Line Direction',#124,1.) ;
#132=VECTOR('Line Direction',#131,1.) ;
#139=VECTOR('Line Direction',#138,1.) ;
#156=VECTOR('Line Direction',#155,1.) ;
#163=VECTOR('Line Direction',#162,1.) ;
#170=VECTOR('Line Direction',#169,1.) ;
#187=VECTOR('Line Direction',#186,1.) ;
#194=VECTOR('Line Direction',#193,1.) ;
#201=VECTOR('Line Direction',#200,1.) ;
#218=VECTOR('Line Direction',#217,1.) ;
#223=VECTOR('Line Direction',#222,1.) ;
#240=VECTOR('Line Direction',#239,1.) ;
#256=VECTOR('Line Direction',#255,1.) ;
#297=VECTOR('Line Direction',#296,1.) ;
#313=VECTOR('Line Direction',#312,1.) ;
#354=VECTOR('Line Direction',#353,1.) ;
#370=VECTOR('Line Direction',#369,1.) ;
#503=VECTOR('Line Direction',#502,1.) ;
#508=VECTOR('Line Direction',#507,1.) ;
#526=ADVANCED_BREP_SHAPE_REPRESENTATION('NONE',(#525),#46) ;
#49=SHAPE_REPRESENTATION(' ',(#48),#46) ;
#91=ADVANCED_FACE('Corps principal',(#90),#56,.F.) ;
#108=ADVANCED_FACE('Corps principal',(#107),#56,.F.) ;
#148=ADVANCED_FACE('Corps principal',(#147),#113,.F.) ;
#179=ADVANCED_FACE('Corps principal',(#178),#153,.T.) ;
#210=ADVANCED_FACE('Corps principal',(#209),#184,.F.) ;
#232=ADVANCED_FACE('Corps principal',(#231),#215,.T.) ;
#272=ADVANCED_FACE('Corps principal',(#271),#237,.F.) ;
#289=ADVANCED_FACE('Corps principal',(#288),#237,.F.) ;
#329=ADVANCED_FACE('Corps principal',(#328),#294,.F.) ;
#346=ADVANCED_FACE('Corps principal',(#345),#294,.F.) ;
#386=ADVANCED_FACE('Corps principal',(#385),#351,.F.) ;
#403=ADVANCED_FACE('Corps principal',(#402),#351,.F.) ;
#449=ADVANCED_FACE('Corps principal',(#414,#432,#436,#440,#444,#448),#408,.F.) ;
#495=ADVANCED_FACE('Corps principal',(#460,#478,#482,#486,#490,#494),#454,.T.) ;
#517=ADVANCED_FACE('Corps principal',(#516),#500,.F.) ;
#524=ADVANCED_FACE('Corps principal',(#523),#500,.F.) ;
#4=APPLICATION_PROTOCOL_DEFINITION('international standard','config_control_design',1994,#1) ;
#32=APPROVAL_DATE_TIME(#13,#21) ;
#525=MANIFOLD_SOLID_BREP('Corps principal',#51) ;
#11=CALENDAR_DATE(2021,14,7) ;
#30=CC_DESIGN_APPROVAL(#21,(#16,#6,#14)) ;
#18=CC_DESIGN_DATE_AND_TIME_ASSIGNMENT(#13,#17,(#16)) ;
#29=CC_DESIGN_DATE_AND_TIME_ASSIGNMENT(#13,#28,(#14)) ;
#17=DATE_TIME_ROLE('classification_date') ;
#28=DATE_TIME_ROLE('creation_date') ;
#27=CC_DESIGN_PERSON_AND_ORGANIZATION_ASSIGNMENT(#25,#26,(#16)) ;
#33=CC_DESIGN_PERSON_AND_ORGANIZATION_ASSIGNMENT(#25,#34,(#6)) ;
#35=CC_DESIGN_PERSON_AND_ORGANIZATION_ASSIGNMENT(#25,#36,(#6,#14)) ;
#37=CC_DESIGN_PERSON_AND_ORGANIZATION_ASSIGNMENT(#25,#38,(#5)) ;
#26=PERSON_AND_ORGANIZATION_ROLE('classification_officer') ;
#34=PERSON_AND_ORGANIZATION_ROLE('design_supplier') ;
#36=PERSON_AND_ORGANIZATION_ROLE('creator') ;
#38=PERSON_AND_ORGANIZATION_ROLE('design_owner') ;
#39=CC_DESIGN_SECURITY_CLASSIFICATION(#16,(#6)) ;
#69=CIRCLE('generated circle',#68,1.621) ;
#83=CIRCLE('generated circle',#82,1.621) ;
#95=CIRCLE('generated circle',#94,1.621) ;
#100=CIRCLE('generated circle',#99,1.621) ;
#250=CIRCLE('generated circle',#249,2.4585) ;
#264=CIRCLE('generated circle',#263,2.4585) ;
#276=CIRCLE('generated circle',#275,2.4585) ;
#281=CIRCLE('generated circle',#280,2.4585) ;
#307=CIRCLE('generated circle',#306,1.621) ;
#321=CIRCLE('generated circle',#320,1.621) ;
#333=CIRCLE('generated circle',#332,1.621) ;
#338=CIRCLE('generated circle',#337,1.621) ;
#364=CIRCLE('generated circle',#363,1.621) ;
#378=CIRCLE('generated circle',#377,1.621) ;
#390=CIRCLE('generated circle',#389,1.621) ;
#395=CIRCLE('generated circle',#394,1.621) ;
#418=CIRCLE('generated circle',#417,1.621) ;
#427=CIRCLE('generated circle',#426,1.621) ;
#464=CIRCLE('generated circle',#463,1.621) ;
#473=CIRCLE('generated circle',#472,1.621) ;
#527=SHAPE_REPRESENTATION_RELATIONSHIP(' ',' ',#49,#526) ;
#56=CYLINDRICAL_SURFACE('generated cylinder',#55,1.621) ;
#237=CYLINDRICAL_SURFACE('generated cylinder',#236,2.4585) ;
#294=CYLINDRICAL_SURFACE('generated cylinder',#293,1.621) ;
#351=CYLINDRICAL_SURFACE('generated cylinder',#350,1.621) ;
#500=CYLINDRICAL_SURFACE('generated cylinder',#499,1.621) ;
#3=DESIGN_CONTEXT(' ',#1,'design') ;
#65=EDGE_CURVE('',#62,#64,#60,.F.) ;
#72=EDGE_CURVE('',#71,#62,#69,.F.) ;
#79=EDGE_CURVE('',#71,#78,#76,.F.) ;
#84=EDGE_CURVE('',#78,#64,#83,.F.) ;
#96=EDGE_CURVE('',#62,#71,#95,.F.) ;
#101=EDGE_CURVE('',#64,#78,#100,.F.) ;
#122=EDGE_CURVE('',#119,#121,#117,.T.) ;
#129=EDGE_CURVE('',#128,#121,#126,.T.) ;
#136=EDGE_CURVE('',#135,#128,#133,.T.) ;
#141=EDGE_CURVE('',#135,#119,#140,.T.) ;
#160=EDGE_CURVE('',#121,#159,#157,.F.) ;
#167=EDGE_CURVE('',#166,#159,#164,.T.) ;
#172=EDGE_CURVE('',#128,#166,#171,.F.) ;
#191=EDGE_CURVE('',#159,#190,#188,.T.) ;
#198=EDGE_CURVE('',#197,#190,#195,.T.) ;
#203=EDGE_CURVE('',#166,#197,#202,.T.) ;
#220=EDGE_CURVE('',#190,#119,#219,.F.) ;
#225=EDGE_CURVE('',#197,#135,#224,.F.) ;
#246=EDGE_CURVE('',#243,#245,#241,.F.) ;
#253=EDGE_CURVE('',#252,#243,#250,.F.) ;
#260=EDGE_CURVE('',#252,#259,#257,.F.) ;
#265=EDGE_CURVE('',#259,#245,#264,.F.) ;
#277=EDGE_CURVE('',#243,#252,#276,.F.) ;
#282=EDGE_CURVE('',#245,#259,#281,.F.) ;
#303=EDGE_CURVE('',#300,#302,#298,.F.) ;
#310=EDGE_CURVE('',#309,#300,#307,.F.) ;
#317=EDGE_CURVE('',#309,#316,#314,.F.) ;
#322=EDGE_CURVE('',#316,#302,#321,.F.) ;
#334=EDGE_CURVE('',#300,#309,#333,.F.) ;
#339=EDGE_CURVE('',#302,#316,#338,.F.) ;
#360=EDGE_CURVE('',#357,#359,#355,.F.) ;
#367=EDGE_CURVE('',#366,#357,#364,.F.) ;
#374=EDGE_CURVE('',#366,#373,#371,.F.) ;
#379=EDGE_CURVE('',#373,#359,#378,.F.) ;
#391=EDGE_CURVE('',#357,#366,#390,.F.) ;
#396=EDGE_CURVE('',#359,#373,#395,.F.) ;
#423=EDGE_CURVE('',#420,#422,#418,.T.) ;
#428=EDGE_CURVE('',#422,#420,#427,.T.) ;
#469=EDGE_CURVE('',#466,#468,#464,.T.) ;
#474=EDGE_CURVE('',#468,#466,#473,.T.) ;
#505=EDGE_CURVE('',#420,#468,#504,.F.) ;
#510=EDGE_CURVE('',#422,#466,#509,.F.) ;
#85=EDGE_LOOP('',(#86,#87,#88,#89)) ;
#102=EDGE_LOOP('',(#103,#104,#105,#106)) ;
#142=EDGE_LOOP('',(#143,#144,#145,#146)) ;
#173=EDGE_LOOP('',(#174,#175,#176,#177)) ;
#204=EDGE_LOOP('',(#205,#206,#207,#208)) ;
#226=EDGE_LOOP('',(#227,#228,#229,#230)) ;
#266=EDGE_LOOP('',(#267,#268,#269,#270)) ;
#283=EDGE_LOOP('',(#284,#285,#286,#287)) ;
#323=EDGE_LOOP('',(#324,#325,#326,#327)) ;
#340=EDGE_LOOP('',(#341,#342,#343,#344)) ;
#380=EDGE_LOOP('',(#381,#382,#383,#384)) ;
#397=EDGE_LOOP('',(#398,#399,#400,#401)) ;
#409=EDGE_LOOP('',(#410,#411,#412,#413)) ;
#429=EDGE_LOOP('',(#430,#431)) ;
#433=EDGE_LOOP('',(#434,#435)) ;
#437=EDGE_LOOP('',(#438,#439)) ;
#441=EDGE_LOOP('',(#442,#443)) ;
#445=EDGE_LOOP('',(#446,#447)) ;
#455=EDGE_LOOP('',(#456,#457,#458,#459)) ;
#475=EDGE_LOOP('',(#476,#477)) ;
#479=EDGE_LOOP('',(#480,#481)) ;
#483=EDGE_LOOP('',(#484,#485)) ;
#487=EDGE_LOOP('',(#488,#489)) ;
#491=EDGE_LOOP('',(#492,#493)) ;
#511=EDGE_LOOP('',(#512,#513,#514,#515)) ;
#518=EDGE_LOOP('',(#519,#520,#521,#522)) ;
#90=FACE_OUTER_BOUND('',#85,.T.) ;
#107=FACE_OUTER_BOUND('',#102,.T.) ;
#147=FACE_OUTER_BOUND('',#142,.T.) ;
#178=FACE_OUTER_BOUND('',#173,.T.) ;
#209=FACE_OUTER_BOUND('',#204,.T.) ;
#231=FACE_OUTER_BOUND('',#226,.T.) ;
#271=FACE_OUTER_BOUND('',#266,.T.) ;
#288=FACE_OUTER_BOUND('',#283,.T.) ;
#328=FACE_OUTER_BOUND('',#323,.T.) ;
#345=FACE_OUTER_BOUND('',#340,.T.) ;
#385=FACE_OUTER_BOUND('',#380,.T.) ;
#402=FACE_OUTER_BOUND('',#397,.T.) ;
#414=FACE_OUTER_BOUND('',#409,.T.) ;
#460=FACE_OUTER_BOUND('',#455,.T.) ;
#516=FACE_OUTER_BOUND('',#511,.T.) ;
#523=FACE_OUTER_BOUND('',#518,.T.) ;
#45=UNCERTAINTY_MEASURE_WITH_UNIT(LENGTH_MEASURE(0.005),#41,'distance_accuracy_value','CONFUSED CURVE UNCERTAINTY') ;
#60=LINE('Line',#57,#59) ;
#76=LINE('Line',#73,#75) ;
#117=LINE('Line',#114,#116) ;
#126=LINE('Line',#123,#125) ;
#133=LINE('Line',#130,#132) ;
#140=LINE('Line',#137,#139) ;
#157=LINE('Line',#154,#156) ;
#164=LINE('Line',#161,#163) ;
#171=LINE('Line',#168,#170) ;
#188=LINE('Line',#185,#187) ;
#195=LINE('Line',#192,#194) ;
#202=LINE('Line',#199,#201) ;
#219=LINE('Line',#216,#218) ;
#224=LINE('Line',#221,#223) ;
#241=LINE('Line',#238,#240) ;
#257=LINE('Line',#254,#256) ;
#298=LINE('Line',#295,#297) ;
#314=LINE('Line',#311,#313) ;
#355=LINE('Line',#352,#354) ;
#371=LINE('Line',#368,#370) ;
#504=LINE('Line',#501,#503) ;
#509=LINE('Line',#506,#508) ;
#2=MECHANICAL_CONTEXT(' ',#1,'mechanical') ;
#24=PERSONAL_ADDRESS(' ',' ',' ',' ',' ',' ',' ',' ',' ',' ',' ',' ',(#22),' ') ;
#113=PLANE('Plane',#112) ;
#153=PLANE('Plane',#152) ;
#184=PLANE('Plane',#183) ;
#215=PLANE('Plane',#214) ;
#408=PLANE('Plane',#407) ;
#454=PLANE('Plane',#453) ;
#43=PLANE_ANGLE_MEASURE_WITH_UNIT(PLANE_ANGLE_MEASURE(0.0174532925199),#42) ;
#7=PRODUCT_CATEGORY('part',$) ;
#9=PRODUCT_CATEGORY_RELATIONSHIP(' ',' ',#7,#8) ;
#6=PRODUCT_DEFINITION_FORMATION_WITH_SPECIFIED_SOURCE('',' ',#5,.NOT_KNOWN.) ;
#8=PRODUCT_RELATED_PRODUCT_CATEGORY('detail',$,(#5)) ;
#50=SHAPE_DEFINITION_REPRESENTATION(#40,#49) ;
#62=VERTEX_POINT('',#61) ;
#64=VERTEX_POINT('',#63) ;
#71=VERTEX_POINT('',#70) ;
#78=VERTEX_POINT('',#77) ;
#119=VERTEX_POINT('',#118) ;
#121=VERTEX_POINT('',#120) ;
#128=VERTEX_POINT('',#127) ;
#135=VERTEX_POINT('',#134) ;
#159=VERTEX_POINT('',#158) ;
#166=VERTEX_POINT('',#165) ;
#190=VERTEX_POINT('',#189) ;
#197=VERTEX_POINT('',#196) ;
#243=VERTEX_POINT('',#242) ;
#245=VERTEX_POINT('',#244) ;
#252=VERTEX_POINT('',#251) ;
#259=VERTEX_POINT('',#258) ;
#300=VERTEX_POINT('',#299) ;
#302=VERTEX_POINT('',#301) ;
#309=VERTEX_POINT('',#308) ;
#316=VERTEX_POINT('',#315) ;
#357=VERTEX_POINT('',#356) ;
#359=VERTEX_POINT('',#358) ;
#366=VERTEX_POINT('',#365) ;
#373=VERTEX_POINT('',#372) ;
#420=VERTEX_POINT('',#419) ;
#422=VERTEX_POINT('',#421) ;
#466=VERTEX_POINT('',#465) ;
#468=VERTEX_POINT('',#467) ;
#41=(LENGTH_UNIT()NAMED_UNIT(*)SI_UNIT(.MILLI.,.METRE.)) ;
#42=(NAMED_UNIT(*)PLANE_ANGLE_UNIT()SI_UNIT($,.RADIAN.)) ;
#44=(NAMED_UNIT(*)SI_UNIT($,.STERADIAN.)SOLID_ANGLE_UNIT()) ;
#46=(GEOMETRIC_REPRESENTATION_CONTEXT(3)GLOBAL_UNCERTAINTY_ASSIGNED_CONTEXT((#45))GLOBAL_UNIT_ASSIGNED_CONTEXT((#41,#42,#44))REPRESENTATION_CONTEXT(' ',' ')) ;
ENDSEC;
END-ISO-10303-21;
