ISO-10303-21;
HEADER;
FILE_DESCRIPTION(('CATIA V5 STEP Exchange','CAx-IF Rec.Pracs.--- Model Styling and Organization---1.4--- 2014-01-23','CAx-IF Rec.Pracs.---3D Tessellated Data Validation Properties---0.5---2014-09-14'),'2;1');

FILE_NAME('C:\\Users\\manso\\Desktop\\usineur.fr\\rod.stp','2021-07-26T20:08:07+00:00',('none'),('none'),'CATIA Version 5-6 Release 2018 SP6','CATIA V5 STEP AP242','none');

FILE_SCHEMA(('AP242_MANAGED_MODEL_BASED_3D_ENGINEERING_MIM_LF  {1 0 10303 442 1 1 4}'));

ENDSEC;
DATA;
#5=PRODUCT('Part1','','',(#2)) ;
#2=PRODUCT_CONTEXT(' ',#1,'mechanical') ;
#1=APPLICATION_CONTEXT('managed model based 3d engineering') ;
#10=PRODUCT_DEFINITION('',' ',#6,#3) ;
#3=PRODUCT_DEFINITION_CONTEXT('part definition',#1,' ') ;
#11=PRODUCT_DEFINITION_SHAPE(' ',' ',#10) ;
#512=MECHANICAL_DESIGN_GEOMETRIC_PRESENTATION_REPRESENTATION(' ',(#29),#16) ;
#19=SHAPE_REPRESENTATION(' ',(#18),#16) ;
#7=PRODUCT_CATEGORY('part','specification') ;
#17=CARTESIAN_POINT(' ',(0.,0.,0.)) ;
#31=CARTESIAN_POINT('Axis2P3D Location',(0.,3.22183212814E-016,31.0714758408)) ;
#36=CARTESIAN_POINT('Line Origine',(-1.43827661581,-2.63274768567,24.)) ;
#40=CARTESIAN_POINT('Vertex',(-1.43827661581,-2.63274768567,3.)) ;
#42=CARTESIAN_POINT('Vertex',(-1.43827661581,-2.63274768567,44.711225851)) ;
#45=CARTESIAN_POINT('Axis2P3D Location',(0.,3.11072973616E-017,3.)) ;
#49=CARTESIAN_POINT('Vertex',(1.43827661581,2.63274768567,3.)) ;
#52=CARTESIAN_POINT('Line Origine',(1.43827661581,2.63274768567,24.)) ;
#56=CARTESIAN_POINT('Vertex',(1.43827661581,2.63274768567,44.711225851)) ;
#59=CARTESIAN_POINT('Axis2P3D Location',(0.,4.63615132649E-016,44.711225851)) ;
#71=CARTESIAN_POINT('Axis2P3D Location',(0.,2.77555756156E-016,44.711225851)) ;
#76=CARTESIAN_POINT('Axis2P3D Location',(0.958851077208,1.75516512378,44.711225851)) ;
#80=CARTESIAN_POINT('Vertex',(1.36447212995,2.49764948049,45.2443192214)) ;
#83=CARTESIAN_POINT('Axis2P3D Location',(0.,2.77555756156E-016,45.2443192214)) ;
#87=CARTESIAN_POINT('Vertex',(-1.36447212995,-2.49764948049,45.2443192214)) ;
#90=CARTESIAN_POINT('Axis2P3D Location',(-0.958851077208,-1.75516512378,44.711225851)) ;
#102=CARTESIAN_POINT('Axis2P3D Location',(0.,3.11072973616E-017,3.)) ;
#107=CARTESIAN_POINT('Axis2P3D Location',(0.,4.63615132649E-016,44.711225851)) ;
#119=CARTESIAN_POINT('Axis2P3D Location',(3.33066907388E-016,-2.22044604925E-016,44.711225851)) ;
#124=CARTESIAN_POINT('Axis2P3D Location',(3.33066907388E-016,-2.22044604925E-016,45.2443192214)) ;
#136=CARTESIAN_POINT('Axis2P3D Location',(0.,5.07750671893E-016,48.9676746255)) ;
#141=CARTESIAN_POINT('Line Origine',(0.838994692557,1.53576948331,46.9838373128)) ;
#145=CARTESIAN_POINT('Vertex',(0.313517255168,0.573889486131,48.7233554041)) ;
#148=CARTESIAN_POINT('Axis2P3D Location',(0.,5.05217301669E-016,48.7233554041)) ;
#152=CARTESIAN_POINT('Vertex',(-0.313517255168,-0.573889486131,48.7233554041)) ;
#155=CARTESIAN_POINT('Line Origine',(-0.838994692557,-1.53576948331,46.9838373128)) ;
#167=CARTESIAN_POINT('Axis2P3D Location',(-2.22044604925E-016,5.55111512313E-016,49.2564487746)) ;
#172=CARTESIAN_POINT('Axis2P3D Location',(0.719138307906,1.31637384284,49.2564487746)) ;
#176=CARTESIAN_POINT('Vertex',(0.239712769302,0.438791280945,49.2564487746)) ;
#179=CARTESIAN_POINT('Axis2P3D Location',(-2.22044604925E-016,5.55111512313E-016,49.2564487746)) ;
#183=CARTESIAN_POINT('Vertex',(-0.239712769302,-0.438791280945,49.2564487746)) ;
#186=CARTESIAN_POINT('Axis2P3D Location',(-0.719138307906,-1.31637384284,49.2564487746)) ;
#198=CARTESIAN_POINT('Axis2P3D Location',(0.,5.05217301669E-016,48.7233554041)) ;
#210=CARTESIAN_POINT('Axis2P3D Location',(6.66133814775E-016,2.77555756156E-016,49.2564487746)) ;
#215=CARTESIAN_POINT('Axis2P3D Location',(6.66133814775E-016,2.77555756156E-016,49.2564487746)) ;
#227=CARTESIAN_POINT('Axis2P3D Location',(0.,3.22183212814E-016,31.0714758408)) ;
#232=CARTESIAN_POINT('Line Origine',(-0.239712769302,-0.438791280945,50.9838373128)) ;
#236=CARTESIAN_POINT('Vertex',(-0.239712769302,-0.438791280945,52.0975374211)) ;
#239=CARTESIAN_POINT('Line Origine',(0.239712769302,0.438791280945,50.9838373128)) ;
#243=CARTESIAN_POINT('Vertex',(0.239712769302,0.438791280945,52.0975374211)) ;
#246=CARTESIAN_POINT('Axis2P3D Location',(0.,5.40204529455E-016,52.0975374211)) ;
#258=CARTESIAN_POINT('Axis2P3D Location',(0.,6.38378239159E-016,52.0975374211)) ;
#263=CARTESIAN_POINT('Axis2P3D Location',(0.719138307906,1.31637384284,52.0975374211)) ;
#267=CARTESIAN_POINT('Vertex',(0.6701078155,1.2266241285,53.0922941751)) ;
#270=CARTESIAN_POINT('Axis2P3D Location',(0.,6.38378239159E-016,53.0922941751)) ;
#274=CARTESIAN_POINT('Vertex',(-0.6701078155,-1.2266241285,53.0922941751)) ;
#277=CARTESIAN_POINT('Axis2P3D Location',(-0.719138307906,-1.31637384284,52.0975374211)) ;
#289=CARTESIAN_POINT('Axis2P3D Location',(0.,5.40204529455E-016,52.0975374211)) ;
#301=CARTESIAN_POINT('Axis2P3D Location',(5.55111512313E-016,5.55111512313E-016,52.0975374211)) ;
#306=CARTESIAN_POINT('Axis2P3D Location',(5.55111512313E-016,5.55111512313E-016,53.0922941751)) ;
#318=CARTESIAN_POINT('Axis2P3D Location',(0.,5.49562253387E-016,53.)) ;
#323=CARTESIAN_POINT('Line Origine',(-1.32557599624,-2.42645058531,53.2328531699)) ;
#327=CARTESIAN_POINT('Vertex',(-1.40840480774,-2.57806770776,53.2506150306)) ;
#330=CARTESIAN_POINT('Line Origine',(1.32557599624,2.42645058531,53.2328531699)) ;
#334=CARTESIAN_POINT('Vertex',(1.40840480774,2.57806770776,53.2506150306)) ;
#337=CARTESIAN_POINT('Axis2P3D Location',(0.,5.52160905481E-016,53.2506150306)) ;
#349=CARTESIAN_POINT('Axis2P3D Location',(0.,2.22044604925E-016,54.2453717846)) ;
#354=CARTESIAN_POINT('Axis2P3D Location',(1.35937431533,2.48831799342,54.2453717846)) ;
#358=CARTESIAN_POINT('Vertex',(1.69831676471,3.10874798538,54.9526091147)) ;
#361=CARTESIAN_POINT('Axis2P3D Location',(0.,2.22044604925E-016,54.9526091147)) ;
#365=CARTESIAN_POINT('Vertex',(-1.69831676471,-3.10874798538,54.9526091147)) ;
#368=CARTESIAN_POINT('Axis2P3D Location',(-1.35937431533,-2.48831799342,54.2453717846)) ;
#380=CARTESIAN_POINT('Axis2P3D Location',(0.,5.52160905481E-016,53.2506150306)) ;
#392=CARTESIAN_POINT('Axis2P3D Location',(-7.77156117238E-016,1.33226762955E-015,54.2453717846)) ;
#397=CARTESIAN_POINT('Axis2P3D Location',(-7.77156117238E-016,1.33226762955E-015,54.9526091147)) ;
#409=CARTESIAN_POINT('Axis2P3D Location',(0.,6.01344344739E-016,57.9938852691)) ;
#414=CARTESIAN_POINT('Line Origine',(1.32557599624,2.42645058531,55.7297958045)) ;
#418=CARTESIAN_POINT('Vertex',(0.239712769302,0.438791280945,57.9938852691)) ;
#421=CARTESIAN_POINT('Axis2P3D Location',(0.,6.01344344739E-016,57.9938852691)) ;
#425=CARTESIAN_POINT('Vertex',(-0.239712769302,-0.438791280945,57.9938852691)) ;
#428=CARTESIAN_POINT('Line Origine',(-1.32557599624,-2.42645058531,55.7297958045)) ;
#440=CARTESIAN_POINT('Axis2P3D Location',(0.,6.01344344739E-016,57.9938852691)) ;
#452=CARTESIAN_POINT('Axis2P3D Location',(0.,0.,60.0382912159)) ;
#457=CARTESIAN_POINT('Axis2P3D Location',(0.,0.,60.0382912159)) ;
#461=CARTESIAN_POINT('Vertex',(6.1785144133E-017,1.34920380703E-016,62.1429516816)) ;
#464=CARTESIAN_POINT('Axis2P3D Location',(0.,0.,60.0382912159)) ;
#481=CARTESIAN_POINT('Axis2P3D Location',(0.,0.,3.)) ;
#486=CARTESIAN_POINT('Axis2P3D Location',(0.,0.,3.)) ;
#490=CARTESIAN_POINT('Vertex',(1.36551529442E-015,2.46845168288E-015,0.)) ;
#493=CARTESIAN_POINT('Axis2P3D Location',(0.,0.,3.)) ;
#8=PRODUCT_RELATED_PRODUCT_CATEGORY('part',$,(#5)) ;
#29=STYLED_ITEM(' ',(#28),#21) ;
#28=PRESENTATION_STYLE_ASSIGNMENT((#27)) ;
#27=SURFACE_STYLE_USAGE(.BOTH.,#26) ;
#26=SURFACE_SIDE_STYLE(' ',(#25)) ;
#25=SURFACE_STYLE_FILL_AREA(#24) ;
#24=FILL_AREA_STYLE(' ',(#23)) ;
#23=FILL_AREA_STYLE_COLOUR(' ',#22) ;
#38=VECTOR('Line Direction',#37,1.) ;
#54=VECTOR('Line Direction',#53,1.) ;
#143=VECTOR('Line Direction',#142,1.) ;
#157=VECTOR('Line Direction',#156,1.) ;
#234=VECTOR('Line Direction',#233,1.) ;
#241=VECTOR('Line Direction',#240,1.) ;
#325=VECTOR('Line Direction',#324,1.) ;
#332=VECTOR('Line Direction',#331,1.) ;
#416=VECTOR('Line Direction',#415,1.) ;
#430=VECTOR('Line Direction',#429,1.) ;
#32=DIRECTION('Axis2P3D Direction',(0.,-1.03690991205E-017,-1.)) ;
#33=DIRECTION('Axis2P3D XDirection',(0.479425538604,0.87758256189,-9.09974057068E-018)) ;
#37=DIRECTION('Vector Direction',(0.,-1.05735526155E-017,-1.)) ;
#46=DIRECTION('Axis2P3D Direction',(0.,-1.03690991205E-017,-1.)) ;
#53=DIRECTION('Vector Direction',(0.,-1.05735526155E-017,-1.)) ;
#60=DIRECTION('Axis2P3D Direction',(0.,-1.03690991205E-017,-1.)) ;
#72=DIRECTION('Axis2P3D Direction',(-0.,0.,-1.)) ;
#73=DIRECTION('Axis2P3D XDirection',(0.479425538604,0.87758256189,0.)) ;
#77=DIRECTION('Axis2P3D Direction',(-0.87758256189,0.479425538604,0.)) ;
#84=DIRECTION('Axis2P3D Direction',(-0.,0.,-1.)) ;
#91=DIRECTION('Axis2P3D Direction',(0.87758256189,-0.479425538604,-0.)) ;
#103=DIRECTION('Axis2P3D Direction',(0.,-1.03690991205E-017,-1.)) ;
#108=DIRECTION('Axis2P3D Direction',(0.,-1.03690991205E-017,-1.)) ;
#120=DIRECTION('Axis2P3D Direction',(0.,-0.,1.)) ;
#121=DIRECTION('Axis2P3D XDirection',(0.479425538604,0.87758256189,0.)) ;
#125=DIRECTION('Axis2P3D Direction',(0.,-0.,1.)) ;
#137=DIRECTION('Axis2P3D Direction',(0.,-1.03690991205E-017,-1.)) ;
#138=DIRECTION('Axis2P3D XDirection',(0.479425538604,0.87758256189,0.)) ;
#142=DIRECTION('Vector Direction',(0.255578576257,0.467833445772,-0.846056415599)) ;
#149=DIRECTION('Axis2P3D Direction',(0.,-1.03690991205E-017,-1.)) ;
#156=DIRECTION('Vector Direction',(-0.255578576257,-0.467833445772,-0.846056415599)) ;
#168=DIRECTION('Axis2P3D Direction',(-0.,0.,-1.)) ;
#169=DIRECTION('Axis2P3D XDirection',(0.479425538604,0.87758256189,0.)) ;
#173=DIRECTION('Axis2P3D Direction',(-0.87758256189,0.479425538604,0.)) ;
#180=DIRECTION('Axis2P3D Direction',(-0.,0.,-1.)) ;
#187=DIRECTION('Axis2P3D Direction',(0.87758256189,-0.479425538604,-0.)) ;
#199=DIRECTION('Axis2P3D Direction',(0.,-1.03690991205E-017,-1.)) ;
#211=DIRECTION('Axis2P3D Direction',(0.,-0.,-1.)) ;
#212=DIRECTION('Axis2P3D XDirection',(0.12796667928,-0.9917784677,0.)) ;
#216=DIRECTION('Axis2P3D Direction',(0.,-0.,-1.)) ;
#228=DIRECTION('Axis2P3D Direction',(0.,-1.03690991205E-017,-1.)) ;
#229=DIRECTION('Axis2P3D XDirection',(0.479425538604,0.87758256189,-9.09974057068E-018)) ;
#233=DIRECTION('Vector Direction',(0.,-1.37665357024E-017,-1.)) ;
#240=DIRECTION('Vector Direction',(0.,-1.37665357024E-017,-1.)) ;
#247=DIRECTION('Axis2P3D Direction',(0.,-1.03690991205E-017,-1.)) ;
#259=DIRECTION('Axis2P3D Direction',(-0.,0.,-1.)) ;
#260=DIRECTION('Axis2P3D XDirection',(0.479425538604,0.87758256189,0.)) ;
#264=DIRECTION('Axis2P3D Direction',(-0.87758256189,0.479425538604,0.)) ;
#271=DIRECTION('Axis2P3D Direction',(-0.,0.,-1.)) ;
#278=DIRECTION('Axis2P3D Direction',(0.87758256189,-0.479425538604,-0.)) ;
#290=DIRECTION('Axis2P3D Direction',(0.,-1.03690991205E-017,-1.)) ;
#302=DIRECTION('Axis2P3D Direction',(0.,-0.,-1.)) ;
#303=DIRECTION('Axis2P3D XDirection',(0.12796667928,-0.9917784677,0.)) ;
#307=DIRECTION('Axis2P3D Direction',(0.,-0.,-1.)) ;
#319=DIRECTION('Axis2P3D Direction',(-0.,1.03690991205E-017,1.)) ;
#320=DIRECTION('Axis2P3D XDirection',(0.479425538604,0.87758256189,-1.17028927433E-017)) ;
#324=DIRECTION('Vector Direction',(-0.476911792557,-0.872981180616,0.102269254469)) ;
#331=DIRECTION('Vector Direction',(0.476911792557,0.872981180616,0.102269254469)) ;
#338=DIRECTION('Axis2P3D Direction',(-0.,1.03690991205E-017,1.)) ;
#350=DIRECTION('Axis2P3D Direction',(-0.,0.,-1.)) ;
#351=DIRECTION('Axis2P3D XDirection',(0.479425538604,0.87758256189,0.)) ;
#355=DIRECTION('Axis2P3D Direction',(-0.87758256189,0.479425538604,0.)) ;
#362=DIRECTION('Axis2P3D Direction',(-0.,0.,-1.)) ;
#369=DIRECTION('Axis2P3D Direction',(0.87758256189,-0.479425538604,-0.)) ;
#381=DIRECTION('Axis2P3D Direction',(-0.,1.03690991205E-017,1.)) ;
#393=DIRECTION('Axis2P3D Direction',(0.,-0.,1.)) ;
#394=DIRECTION('Axis2P3D XDirection',(0.479425538604,0.87758256189,0.)) ;
#398=DIRECTION('Axis2P3D Direction',(0.,-0.,1.)) ;
#410=DIRECTION('Axis2P3D Direction',(0.,-1.03690991205E-017,-1.)) ;
#411=DIRECTION('Axis2P3D XDirection',(0.479425538604,0.87758256189,0.)) ;
#415=DIRECTION('Vector Direction',(0.339067637903,0.620659148012,-0.706976208168)) ;
#422=DIRECTION('Axis2P3D Direction',(0.,-1.03690991205E-017,-1.)) ;
#429=DIRECTION('Vector Direction',(-0.339067637903,-0.620659148012,-0.706976208168)) ;
#441=DIRECTION('Axis2P3D Direction',(0.,-1.03690991205E-017,-1.)) ;
#453=DIRECTION('Axis2P3D Direction',(0.,-1.03690991205E-017,-1.)) ;
#454=DIRECTION('Axis2P3D XDirection',(0.479425538604,0.87758256189,0.)) ;
#458=DIRECTION('Axis2P3D Direction',(-0.87758256189,0.479425538604,-4.97121093069E-018)) ;
#465=DIRECTION('Axis2P3D Direction',(0.87758256189,-0.479425538604,4.97121093069E-018)) ;
#482=DIRECTION('Axis2P3D Direction',(0.,-1.03690991205E-017,-1.)) ;
#483=DIRECTION('Axis2P3D XDirection',(0.479425538604,0.87758256189,0.)) ;
#487=DIRECTION('Axis2P3D Direction',(-0.87758256189,0.479425538604,-4.97121093069E-018)) ;
#494=DIRECTION('Axis2P3D Direction',(0.87758256189,-0.479425538604,4.97121093069E-018)) ;
#15=UNCERTAINTY_MEASURE_WITH_UNIT(LENGTH_MEASURE(0.005),#12,'distance_accuracy_value','CONFUSED CURVE UNCERTAINTY') ;
#18=AXIS2_PLACEMENT_3D(' ',#17,$,$) ;
#34=AXIS2_PLACEMENT_3D('Cylinder Axis2P3D',#31,#32,#33) ;
#47=AXIS2_PLACEMENT_3D('Circle Axis2P3D',#45,#46,$) ;
#61=AXIS2_PLACEMENT_3D('Circle Axis2P3D',#59,#60,$) ;
#74=AXIS2_PLACEMENT_3D('Torus Axis2P3D',#71,#72,#73) ;
#78=AXIS2_PLACEMENT_3D('Circle Axis2P3D',#76,#77,$) ;
#85=AXIS2_PLACEMENT_3D('Circle Axis2P3D',#83,#84,$) ;
#92=AXIS2_PLACEMENT_3D('Circle Axis2P3D',#90,#91,$) ;
#104=AXIS2_PLACEMENT_3D('Circle Axis2P3D',#102,#103,$) ;
#109=AXIS2_PLACEMENT_3D('Circle Axis2P3D',#107,#108,$) ;
#122=AXIS2_PLACEMENT_3D('Torus Axis2P3D',#119,#120,#121) ;
#126=AXIS2_PLACEMENT_3D('Circle Axis2P3D',#124,#125,$) ;
#139=AXIS2_PLACEMENT_3D('Cone Axis2P3D',#136,#137,#138) ;
#150=AXIS2_PLACEMENT_3D('Circle Axis2P3D',#148,#149,$) ;
#170=AXIS2_PLACEMENT_3D('Torus Axis2P3D',#167,#168,#169) ;
#174=AXIS2_PLACEMENT_3D('Circle Axis2P3D',#172,#173,$) ;
#181=AXIS2_PLACEMENT_3D('Circle Axis2P3D',#179,#180,$) ;
#188=AXIS2_PLACEMENT_3D('Circle Axis2P3D',#186,#187,$) ;
#200=AXIS2_PLACEMENT_3D('Circle Axis2P3D',#198,#199,$) ;
#213=AXIS2_PLACEMENT_3D('Torus Axis2P3D',#210,#211,#212) ;
#217=AXIS2_PLACEMENT_3D('Circle Axis2P3D',#215,#216,$) ;
#230=AXIS2_PLACEMENT_3D('Cylinder Axis2P3D',#227,#228,#229) ;
#248=AXIS2_PLACEMENT_3D('Circle Axis2P3D',#246,#247,$) ;
#261=AXIS2_PLACEMENT_3D('Torus Axis2P3D',#258,#259,#260) ;
#265=AXIS2_PLACEMENT_3D('Circle Axis2P3D',#263,#264,$) ;
#272=AXIS2_PLACEMENT_3D('Circle Axis2P3D',#270,#271,$) ;
#279=AXIS2_PLACEMENT_3D('Circle Axis2P3D',#277,#278,$) ;
#291=AXIS2_PLACEMENT_3D('Circle Axis2P3D',#289,#290,$) ;
#304=AXIS2_PLACEMENT_3D('Torus Axis2P3D',#301,#302,#303) ;
#308=AXIS2_PLACEMENT_3D('Circle Axis2P3D',#306,#307,$) ;
#321=AXIS2_PLACEMENT_3D('Cone Axis2P3D',#318,#319,#320) ;
#339=AXIS2_PLACEMENT_3D('Circle Axis2P3D',#337,#338,$) ;
#352=AXIS2_PLACEMENT_3D('Torus Axis2P3D',#349,#350,#351) ;
#356=AXIS2_PLACEMENT_3D('Circle Axis2P3D',#354,#355,$) ;
#363=AXIS2_PLACEMENT_3D('Circle Axis2P3D',#361,#362,$) ;
#370=AXIS2_PLACEMENT_3D('Circle Axis2P3D',#368,#369,$) ;
#382=AXIS2_PLACEMENT_3D('Circle Axis2P3D',#380,#381,$) ;
#395=AXIS2_PLACEMENT_3D('Torus Axis2P3D',#392,#393,#394) ;
#399=AXIS2_PLACEMENT_3D('Circle Axis2P3D',#397,#398,$) ;
#412=AXIS2_PLACEMENT_3D('Cone Axis2P3D',#409,#410,#411) ;
#423=AXIS2_PLACEMENT_3D('Circle Axis2P3D',#421,#422,$) ;
#442=AXIS2_PLACEMENT_3D('Circle Axis2P3D',#440,#441,$) ;
#455=AXIS2_PLACEMENT_3D('Sphere Axis2P3D',#452,#453,#454) ;
#459=AXIS2_PLACEMENT_3D('Circle Axis2P3D',#457,#458,$) ;
#466=AXIS2_PLACEMENT_3D('Circle Axis2P3D',#464,#465,$) ;
#484=AXIS2_PLACEMENT_3D('Sphere Axis2P3D',#481,#482,#483) ;
#488=AXIS2_PLACEMENT_3D('Circle Axis2P3D',#486,#487,$) ;
#495=AXIS2_PLACEMENT_3D('Circle Axis2P3D',#493,#494,$) ;
#39=LINE('Line',#36,#38) ;
#55=LINE('Line',#52,#54) ;
#144=LINE('Line',#141,#143) ;
#158=LINE('Line',#155,#157) ;
#235=LINE('Line',#232,#234) ;
#242=LINE('Line',#239,#241) ;
#326=LINE('Line',#323,#325) ;
#333=LINE('Line',#330,#332) ;
#417=LINE('Line',#414,#416) ;
#431=LINE('Line',#428,#430) ;
#48=CIRCLE('generated circle',#47,3.) ;
#62=CIRCLE('generated circle',#61,3.) ;
#79=CIRCLE('generated circle',#78,1.) ;
#86=CIRCLE('generated circle',#85,2.8460564156) ;
#93=CIRCLE('generated circle',#92,1.) ;
#105=CIRCLE('generated circle',#104,3.) ;
#110=CIRCLE('generated circle',#109,3.) ;
#127=CIRCLE('generated circle',#126,2.8460564156) ;
#151=CIRCLE('generated circle',#150,0.653943584401) ;
#175=CIRCLE('generated circle',#174,1.) ;
#182=CIRCLE('generated circle',#181,0.5) ;
#189=CIRCLE('generated circle',#188,1.) ;
#201=CIRCLE('generated circle',#200,0.653943584401) ;
#218=CIRCLE('generated circle',#217,0.5) ;
#249=CIRCLE('generated circle',#248,0.5) ;
#266=CIRCLE('generated circle',#265,1.) ;
#273=CIRCLE('generated circle',#272,1.39773074553) ;
#280=CIRCLE('generated circle',#279,1.) ;
#292=CIRCLE('generated circle',#291,0.5) ;
#309=CIRCLE('generated circle',#308,1.39773074553) ;
#340=CIRCLE('generated circle',#339,2.93769249723) ;
#357=CIRCLE('generated circle',#356,1.) ;
#364=CIRCLE('generated circle',#363,3.54239945093) ;
#371=CIRCLE('generated circle',#370,1.) ;
#383=CIRCLE('generated circle',#382,2.93769249723) ;
#400=CIRCLE('generated circle',#399,3.54239945093) ;
#424=CIRCLE('generated circle',#423,0.5) ;
#443=CIRCLE('generated circle',#442,0.5) ;
#460=CIRCLE('generated circle',#459,2.10466046562) ;
#467=CIRCLE('generated circle',#466,2.10466046562) ;
#489=CIRCLE('generated circle',#488,3.) ;
#496=CIRCLE('generated circle',#495,3.) ;
#35=CYLINDRICAL_SURFACE('generated cylinder',#34,3.) ;
#231=CYLINDRICAL_SURFACE('generated cylinder',#230,0.5) ;
#140=CONICAL_SURFACE('Cone',#139,0.5,0.562252594043) ;
#322=CONICAL_SURFACE('Cone',#321,0.5,1.46834795565) ;
#413=CONICAL_SURFACE('Cone',#412,0.5,0.785582804486) ;
#456=SPHERICAL_SURFACE('',#455,2.10466046562) ;
#485=SPHERICAL_SURFACE('',#484,3.) ;
#75=TOROIDAL_SURFACE('homeo Torus',#74,2.,1.) ;
#123=TOROIDAL_SURFACE('homeo Torus',#122,2.,1.) ;
#171=TOROIDAL_SURFACE('homeo Torus',#170,1.5,1.) ;
#214=TOROIDAL_SURFACE('homeo Torus',#213,1.5,1.) ;
#262=TOROIDAL_SURFACE('homeo Torus',#261,1.5,1.) ;
#305=TOROIDAL_SURFACE('homeo Torus',#304,1.5,1.) ;
#353=TOROIDAL_SURFACE('homeo Torus',#352,2.83542324276,1.) ;
#396=TOROIDAL_SURFACE('homeo Torus',#395,2.83542324276,1.) ;
#44=EDGE_CURVE('',#41,#43,#39,.F.) ;
#51=EDGE_CURVE('',#50,#41,#48,.T.) ;
#58=EDGE_CURVE('',#50,#57,#55,.F.) ;
#63=EDGE_CURVE('',#57,#43,#62,.T.) ;
#82=EDGE_CURVE('',#57,#81,#79,.F.) ;
#89=EDGE_CURVE('',#81,#88,#86,.T.) ;
#94=EDGE_CURVE('',#43,#88,#93,.F.) ;
#106=EDGE_CURVE('',#41,#50,#105,.T.) ;
#111=EDGE_CURVE('',#43,#57,#110,.T.) ;
#128=EDGE_CURVE('',#88,#81,#127,.F.) ;
#147=EDGE_CURVE('',#81,#146,#144,.F.) ;
#154=EDGE_CURVE('',#153,#146,#151,.F.) ;
#159=EDGE_CURVE('',#88,#153,#158,.F.) ;
#178=EDGE_CURVE('',#146,#177,#175,.T.) ;
#185=EDGE_CURVE('',#184,#177,#182,.F.) ;
#190=EDGE_CURVE('',#153,#184,#189,.T.) ;
#202=EDGE_CURVE('',#146,#153,#201,.F.) ;
#219=EDGE_CURVE('',#177,#184,#218,.F.) ;
#238=EDGE_CURVE('',#184,#237,#235,.F.) ;
#245=EDGE_CURVE('',#177,#244,#242,.F.) ;
#250=EDGE_CURVE('',#237,#244,#249,.F.) ;
#269=EDGE_CURVE('',#244,#268,#266,.T.) ;
#276=EDGE_CURVE('',#275,#268,#273,.F.) ;
#281=EDGE_CURVE('',#237,#275,#280,.T.) ;
#293=EDGE_CURVE('',#244,#237,#292,.F.) ;
#310=EDGE_CURVE('',#268,#275,#309,.F.) ;
#329=EDGE_CURVE('',#275,#328,#326,.T.) ;
#336=EDGE_CURVE('',#268,#335,#333,.T.) ;
#341=EDGE_CURVE('',#335,#328,#340,.F.) ;
#360=EDGE_CURVE('',#335,#359,#357,.F.) ;
#367=EDGE_CURVE('',#359,#366,#364,.T.) ;
#372=EDGE_CURVE('',#328,#366,#371,.F.) ;
#384=EDGE_CURVE('',#328,#335,#383,.F.) ;
#401=EDGE_CURVE('',#366,#359,#400,.F.) ;
#420=EDGE_CURVE('',#359,#419,#417,.F.) ;
#427=EDGE_CURVE('',#419,#426,#424,.T.) ;
#432=EDGE_CURVE('',#366,#426,#431,.F.) ;
#444=EDGE_CURVE('',#426,#419,#443,.T.) ;
#463=EDGE_CURVE('',#419,#462,#460,.F.) ;
#468=EDGE_CURVE('',#426,#462,#467,.F.) ;
#492=EDGE_CURVE('',#491,#50,#489,.F.) ;
#497=EDGE_CURVE('',#491,#41,#496,.F.) ;
#30=CLOSED_SHELL('Closed Shell',(#70,#101,#118,#135,#166,#197,#209,#226,#257,#288,#300,#317,#348,#379,#391,#408,#439,#451,#474,#480,#503,#509)) ;
#511=SHAPE_REPRESENTATION_RELATIONSHIP(' ',' ',#19,#510) ;
#64=EDGE_LOOP('',(#65,#66,#67,#68)) ;
#95=EDGE_LOOP('',(#96,#97,#98,#99)) ;
#112=EDGE_LOOP('',(#113,#114,#115,#116)) ;
#129=EDGE_LOOP('',(#130,#131,#132,#133)) ;
#160=EDGE_LOOP('',(#161,#162,#163,#164)) ;
#191=EDGE_LOOP('',(#192,#193,#194,#195)) ;
#203=EDGE_LOOP('',(#204,#205,#206,#207)) ;
#220=EDGE_LOOP('',(#221,#222,#223,#224)) ;
#251=EDGE_LOOP('',(#252,#253,#254,#255)) ;
#282=EDGE_LOOP('',(#283,#284,#285,#286)) ;
#294=EDGE_LOOP('',(#295,#296,#297,#298)) ;
#311=EDGE_LOOP('',(#312,#313,#314,#315)) ;
#342=EDGE_LOOP('',(#343,#344,#345,#346)) ;
#373=EDGE_LOOP('',(#374,#375,#376,#377)) ;
#385=EDGE_LOOP('',(#386,#387,#388,#389)) ;
#402=EDGE_LOOP('',(#403,#404,#405,#406)) ;
#433=EDGE_LOOP('',(#434,#435,#436,#437)) ;
#445=EDGE_LOOP('',(#446,#447,#448,#449)) ;
#469=EDGE_LOOP('',(#470,#471,#472)) ;
#475=EDGE_LOOP('',(#476,#477,#478)) ;
#498=EDGE_LOOP('',(#499,#500,#501)) ;
#504=EDGE_LOOP('',(#505,#506,#507)) ;
#65=ORIENTED_EDGE('',*,*,#44,.F.) ;
#66=ORIENTED_EDGE('',*,*,#51,.F.) ;
#67=ORIENTED_EDGE('',*,*,#58,.T.) ;
#68=ORIENTED_EDGE('',*,*,#63,.T.) ;
#96=ORIENTED_EDGE('',*,*,#82,.T.) ;
#97=ORIENTED_EDGE('',*,*,#89,.T.) ;
#98=ORIENTED_EDGE('',*,*,#94,.F.) ;
#99=ORIENTED_EDGE('',*,*,#63,.F.) ;
#113=ORIENTED_EDGE('',*,*,#58,.F.) ;
#114=ORIENTED_EDGE('',*,*,#106,.F.) ;
#115=ORIENTED_EDGE('',*,*,#44,.T.) ;
#116=ORIENTED_EDGE('',*,*,#111,.T.) ;
#130=ORIENTED_EDGE('',*,*,#94,.T.) ;
#131=ORIENTED_EDGE('',*,*,#128,.T.) ;
#132=ORIENTED_EDGE('',*,*,#82,.F.) ;
#133=ORIENTED_EDGE('',*,*,#111,.F.) ;
#161=ORIENTED_EDGE('',*,*,#147,.T.) ;
#162=ORIENTED_EDGE('',*,*,#154,.F.) ;
#163=ORIENTED_EDGE('',*,*,#159,.F.) ;
#164=ORIENTED_EDGE('',*,*,#89,.F.) ;
#192=ORIENTED_EDGE('',*,*,#154,.T.) ;
#193=ORIENTED_EDGE('',*,*,#178,.T.) ;
#194=ORIENTED_EDGE('',*,*,#185,.F.) ;
#195=ORIENTED_EDGE('',*,*,#190,.F.) ;
#204=ORIENTED_EDGE('',*,*,#159,.T.) ;
#205=ORIENTED_EDGE('',*,*,#202,.F.) ;
#206=ORIENTED_EDGE('',*,*,#147,.F.) ;
#207=ORIENTED_EDGE('',*,*,#128,.F.) ;
#221=ORIENTED_EDGE('',*,*,#202,.T.) ;
#222=ORIENTED_EDGE('',*,*,#190,.T.) ;
#223=ORIENTED_EDGE('',*,*,#219,.F.) ;
#224=ORIENTED_EDGE('',*,*,#178,.F.) ;
#252=ORIENTED_EDGE('',*,*,#238,.F.) ;
#253=ORIENTED_EDGE('',*,*,#185,.T.) ;
#254=ORIENTED_EDGE('',*,*,#245,.T.) ;
#255=ORIENTED_EDGE('',*,*,#250,.F.) ;
#283=ORIENTED_EDGE('',*,*,#250,.T.) ;
#284=ORIENTED_EDGE('',*,*,#269,.T.) ;
#285=ORIENTED_EDGE('',*,*,#276,.F.) ;
#286=ORIENTED_EDGE('',*,*,#281,.F.) ;
#295=ORIENTED_EDGE('',*,*,#245,.F.) ;
#296=ORIENTED_EDGE('',*,*,#219,.T.) ;
#297=ORIENTED_EDGE('',*,*,#238,.T.) ;
#298=ORIENTED_EDGE('',*,*,#293,.F.) ;
#312=ORIENTED_EDGE('',*,*,#293,.T.) ;
#313=ORIENTED_EDGE('',*,*,#281,.T.) ;
#314=ORIENTED_EDGE('',*,*,#310,.F.) ;
#315=ORIENTED_EDGE('',*,*,#269,.F.) ;
#343=ORIENTED_EDGE('',*,*,#329,.F.) ;
#344=ORIENTED_EDGE('',*,*,#276,.T.) ;
#345=ORIENTED_EDGE('',*,*,#336,.T.) ;
#346=ORIENTED_EDGE('',*,*,#341,.T.) ;
#374=ORIENTED_EDGE('',*,*,#360,.T.) ;
#375=ORIENTED_EDGE('',*,*,#367,.T.) ;
#376=ORIENTED_EDGE('',*,*,#372,.F.) ;
#377=ORIENTED_EDGE('',*,*,#341,.F.) ;
#386=ORIENTED_EDGE('',*,*,#336,.F.) ;
#387=ORIENTED_EDGE('',*,*,#310,.T.) ;
#388=ORIENTED_EDGE('',*,*,#329,.T.) ;
#389=ORIENTED_EDGE('',*,*,#384,.T.) ;
#403=ORIENTED_EDGE('',*,*,#372,.T.) ;
#404=ORIENTED_EDGE('',*,*,#401,.T.) ;
#405=ORIENTED_EDGE('',*,*,#360,.F.) ;
#406=ORIENTED_EDGE('',*,*,#384,.F.) ;
#434=ORIENTED_EDGE('',*,*,#420,.T.) ;
#435=ORIENTED_EDGE('',*,*,#427,.T.) ;
#436=ORIENTED_EDGE('',*,*,#432,.F.) ;
#437=ORIENTED_EDGE('',*,*,#367,.F.) ;
#446=ORIENTED_EDGE('',*,*,#432,.T.) ;
#447=ORIENTED_EDGE('',*,*,#444,.T.) ;
#448=ORIENTED_EDGE('',*,*,#420,.F.) ;
#449=ORIENTED_EDGE('',*,*,#401,.F.) ;
#470=ORIENTED_EDGE('',*,*,#427,.F.) ;
#471=ORIENTED_EDGE('',*,*,#463,.T.) ;
#472=ORIENTED_EDGE('',*,*,#468,.F.) ;
#476=ORIENTED_EDGE('',*,*,#444,.F.) ;
#477=ORIENTED_EDGE('',*,*,#468,.T.) ;
#478=ORIENTED_EDGE('',*,*,#463,.F.) ;
#499=ORIENTED_EDGE('',*,*,#492,.T.) ;
#500=ORIENTED_EDGE('',*,*,#51,.T.) ;
#501=ORIENTED_EDGE('',*,*,#497,.F.) ;
#505=ORIENTED_EDGE('',*,*,#497,.T.) ;
#506=ORIENTED_EDGE('',*,*,#106,.T.) ;
#507=ORIENTED_EDGE('',*,*,#492,.F.) ;
#21=MANIFOLD_SOLID_BREP('Corps principal',#30) ;
#41=VERTEX_POINT('',#40) ;
#43=VERTEX_POINT('',#42) ;
#50=VERTEX_POINT('',#49) ;
#57=VERTEX_POINT('',#56) ;
#81=VERTEX_POINT('',#80) ;
#88=VERTEX_POINT('',#87) ;
#146=VERTEX_POINT('',#145) ;
#153=VERTEX_POINT('',#152) ;
#177=VERTEX_POINT('',#176) ;
#184=VERTEX_POINT('',#183) ;
#237=VERTEX_POINT('',#236) ;
#244=VERTEX_POINT('',#243) ;
#268=VERTEX_POINT('',#267) ;
#275=VERTEX_POINT('',#274) ;
#328=VERTEX_POINT('',#327) ;
#335=VERTEX_POINT('',#334) ;
#359=VERTEX_POINT('',#358) ;
#366=VERTEX_POINT('',#365) ;
#419=VERTEX_POINT('',#418) ;
#426=VERTEX_POINT('',#425) ;
#462=VERTEX_POINT('',#461) ;
#491=VERTEX_POINT('',#490) ;
#510=ADVANCED_BREP_SHAPE_REPRESENTATION('NONE',(#21),#16) ;
#70=ADVANCED_FACE('Corps principal',(#69),#35,.T.) ;
#101=ADVANCED_FACE('Corps principal',(#100),#75,.T.) ;
#118=ADVANCED_FACE('Corps principal',(#117),#35,.T.) ;
#135=ADVANCED_FACE('Corps principal',(#134),#123,.T.) ;
#166=ADVANCED_FACE('Corps principal',(#165),#140,.T.) ;
#197=ADVANCED_FACE('Corps principal',(#196),#171,.F.) ;
#209=ADVANCED_FACE('Corps principal',(#208),#140,.T.) ;
#226=ADVANCED_FACE('Corps principal',(#225),#214,.F.) ;
#257=ADVANCED_FACE('Corps principal',(#256),#231,.T.) ;
#288=ADVANCED_FACE('Corps principal',(#287),#262,.F.) ;
#300=ADVANCED_FACE('Corps principal',(#299),#231,.T.) ;
#317=ADVANCED_FACE('Corps principal',(#316),#305,.F.) ;
#348=ADVANCED_FACE('Corps principal',(#347),#322,.T.) ;
#379=ADVANCED_FACE('Corps principal',(#378),#353,.T.) ;
#391=ADVANCED_FACE('Corps principal',(#390),#322,.T.) ;
#408=ADVANCED_FACE('Corps principal',(#407),#396,.T.) ;
#439=ADVANCED_FACE('Corps principal',(#438),#413,.T.) ;
#451=ADVANCED_FACE('Corps principal',(#450),#413,.T.) ;
#474=ADVANCED_FACE('Corps principal',(#473),#456,.T.) ;
#480=ADVANCED_FACE('Corps principal',(#479),#456,.T.) ;
#503=ADVANCED_FACE('Corps principal',(#502),#485,.T.) ;
#509=ADVANCED_FACE('Corps principal',(#508),#485,.T.) ;
#4=APPLICATION_PROTOCOL_DEFINITION('international standard','ap242_managed_model_based_3d_engineering',2014,#1) ;
#22=COLOUR_RGB('Colour',0.823529411765,0.823529411765,1.) ;
#69=FACE_OUTER_BOUND('',#64,.T.) ;
#100=FACE_OUTER_BOUND('',#95,.T.) ;
#117=FACE_OUTER_BOUND('',#112,.T.) ;
#134=FACE_OUTER_BOUND('',#129,.T.) ;
#165=FACE_OUTER_BOUND('',#160,.T.) ;
#196=FACE_OUTER_BOUND('',#191,.T.) ;
#208=FACE_OUTER_BOUND('',#203,.T.) ;
#225=FACE_OUTER_BOUND('',#220,.T.) ;
#256=FACE_OUTER_BOUND('',#251,.T.) ;
#287=FACE_OUTER_BOUND('',#282,.T.) ;
#299=FACE_OUTER_BOUND('',#294,.T.) ;
#316=FACE_OUTER_BOUND('',#311,.T.) ;
#347=FACE_OUTER_BOUND('',#342,.T.) ;
#378=FACE_OUTER_BOUND('',#373,.T.) ;
#390=FACE_OUTER_BOUND('',#385,.T.) ;
#407=FACE_OUTER_BOUND('',#402,.T.) ;
#438=FACE_OUTER_BOUND('',#433,.T.) ;
#450=FACE_OUTER_BOUND('',#445,.T.) ;
#473=FACE_OUTER_BOUND('',#469,.T.) ;
#479=FACE_OUTER_BOUND('',#475,.T.) ;
#502=FACE_OUTER_BOUND('',#498,.T.) ;
#508=FACE_OUTER_BOUND('',#504,.T.) ;
#9=PRODUCT_CATEGORY_RELATIONSHIP(' ',' ',#7,#8) ;
#6=PRODUCT_DEFINITION_FORMATION_WITH_SPECIFIED_SOURCE('',' ',#5,.NOT_KNOWN.) ;
#20=SHAPE_DEFINITION_REPRESENTATION(#11,#19) ;
#12=(LENGTH_UNIT()NAMED_UNIT(*)SI_UNIT(.MILLI.,.METRE.)) ;
#13=(NAMED_UNIT(*)PLANE_ANGLE_UNIT()SI_UNIT($,.RADIAN.)) ;
#14=(NAMED_UNIT(*)SI_UNIT($,.STERADIAN.)SOLID_ANGLE_UNIT()) ;
#16=(GEOMETRIC_REPRESENTATION_CONTEXT(3)GLOBAL_UNCERTAINTY_ASSIGNED_CONTEXT((#15))GLOBAL_UNIT_ASSIGNED_CONTEXT((#12,#13,#14))REPRESENTATION_CONTEXT(' ',' ')) ;
ENDSEC;
END-ISO-10303-21;
