ISO-10303-21;
HEADER;
/* Generated by software containing ST-Developer
 * from STEP Tools, Inc. (www.steptools.com) 
 */
/* OPTION: using custom renumber hook */

FILE_DESCRIPTION(
/* description */ ('STEP AP214'),
/* implementation_level */ '2;1');

FILE_NAME(
/* name */ '60f5b5504d922a0788bad477',
/* time_stamp */ '2021-07-19T17:24:33+00:00',
/* author */ (''),
/* organization */ (''),
/* preprocessor_version */ 'ST-DEVELOPER v18.1',
/* originating_system */ '  ',
/* authorisation */ '  ');

FILE_SCHEMA (('AUTOMOTIVE_DESIGN {1 0 10303 214 3 1 1}'));
ENDSEC;

DATA;
#10=PROPERTY_DEFINITION_REPRESENTATION(#14,#12);
#11=PROPERTY_DEFINITION_REPRESENTATION(#15,#13);
#12=REPRESENTATION('',(#16),#367);
#13=REPRESENTATION('',(#17),#367);
#14=PROPERTY_DEFINITION('pmi validation property','',#372);
#15=PROPERTY_DEFINITION('pmi validation property','',#372);
#16=VALUE_REPRESENTATION_ITEM('number of annotations',COUNT_MEASURE(0.));
#17=VALUE_REPRESENTATION_ITEM('number of views',COUNT_MEASURE(0.));
#18=SHAPE_REPRESENTATION_RELATIONSHIP('','',#219,#19);
#19=ADVANCED_BREP_SHAPE_REPRESENTATION('',(#217),#367);
#20=CYLINDRICAL_SURFACE('',#237,0.0045);
#21=CYLINDRICAL_SURFACE('',#238,0.0308);
#22=CYLINDRICAL_SURFACE('',#240,0.002);
#23=CYLINDRICAL_SURFACE('',#242,0.001);
#24=CYLINDRICAL_SURFACE('',#243,0.0203481305472593);
#25=CYLINDRICAL_SURFACE('',#244,0.001);
#26=CYLINDRICAL_SURFACE('',#245,0.0183481305472593);
#27=CIRCLE('',#222,0.0308);
#28=CIRCLE('',#223,0.002);
#29=CIRCLE('',#224,0.0045);
#30=CIRCLE('',#225,0.0183481305472593);
#31=CIRCLE('',#226,0.001);
#32=CIRCLE('',#227,0.0203481305472593);
#33=CIRCLE('',#228,0.001);
#34=CIRCLE('',#230,0.0308);
#35=CIRCLE('',#231,0.002);
#36=CIRCLE('',#232,0.0045);
#37=CIRCLE('',#233,0.001);
#38=CIRCLE('',#234,0.0183481305472593);
#39=CIRCLE('',#235,0.001);
#40=CIRCLE('',#236,0.0203481305472593);
#41=ORIENTED_EDGE('',*,*,#93,.F.);
#42=ORIENTED_EDGE('',*,*,#94,.F.);
#43=ORIENTED_EDGE('',*,*,#95,.F.);
#44=ORIENTED_EDGE('',*,*,#96,.F.);
#45=ORIENTED_EDGE('',*,*,#97,.T.);
#46=ORIENTED_EDGE('',*,*,#98,.T.);
#47=ORIENTED_EDGE('',*,*,#99,.F.);
#48=ORIENTED_EDGE('',*,*,#100,.T.);
#49=ORIENTED_EDGE('',*,*,#101,.F.);
#50=ORIENTED_EDGE('',*,*,#102,.F.);
#51=ORIENTED_EDGE('',*,*,#103,.T.);
#52=ORIENTED_EDGE('',*,*,#104,.F.);
#53=ORIENTED_EDGE('',*,*,#105,.F.);
#54=ORIENTED_EDGE('',*,*,#106,.F.);
#55=ORIENTED_EDGE('',*,*,#107,.F.);
#56=ORIENTED_EDGE('',*,*,#108,.T.);
#57=ORIENTED_EDGE('',*,*,#109,.F.);
#58=ORIENTED_EDGE('',*,*,#110,.T.);
#59=ORIENTED_EDGE('',*,*,#97,.F.);
#60=ORIENTED_EDGE('',*,*,#106,.T.);
#61=ORIENTED_EDGE('',*,*,#111,.F.);
#62=ORIENTED_EDGE('',*,*,#94,.T.);
#63=ORIENTED_EDGE('',*,*,#112,.F.);
#64=ORIENTED_EDGE('',*,*,#103,.F.);
#65=ORIENTED_EDGE('',*,*,#112,.T.);
#66=ORIENTED_EDGE('',*,*,#93,.T.);
#67=ORIENTED_EDGE('',*,*,#113,.T.);
#68=ORIENTED_EDGE('',*,*,#104,.T.);
#69=ORIENTED_EDGE('',*,*,#96,.T.);
#70=ORIENTED_EDGE('',*,*,#114,.T.);
#71=ORIENTED_EDGE('',*,*,#105,.T.);
#72=ORIENTED_EDGE('',*,*,#113,.F.);
#73=ORIENTED_EDGE('',*,*,#111,.T.);
#74=ORIENTED_EDGE('',*,*,#102,.T.);
#75=ORIENTED_EDGE('',*,*,#114,.F.);
#76=ORIENTED_EDGE('',*,*,#95,.T.);
#77=ORIENTED_EDGE('',*,*,#101,.T.);
#78=ORIENTED_EDGE('',*,*,#115,.T.);
#79=ORIENTED_EDGE('',*,*,#109,.T.);
#80=ORIENTED_EDGE('',*,*,#116,.F.);
#81=ORIENTED_EDGE('',*,*,#117,.T.);
#82=ORIENTED_EDGE('',*,*,#110,.F.);
#83=ORIENTED_EDGE('',*,*,#115,.F.);
#84=ORIENTED_EDGE('',*,*,#100,.F.);
#85=ORIENTED_EDGE('',*,*,#99,.T.);
#86=ORIENTED_EDGE('',*,*,#118,.T.);
#87=ORIENTED_EDGE('',*,*,#107,.T.);
#88=ORIENTED_EDGE('',*,*,#117,.F.);
#89=ORIENTED_EDGE('',*,*,#116,.T.);
#90=ORIENTED_EDGE('',*,*,#108,.F.);
#91=ORIENTED_EDGE('',*,*,#118,.F.);
#92=ORIENTED_EDGE('',*,*,#98,.F.);
#93=EDGE_CURVE('',#119,#120,#137,.T.);
#94=EDGE_CURVE('',#121,#119,#27,.T.);
#95=EDGE_CURVE('',#122,#121,#138,.T.);
#96=EDGE_CURVE('',#120,#122,#28,.F.);
#97=EDGE_CURVE('',#123,#123,#29,.T.);
#98=EDGE_CURVE('',#124,#125,#30,.F.);
#99=EDGE_CURVE('',#126,#125,#31,.F.);
#100=EDGE_CURVE('',#126,#127,#32,.T.);
#101=EDGE_CURVE('',#124,#127,#33,.F.);
#102=EDGE_CURVE('',#128,#129,#139,.T.);
#103=EDGE_CURVE('',#128,#130,#34,.T.);
#104=EDGE_CURVE('',#131,#130,#140,.T.);
#105=EDGE_CURVE('',#129,#131,#35,.T.);
#106=EDGE_CURVE('',#132,#132,#36,.T.);
#107=EDGE_CURVE('',#133,#134,#37,.T.);
#108=EDGE_CURVE('',#133,#135,#38,.T.);
#109=EDGE_CURVE('',#136,#135,#39,.T.);
#110=EDGE_CURVE('',#136,#134,#40,.T.);
#111=EDGE_CURVE('',#121,#128,#141,.T.);
#112=EDGE_CURVE('',#130,#119,#142,.F.);
#113=EDGE_CURVE('',#120,#131,#143,.T.);
#114=EDGE_CURVE('',#122,#129,#144,.T.);
#115=EDGE_CURVE('',#127,#136,#145,.T.);
#116=EDGE_CURVE('',#124,#135,#146,.T.);
#117=EDGE_CURVE('',#126,#134,#147,.T.);
#118=EDGE_CURVE('',#125,#133,#148,.T.);
#119=VERTEX_POINT('',#313);
#120=VERTEX_POINT('',#314);
#121=VERTEX_POINT('',#316);
#122=VERTEX_POINT('',#318);
#123=VERTEX_POINT('',#321);
#124=VERTEX_POINT('',#323);
#125=VERTEX_POINT('',#324);
#126=VERTEX_POINT('',#326);
#127=VERTEX_POINT('',#328);
#128=VERTEX_POINT('',#332);
#129=VERTEX_POINT('',#333);
#130=VERTEX_POINT('',#335);
#131=VERTEX_POINT('',#337);
#132=VERTEX_POINT('',#340);
#133=VERTEX_POINT('',#342);
#134=VERTEX_POINT('',#343);
#135=VERTEX_POINT('',#345);
#136=VERTEX_POINT('',#347);
#137=LINE('',#312,#149);
#138=LINE('',#317,#150);
#139=LINE('',#331,#151);
#140=LINE('',#336,#152);
#141=LINE('',#351,#153);
#142=LINE('',#352,#154);
#143=LINE('',#354,#155);
#144=LINE('',#356,#156);
#145=LINE('',#359,#157);
#146=LINE('',#360,#158);
#147=LINE('',#362,#159);
#148=LINE('',#364,#160);
#149=VECTOR('',#250,1.);
#150=VECTOR('',#253,1.);
#151=VECTOR('',#268,1.);
#152=VECTOR('',#271,1.);
#153=VECTOR('',#288,1.);
#154=VECTOR('',#289,1.);
#155=VECTOR('',#292,1.);
#156=VECTOR('',#295,1.);
#157=VECTOR('',#300,1.);
#158=VECTOR('',#301,1.);
#159=VECTOR('',#304,1.);
#160=VECTOR('',#307,1.);
#161=EDGE_LOOP('',(#41,#42,#43,#44));
#162=EDGE_LOOP('',(#45));
#163=EDGE_LOOP('',(#46,#47,#48,#49));
#164=EDGE_LOOP('',(#50,#51,#52,#53));
#165=EDGE_LOOP('',(#54));
#166=EDGE_LOOP('',(#55,#56,#57,#58));
#167=EDGE_LOOP('',(#59));
#168=EDGE_LOOP('',(#60));
#169=EDGE_LOOP('',(#61,#62,#63,#64));
#170=EDGE_LOOP('',(#65,#66,#67,#68));
#171=EDGE_LOOP('',(#69,#70,#71,#72));
#172=EDGE_LOOP('',(#73,#74,#75,#76));
#173=EDGE_LOOP('',(#77,#78,#79,#80));
#174=EDGE_LOOP('',(#81,#82,#83,#84));
#175=EDGE_LOOP('',(#85,#86,#87,#88));
#176=EDGE_LOOP('',(#89,#90,#91,#92));
#177=FACE_BOUND('',#161,.T.);
#178=FACE_BOUND('',#162,.T.);
#179=FACE_BOUND('',#163,.T.);
#180=FACE_BOUND('',#164,.T.);
#181=FACE_BOUND('',#165,.T.);
#182=FACE_BOUND('',#166,.T.);
#183=FACE_BOUND('',#167,.T.);
#184=FACE_BOUND('',#168,.T.);
#185=FACE_BOUND('',#169,.T.);
#186=FACE_BOUND('',#170,.T.);
#187=FACE_BOUND('',#171,.T.);
#188=FACE_BOUND('',#172,.T.);
#189=FACE_BOUND('',#173,.T.);
#190=FACE_BOUND('',#174,.T.);
#191=FACE_BOUND('',#175,.T.);
#192=FACE_BOUND('',#176,.T.);
#193=PLANE('',#221);
#194=PLANE('',#229);
#195=PLANE('',#239);
#196=PLANE('',#241);
#197=ADVANCED_FACE('',(#177,#178,#179),#193,.F.);
#198=ADVANCED_FACE('',(#180,#181,#182),#194,.T.);
#199=ADVANCED_FACE('',(#183,#184),#20,.F.);
#200=ADVANCED_FACE('',(#185),#21,.T.);
#201=ADVANCED_FACE('',(#186),#195,.F.);
#202=ADVANCED_FACE('',(#187),#22,.F.);
#203=ADVANCED_FACE('',(#188),#196,.F.);
#204=ADVANCED_FACE('',(#189),#23,.F.);
#205=ADVANCED_FACE('',(#190),#24,.F.);
#206=ADVANCED_FACE('',(#191),#25,.F.);
#207=ADVANCED_FACE('',(#192),#26,.T.);
#208=CLOSED_SHELL('',(#197,#198,#199,#200,#201,#202,#203,#204,#205,#206,
#207));
#209=STYLED_ITEM('',(#210),#217);
#210=PRESENTATION_STYLE_ASSIGNMENT((#211));
#211=SURFACE_STYLE_USAGE(.BOTH.,#212);
#212=SURFACE_SIDE_STYLE('',(#213));
#213=SURFACE_STYLE_FILL_AREA(#214);
#214=FILL_AREA_STYLE('',(#215));
#215=FILL_AREA_STYLE_COLOUR('',#216);
#216=COLOUR_RGB('',0.647058823529412,0.647058823529412,0.647058823529412);
#217=MANIFOLD_SOLID_BREP('buse 1',#208);
#218=SHAPE_DEFINITION_REPRESENTATION(#372,#219);
#219=SHAPE_REPRESENTATION('buse 1',(#220),#367);
#220=AXIS2_PLACEMENT_3D('',#310,#246,#247);
#221=AXIS2_PLACEMENT_3D('',#311,#248,#249);
#222=AXIS2_PLACEMENT_3D('',#315,#251,#252);
#223=AXIS2_PLACEMENT_3D('',#319,#254,#255);
#224=AXIS2_PLACEMENT_3D('',#320,#256,#257);
#225=AXIS2_PLACEMENT_3D('',#322,#258,#259);
#226=AXIS2_PLACEMENT_3D('',#325,#260,#261);
#227=AXIS2_PLACEMENT_3D('',#327,#262,#263);
#228=AXIS2_PLACEMENT_3D('',#329,#264,#265);
#229=AXIS2_PLACEMENT_3D('',#330,#266,#267);
#230=AXIS2_PLACEMENT_3D('',#334,#269,#270);
#231=AXIS2_PLACEMENT_3D('',#338,#272,#273);
#232=AXIS2_PLACEMENT_3D('',#339,#274,#275);
#233=AXIS2_PLACEMENT_3D('',#341,#276,#277);
#234=AXIS2_PLACEMENT_3D('',#344,#278,#279);
#235=AXIS2_PLACEMENT_3D('',#346,#280,#281);
#236=AXIS2_PLACEMENT_3D('',#348,#282,#283);
#237=AXIS2_PLACEMENT_3D('',#349,#284,#285);
#238=AXIS2_PLACEMENT_3D('',#350,#286,#287);
#239=AXIS2_PLACEMENT_3D('',#353,#290,#291);
#240=AXIS2_PLACEMENT_3D('',#355,#293,#294);
#241=AXIS2_PLACEMENT_3D('',#357,#296,#297);
#242=AXIS2_PLACEMENT_3D('',#358,#298,#299);
#243=AXIS2_PLACEMENT_3D('',#361,#302,#303);
#244=AXIS2_PLACEMENT_3D('',#363,#305,#306);
#245=AXIS2_PLACEMENT_3D('',#365,#308,#309);
#246=DIRECTION('',(0.,0.,1.));
#247=DIRECTION('',(1.,0.,0.));
#248=DIRECTION('',(0.,-1.,0.));
#249=DIRECTION('',(1.,0.,0.));
#250=DIRECTION('',(-1.73472347597681E-15,0.,-1.));
#251=DIRECTION('',(0.,-1.,0.));
#252=DIRECTION('',(0.,0.,-1.));
#253=DIRECTION('',(1.73472347597681E-15,0.,1.));
#254=DIRECTION('',(0.,-1.,0.));
#255=DIRECTION('',(0.,0.,-1.));
#256=DIRECTION('',(0.,-1.,0.));
#257=DIRECTION('',(0.,0.,-1.));
#258=DIRECTION('',(0.,-1.,0.));
#259=DIRECTION('',(0.,0.,-1.));
#260=DIRECTION('',(0.,-1.,0.));
#261=DIRECTION('',(0.,0.,-1.));
#262=DIRECTION('',(0.,-1.,0.));
#263=DIRECTION('',(0.,0.,-1.));
#264=DIRECTION('',(0.,-1.,0.));
#265=DIRECTION('',(0.,0.,-1.));
#266=DIRECTION('',(0.,-1.,0.));
#267=DIRECTION('',(1.,0.,0.));
#268=DIRECTION('',(-1.73472347597681E-15,0.,-1.));
#269=DIRECTION('',(0.,-1.,0.));
#270=DIRECTION('',(0.,0.,-1.));
#271=DIRECTION('',(1.73472347597681E-15,0.,1.));
#272=DIRECTION('',(0.,-1.,0.));
#273=DIRECTION('',(0.,0.,-1.));
#274=DIRECTION('',(0.,-1.,0.));
#275=DIRECTION('',(0.,0.,-1.));
#276=DIRECTION('',(0.,-1.,0.));
#277=DIRECTION('',(0.,0.,-1.));
#278=DIRECTION('',(0.,-1.,0.));
#279=DIRECTION('',(0.,0.,-1.));
#280=DIRECTION('',(0.,-1.,0.));
#281=DIRECTION('',(0.,0.,-1.));
#282=DIRECTION('',(0.,1.,0.));
#283=DIRECTION('',(0.,0.,-1.));
#284=DIRECTION('',(0.,-1.,0.));
#285=DIRECTION('',(0.,0.,-1.));
#286=DIRECTION('',(0.,-1.,0.));
#287=DIRECTION('',(0.,0.,-1.));
#288=DIRECTION('',(0.,-1.,0.));
#289=DIRECTION('',(0.,-1.,0.));
#290=DIRECTION('',(1.,0.,-1.73472347597681E-15));
#291=DIRECTION('',(-1.73472347597681E-15,0.,-1.));
#292=DIRECTION('',(0.,-1.,0.));
#293=DIRECTION('',(0.,-1.,0.));
#294=DIRECTION('',(0.,0.,-1.));
#295=DIRECTION('',(0.,-1.,0.));
#296=DIRECTION('',(-1.,0.,1.73472347597681E-15));
#297=DIRECTION('',(1.73472347597681E-15,0.,1.));
#298=DIRECTION('',(0.,-1.,0.));
#299=DIRECTION('',(0.,0.,-1.));
#300=DIRECTION('',(0.,-1.,0.));
#301=DIRECTION('',(0.,-1.,0.));
#302=DIRECTION('',(0.,-1.,0.));
#303=DIRECTION('',(0.,0.,-1.));
#304=DIRECTION('',(0.,-1.,0.));
#305=DIRECTION('',(0.,-1.,0.));
#306=DIRECTION('',(0.,0.,-1.));
#307=DIRECTION('',(0.,-1.,0.));
#308=DIRECTION('',(0.,-1.,0.));
#309=DIRECTION('',(0.,0.,-1.));
#310=CARTESIAN_POINT('',(0.,0.,0.));
#311=CARTESIAN_POINT('',(0.,0.0054,0.));
#312=CARTESIAN_POINT('',(0.002,0.0054,0.0298));
#313=CARTESIAN_POINT('',(0.002,0.0054,0.0307349963396777));
#314=CARTESIAN_POINT('',(0.002,0.0054,0.0288));
#315=CARTESIAN_POINT('',(0.,0.0054,1.88595607068693E-18));
#316=CARTESIAN_POINT('',(-0.002,0.0054,0.0307349963396777));
#317=CARTESIAN_POINT('',(-0.002,0.0054,0.0298));
#318=CARTESIAN_POINT('',(-0.002,0.0054,0.0288));
#319=CARTESIAN_POINT('',(0.,0.0054,0.0288));
#320=CARTESIAN_POINT('',(0.,0.0054,2.75545529808154E-19));
#321=CARTESIAN_POINT('',(0.,0.0054,-0.0045));
#322=CARTESIAN_POINT('',(-7.90009832758886E-19,0.0054,-1.21430643318376E-16));
#323=CARTESIAN_POINT('',(0.0129740875320631,0.0054,0.0129740875320631));
#324=CARTESIAN_POINT('',(-0.0129740875320631,0.0054,0.0129740875320631));
#325=CARTESIAN_POINT('',(-0.0136811943132497,0.0054,0.0136811943132497));
#326=CARTESIAN_POINT('',(-0.0143883010944362,0.0054,0.0143883010944361));
#327=CARTESIAN_POINT('',(2.32055715688545E-19,0.0054,-6.15826833971767E-17));
#328=CARTESIAN_POINT('',(0.0143883010944362,0.0054,0.0143883010944362));
#329=CARTESIAN_POINT('',(0.0136811943132497,0.0054,0.0136811943132497));
#330=CARTESIAN_POINT('',(0.,0.,0.));
#331=CARTESIAN_POINT('',(-0.002,0.,0.0298));
#332=CARTESIAN_POINT('',(-0.002,0.,0.0307349963396777));
#333=CARTESIAN_POINT('',(-0.002,0.,0.0288));
#334=CARTESIAN_POINT('',(0.,0.,1.88595607068693E-18));
#335=CARTESIAN_POINT('',(0.002,0.,0.0307349963396777));
#336=CARTESIAN_POINT('',(0.002,0.,0.0298));
#337=CARTESIAN_POINT('',(0.002,0.,0.0288));
#338=CARTESIAN_POINT('',(0.,0.,0.0288));
#339=CARTESIAN_POINT('',(0.,0.,2.75545529808154E-19));
#340=CARTESIAN_POINT('',(0.,0.,-0.0045));
#341=CARTESIAN_POINT('',(-0.0136811943132497,0.,0.0136811943132497));
#342=CARTESIAN_POINT('',(-0.0129740875320631,0.,0.0129740875320631));
#343=CARTESIAN_POINT('',(-0.0143883010944362,0.,0.0143883010944361));
#344=CARTESIAN_POINT('',(-7.90009832758886E-19,0.,-1.21430643318376E-16));
#345=CARTESIAN_POINT('',(0.0129740875320631,0.,0.0129740875320631));
#346=CARTESIAN_POINT('',(0.0136811943132497,0.,0.0136811943132497));
#347=CARTESIAN_POINT('',(0.0143883010944362,0.,0.0143883010944362));
#348=CARTESIAN_POINT('',(2.32055715688545E-19,0.,-6.15826833971767E-17));
#349=CARTESIAN_POINT('',(0.,0.0054,2.75545529808154E-19));
#350=CARTESIAN_POINT('',(0.,0.0054,1.88595607068693E-18));
#351=CARTESIAN_POINT('',(-0.002,0.0054,0.0307349963396777));
#352=CARTESIAN_POINT('',(0.002,0.0054,0.0307349963396777));
#353=CARTESIAN_POINT('',(0.002,0.005402,0.0298));
#354=CARTESIAN_POINT('',(0.002,0.005402,0.0288));
#355=CARTESIAN_POINT('',(0.,0.005402,0.0288));
#356=CARTESIAN_POINT('',(-0.002,0.005402,0.0288));
#357=CARTESIAN_POINT('',(-0.002,0.005402,0.0298));
#358=CARTESIAN_POINT('',(0.0136811943132497,0.005402,0.0136811943132497));
#359=CARTESIAN_POINT('',(0.0143883010944362,0.005402,0.0143883010944362));
#360=CARTESIAN_POINT('',(0.0129740875320631,0.005402,0.0129740875320631));
#361=CARTESIAN_POINT('',(2.32055715688545E-19,0.005402,-6.15826833971767E-17));
#362=CARTESIAN_POINT('',(-0.0143883010944362,0.005402,0.0143883010944361));
#363=CARTESIAN_POINT('',(-0.0136811943132497,0.005402,0.0136811943132497));
#364=CARTESIAN_POINT('',(-0.0129740875320631,0.005402,0.0129740875320631));
#365=CARTESIAN_POINT('',(-7.90009832758886E-19,0.005402,-1.21430643318376E-16));
#366=MECHANICAL_DESIGN_GEOMETRIC_PRESENTATION_REPRESENTATION('',(#209),
#367);
#367=(
GEOMETRIC_REPRESENTATION_CONTEXT(3)
GLOBAL_UNCERTAINTY_ASSIGNED_CONTEXT((#368))
GLOBAL_UNIT_ASSIGNED_CONTEXT((#371,#370,#369))
REPRESENTATION_CONTEXT('buse 1','TOP_LEVEL_ASSEMBLY_PART')
);
#368=UNCERTAINTY_MEASURE_WITH_UNIT(LENGTH_MEASURE(5.E-6),#371,
'DISTANCE_ACCURACY_VALUE','Maximum Tolerance applied to model');
#369=(
NAMED_UNIT(*)
SI_UNIT($,.STERADIAN.)
SOLID_ANGLE_UNIT()
);
#370=(
NAMED_UNIT(*)
PLANE_ANGLE_UNIT()
SI_UNIT($,.RADIAN.)
);
#371=(
LENGTH_UNIT()
NAMED_UNIT(*)
SI_UNIT($,.METRE.)
);
#372=PRODUCT_DEFINITION_SHAPE('','',#373);
#373=PRODUCT_DEFINITION('','',#375,#374);
#374=PRODUCT_DEFINITION_CONTEXT('',#381,'design');
#375=PRODUCT_DEFINITION_FORMATION_WITH_SPECIFIED_SOURCE('','',#377,
 .NOT_KNOWN.);
#376=PRODUCT_RELATED_PRODUCT_CATEGORY('','',(#377));
#377=PRODUCT('buse 1','buse 1','buse 1',(#379));
#378=PRODUCT_CATEGORY('','');
#379=PRODUCT_CONTEXT('',#381,'mechanical');
#380=APPLICATION_PROTOCOL_DEFINITION('international standard',
'automotive_design',2010,#381);
#381=APPLICATION_CONTEXT(
'core data for automotive mechanical design processes');
ENDSEC;
END-ISO-10303-21;
