ISO-10303-21;
HEADER;
/* Generated by software containing ST-Developer
 * from STEP Tools, Inc. (www.steptools.com) 
 */

FILE_DESCRIPTION(
/* description */ ('Alibre Inc.'),
/* implementation_level */ '2;1');

FILE_NAME(
/* name */ 'export0',
/* time_stamp */ '2021-07-30T08:35:00+02:00',
/* author */ (''),
/* organization */ (''),
/* preprocessor_version */ 'ST-DEVELOPER v14',
/* originating_system */ 'Alibre',
/* authorisation */ '');

FILE_SCHEMA (('CONFIG_CONTROL_DESIGN'));
ENDSEC;

DATA;
#10=MECHANICAL_CONTEXT('detailed design',#18,'mechanical');
#11=PRODUCT_RELATED_PRODUCT_CATEGORY('d\X\E9tail','',(#98));
#12=CC_DESIGN_SECURITY_CLASSIFICATION(#14,(#97));
#13=SECURITY_CLASSIFICATION_LEVEL('unclassified');
#14=SECURITY_CLASSIFICATION('nom','Niveau de s\X\E9curit\X\E9 pour la v
ersion',#13);
#15=SHAPE_DEFINITION_REPRESENTATION(#16,#582);
#16=PRODUCT_DEFINITION_SHAPE('','Desc. D\X\E9finition',#96);
#17=APPLICATION_PROTOCOL_DEFINITION('AP definition status',
'config_control_design',1994,#18);
#18=APPLICATION_CONTEXT(
'control the configuration of three dimensional design');
#19=DESIGN_CONTEXT('detailed design',#18,'design');
#20=PERSON_AND_ORGANIZATION_ROLE('creator');
#21=PERSON_AND_ORGANIZATION_ROLE('classification_officer');
#22=PERSON_AND_ORGANIZATION_ROLE('creator');
#23=PERSON_AND_ORGANIZATION_ROLE('design_supplier');
#24=PERSON_AND_ORGANIZATION_ROLE('design_owner');
#25=CC_DESIGN_PERSON_AND_ORGANIZATION_ASSIGNMENT(#57,#20,(#96));
#26=CC_DESIGN_PERSON_AND_ORGANIZATION_ASSIGNMENT(#60,#21,(#14));
#27=CC_DESIGN_PERSON_AND_ORGANIZATION_ASSIGNMENT(#61,#22,(#97));
#28=CC_DESIGN_PERSON_AND_ORGANIZATION_ASSIGNMENT(#62,#23,(#97));
#29=CC_DESIGN_PERSON_AND_ORGANIZATION_ASSIGNMENT(#63,#24,(#98));
#30=DATE_TIME_ROLE('creation_date');
#31=DATE_TIME_ROLE('classification_date');
#32=CC_DESIGN_DATE_AND_TIME_ASSIGNMENT(#86,#30,(#96));
#33=CC_DESIGN_DATE_AND_TIME_ASSIGNMENT(#89,#31,(#14));
#34=CC_DESIGN_APPROVAL(#93,(#96));
#35=CC_DESIGN_APPROVAL(#94,(#97));
#36=CC_DESIGN_APPROVAL(#95,(#14));
#37=APPROVAL_PERSON_ORGANIZATION(#56,#93,#64);
#38=APPROVAL_PERSON_ORGANIZATION(#58,#94,#65);
#39=APPROVAL_PERSON_ORGANIZATION(#59,#95,#66);
#40=ORGANIZATION('DEFINITION_APPROVEDBY_ORG_ID',
'DEFINITION_APPROVEDBY_ORG_NAME','DEFINITION_APPROVEDBY_ORG_DESCR');
#41=ORGANIZATION('DEF_CREATOR_ORG_ID','DEF_CREATOR_ORG_NAME',
'DEF_CREATOR_ORG_DESCR');
#42=ORGANIZATION('ID_ORG_APPROBATEUR','NOM_ORG_APPROBATEUR',
'DESCR_ORG_APPROBATEUR');
#43=ORGANIZATION('SECURITY_APPROVEDBY_ORG_ID',
'SECURITY_APPROVEDBY_ORG_NAME','SECURITY_APPROVEDBY_ORG_DESCR');
#44=ORGANIZATION('CLASSOFFICER_ORG_ID','CLASSOFFICER_ORG_NAME',
'CLASSOFFICER_ORG_DESCR');
#45=ORGANIZATION('CODE_SOCIETE_CREATEUR','NOM_SOCIETE_CREATEUR',
'DESCRIPTION_SOCIETE_CREATEUR');
#46=ORGANIZATION('SUPPLIER_ORG_ID','SUPPLIER_ORG_NAME',
'SUPPLIER_ORG_DESCR');
#47=ORGANIZATION('PROPRIETAIRE_SOCIETE_ID','PROPRIETAIRE_SOCIETE_NOM',
'PROPRIETAIRE_SOCIETE_DESCRIPTION');
#48=PERSON('ID_Validateur D\X\E9finition',
'DEFINITION_APPROVEDBY_LASTNAME','DEFINITION_APPROVEDBY_FIRSTNAME',$,$,$);
#49=PERSON('DEF_createrID','DEF_CREATOR_LASTNAME',
'DEF_CREATOR_FIRSTNAME',$,$,$);
#50=PERSON('ID Validateur','NOM_APPROBATEUR','PRENOM_APPROBATEUR',$,$,$);
#51=PERSON('SECURITY_approverID','SECURITY_LASTNAME',
'SECURITY_APPROVEDBY_FIRSTNAME',$,$,$);
#52=PERSON('classifierID','CLASSOFFICER_LASTNAME',
'CLASSOFFICER_FIRSTNAME',$,$,$);
#53=PERSON('Code cr\X\E9ateur','NOM_CREATEUR','PRENOM_CREATEUR',$,$,$);
#54=PERSON('Code fournisseur','SUPPLIER_LASTNAME','SUPPLIER_FIRSTNAME',$,
$,$);
#55=PERSON('ID propri\X\E9taire','PROPRIETAIRE_NOM',
'PROPRIETAIRE_PRENOM',$,$,$);
#56=PERSON_AND_ORGANIZATION(#48,#40);
#57=PERSON_AND_ORGANIZATION(#49,#41);
#58=PERSON_AND_ORGANIZATION(#50,#42);
#59=PERSON_AND_ORGANIZATION(#51,#43);
#60=PERSON_AND_ORGANIZATION(#52,#44);
#61=PERSON_AND_ORGANIZATION(#53,#45);
#62=PERSON_AND_ORGANIZATION(#54,#46);
#63=PERSON_AND_ORGANIZATION(#55,#47);
#64=APPROVAL_ROLE('definition_approval');
#65=APPROVAL_ROLE('version_approval');
#66=APPROVAL_ROLE('security_approval');
#67=APPROVAL_DATE_TIME(#85,#93);
#68=APPROVAL_DATE_TIME(#87,#94);
#69=APPROVAL_DATE_TIME(#88,#95);
#70=COORDINATED_UNIVERSAL_TIME_OFFSET(2,0,.AHEAD.);
#71=COORDINATED_UNIVERSAL_TIME_OFFSET(2,0,.AHEAD.);
#72=COORDINATED_UNIVERSAL_TIME_OFFSET(2,0,.AHEAD.);
#73=COORDINATED_UNIVERSAL_TIME_OFFSET(2,0,.AHEAD.);
#74=COORDINATED_UNIVERSAL_TIME_OFFSET(2,0,.AHEAD.);
#75=LOCAL_TIME(14,5,57.,#70);
#76=LOCAL_TIME(14,5,57.,#71);
#77=LOCAL_TIME(14,5,57.,#72);
#78=LOCAL_TIME(14,5,57.,#73);
#79=LOCAL_TIME(14,5,57.,#74);
#80=CALENDAR_DATE(2021,29,7);
#81=CALENDAR_DATE(2021,29,7);
#82=CALENDAR_DATE(2021,29,7);
#83=CALENDAR_DATE(2021,29,7);
#84=CALENDAR_DATE(2021,29,7);
#85=DATE_AND_TIME(#80,#75);
#86=DATE_AND_TIME(#81,#76);
#87=DATE_AND_TIME(#82,#77);
#88=DATE_AND_TIME(#83,#78);
#89=DATE_AND_TIME(#84,#79);
#90=APPROVAL_STATUS('not_yet_approved');
#91=APPROVAL_STATUS('not_yet_approved');
#92=APPROVAL_STATUS('not_yet_approved');
#93=APPROVAL(#90,'Concept valid\X\E9');
#94=APPROVAL(#91,'version approuv\X\E9e');
#95=APPROVAL(#92,'security approval');
#96=PRODUCT_DEFINITION('ID D\X\E9finition','Desc. D\X\E9finition',#97,#19);
#97=PRODUCT_DEFINITION_FORMATION_WITH_SPECIFIED_SOURCE(
'REFERENCE_PRODUIT','DESCR_VERSION_PRODUIT',#98,.NOT_KNOWN.);
#98=PRODUCT('ID_1','Platine indexeur cuve r\X\E9ticulation','',(#10));
#99=(
LENGTH_UNIT()
NAMED_UNIT(*)
SI_UNIT(.CENTI.,.METRE.)
);
#100=(
NAMED_UNIT(*)
PLANE_ANGLE_UNIT()
SI_UNIT($,.RADIAN.)
);
#101=(
NAMED_UNIT(*)
SI_UNIT($,.STERADIAN.)
SOLID_ANGLE_UNIT()
);
#102=UNCERTAINTY_MEASURE_WITH_UNIT(LENGTH_MEASURE(1.E-006),#99,
'DISTANCE_ACCURACY_VALUE',
'Maximum model space distance between geometric entities at asserted co
nnectivities');
#103=(
GEOMETRIC_REPRESENTATION_CONTEXT(3)
GLOBAL_UNCERTAINTY_ASSIGNED_CONTEXT((#102))
GLOBAL_UNIT_ASSIGNED_CONTEXT((#101,#100,#99))
REPRESENTATION_CONTEXT('ID1','3D')
);
#104=PLANE('',#385);
#105=PLANE('',#411);
#106=CONICAL_SURFACE('',#370,0.55,0.785398163397448);
#107=CONICAL_SURFACE('',#375,0.55,0.785398163397448);
#108=CONICAL_SURFACE('',#380,0.55,0.785398163397448);
#109=CONICAL_SURFACE('',#382,0.625,0.785398163397448);
#110=CONICAL_SURFACE('',#393,2.025,0.785398163397448);
#111=CONICAL_SURFACE('',#397,0.625,0.785398163397448);
#112=CONICAL_SURFACE('',#401,0.625,0.785398163397448);
#113=CONICAL_SURFACE('',#405,0.625,0.785398163397448);
#114=VERTEX_POINT('',#502);
#115=VERTEX_POINT('',#504);
#116=VERTEX_POINT('',#507);
#117=VERTEX_POINT('',#510);
#118=VERTEX_POINT('',#512);
#119=VERTEX_POINT('',#515);
#120=VERTEX_POINT('',#518);
#121=VERTEX_POINT('',#520);
#122=VERTEX_POINT('',#523);
#123=VERTEX_POINT('',#526);
#124=VERTEX_POINT('',#528);
#125=VERTEX_POINT('',#531);
#126=VERTEX_POINT('',#533);
#127=VERTEX_POINT('',#535);
#128=VERTEX_POINT('',#537);
#129=VERTEX_POINT('',#539);
#130=VERTEX_POINT('',#542);
#131=VERTEX_POINT('',#545);
#132=VERTEX_POINT('',#548);
#133=VERTEX_POINT('',#551);
#134=VERTEX_POINT('',#554);
#135=VERTEX_POINT('',#557);
#136=VERTEX_POINT('',#560);
#137=VERTEX_POINT('',#563);
#138=VERTEX_POINT('',#566);
#139=VERTEX_POINT('',#569);
#140=CIRCLE('',#368,0.3);
#141=CIRCLE('',#369,0.3);
#142=CIRCLE('',#371,0.55);
#143=CIRCLE('',#373,0.3);
#144=CIRCLE('',#374,0.3);
#145=CIRCLE('',#376,0.55);
#146=CIRCLE('',#378,0.3);
#147=CIRCLE('',#379,0.3);
#148=CIRCLE('',#381,0.55);
#149=CIRCLE('',#383,0.625);
#150=CIRCLE('',#384,0.6);
#151=CIRCLE('',#386,2.025);
#152=CIRCLE('',#387,0.625);
#153=CIRCLE('',#388,7.5);
#154=CIRCLE('',#389,0.625);
#155=CIRCLE('',#390,0.625);
#156=CIRCLE('',#392,0.6);
#157=CIRCLE('',#394,2.);
#158=CIRCLE('',#396,2.);
#159=CIRCLE('',#398,0.6);
#160=CIRCLE('',#400,0.6);
#161=CIRCLE('',#402,0.6);
#162=CIRCLE('',#404,0.6);
#163=CIRCLE('',#406,0.6);
#164=CIRCLE('',#408,0.6);
#165=CIRCLE('',#410,7.5);
#166=EDGE_CURVE('',#114,#114,#140,.T.);
#167=EDGE_CURVE('',#115,#115,#141,.T.);
#168=EDGE_CURVE('',#116,#116,#142,.T.);
#169=EDGE_CURVE('',#117,#117,#143,.T.);
#170=EDGE_CURVE('',#118,#118,#144,.T.);
#171=EDGE_CURVE('',#119,#119,#145,.T.);
#172=EDGE_CURVE('',#120,#120,#146,.T.);
#173=EDGE_CURVE('',#121,#121,#147,.T.);
#174=EDGE_CURVE('',#122,#122,#148,.T.);
#175=EDGE_CURVE('',#123,#123,#149,.T.);
#176=EDGE_CURVE('',#124,#124,#150,.T.);
#177=EDGE_CURVE('',#125,#125,#151,.T.);
#178=EDGE_CURVE('',#126,#126,#152,.T.);
#179=EDGE_CURVE('',#127,#127,#153,.T.);
#180=EDGE_CURVE('',#128,#128,#154,.T.);
#181=EDGE_CURVE('',#129,#129,#155,.T.);
#182=EDGE_CURVE('',#130,#130,#156,.T.);
#183=EDGE_CURVE('',#131,#131,#157,.T.);
#184=EDGE_CURVE('',#132,#132,#158,.T.);
#185=EDGE_CURVE('',#133,#133,#159,.T.);
#186=EDGE_CURVE('',#134,#134,#160,.T.);
#187=EDGE_CURVE('',#135,#135,#161,.T.);
#188=EDGE_CURVE('',#136,#136,#162,.T.);
#189=EDGE_CURVE('',#137,#137,#163,.T.);
#190=EDGE_CURVE('',#138,#138,#164,.T.);
#191=EDGE_CURVE('',#139,#139,#165,.T.);
#192=ORIENTED_EDGE('',*,*,#166,.F.);
#193=ORIENTED_EDGE('',*,*,#167,.T.);
#194=ORIENTED_EDGE('',*,*,#167,.F.);
#195=ORIENTED_EDGE('',*,*,#168,.F.);
#196=ORIENTED_EDGE('',*,*,#169,.F.);
#197=ORIENTED_EDGE('',*,*,#170,.T.);
#198=ORIENTED_EDGE('',*,*,#170,.F.);
#199=ORIENTED_EDGE('',*,*,#171,.F.);
#200=ORIENTED_EDGE('',*,*,#172,.F.);
#201=ORIENTED_EDGE('',*,*,#173,.T.);
#202=ORIENTED_EDGE('',*,*,#173,.F.);
#203=ORIENTED_EDGE('',*,*,#174,.F.);
#204=ORIENTED_EDGE('',*,*,#175,.T.);
#205=ORIENTED_EDGE('',*,*,#176,.T.);
#206=ORIENTED_EDGE('',*,*,#168,.T.);
#207=ORIENTED_EDGE('',*,*,#171,.T.);
#208=ORIENTED_EDGE('',*,*,#174,.T.);
#209=ORIENTED_EDGE('',*,*,#177,.F.);
#210=ORIENTED_EDGE('',*,*,#178,.F.);
#211=ORIENTED_EDGE('',*,*,#179,.F.);
#212=ORIENTED_EDGE('',*,*,#180,.F.);
#213=ORIENTED_EDGE('',*,*,#181,.F.);
#214=ORIENTED_EDGE('',*,*,#175,.F.);
#215=ORIENTED_EDGE('',*,*,#182,.F.);
#216=ORIENTED_EDGE('',*,*,#176,.F.);
#217=ORIENTED_EDGE('',*,*,#177,.T.);
#218=ORIENTED_EDGE('',*,*,#183,.T.);
#219=ORIENTED_EDGE('',*,*,#184,.F.);
#220=ORIENTED_EDGE('',*,*,#183,.F.);
#221=ORIENTED_EDGE('',*,*,#181,.T.);
#222=ORIENTED_EDGE('',*,*,#185,.T.);
#223=ORIENTED_EDGE('',*,*,#186,.F.);
#224=ORIENTED_EDGE('',*,*,#185,.F.);
#225=ORIENTED_EDGE('',*,*,#178,.T.);
#226=ORIENTED_EDGE('',*,*,#187,.T.);
#227=ORIENTED_EDGE('',*,*,#188,.F.);
#228=ORIENTED_EDGE('',*,*,#187,.F.);
#229=ORIENTED_EDGE('',*,*,#180,.T.);
#230=ORIENTED_EDGE('',*,*,#189,.T.);
#231=ORIENTED_EDGE('',*,*,#190,.F.);
#232=ORIENTED_EDGE('',*,*,#189,.F.);
#233=ORIENTED_EDGE('',*,*,#179,.T.);
#234=ORIENTED_EDGE('',*,*,#191,.T.);
#235=ORIENTED_EDGE('',*,*,#166,.T.);
#236=ORIENTED_EDGE('',*,*,#169,.T.);
#237=ORIENTED_EDGE('',*,*,#172,.T.);
#238=ORIENTED_EDGE('',*,*,#188,.T.);
#239=ORIENTED_EDGE('',*,*,#184,.T.);
#240=ORIENTED_EDGE('',*,*,#182,.T.);
#241=ORIENTED_EDGE('',*,*,#190,.T.);
#242=ORIENTED_EDGE('',*,*,#186,.T.);
#243=ORIENTED_EDGE('',*,*,#191,.F.);
#244=EDGE_LOOP('',(#192));
#245=EDGE_LOOP('',(#193));
#246=EDGE_LOOP('',(#194));
#247=EDGE_LOOP('',(#195));
#248=EDGE_LOOP('',(#196));
#249=EDGE_LOOP('',(#197));
#250=EDGE_LOOP('',(#198));
#251=EDGE_LOOP('',(#199));
#252=EDGE_LOOP('',(#200));
#253=EDGE_LOOP('',(#201));
#254=EDGE_LOOP('',(#202));
#255=EDGE_LOOP('',(#203));
#256=EDGE_LOOP('',(#204));
#257=EDGE_LOOP('',(#205));
#258=EDGE_LOOP('',(#206));
#259=EDGE_LOOP('',(#207));
#260=EDGE_LOOP('',(#208));
#261=EDGE_LOOP('',(#209));
#262=EDGE_LOOP('',(#210));
#263=EDGE_LOOP('',(#211));
#264=EDGE_LOOP('',(#212));
#265=EDGE_LOOP('',(#213));
#266=EDGE_LOOP('',(#214));
#267=EDGE_LOOP('',(#215));
#268=EDGE_LOOP('',(#216));
#269=EDGE_LOOP('',(#217));
#270=EDGE_LOOP('',(#218));
#271=EDGE_LOOP('',(#219));
#272=EDGE_LOOP('',(#220));
#273=EDGE_LOOP('',(#221));
#274=EDGE_LOOP('',(#222));
#275=EDGE_LOOP('',(#223));
#276=EDGE_LOOP('',(#224));
#277=EDGE_LOOP('',(#225));
#278=EDGE_LOOP('',(#226));
#279=EDGE_LOOP('',(#227));
#280=EDGE_LOOP('',(#228));
#281=EDGE_LOOP('',(#229));
#282=EDGE_LOOP('',(#230));
#283=EDGE_LOOP('',(#231));
#284=EDGE_LOOP('',(#232));
#285=EDGE_LOOP('',(#233));
#286=EDGE_LOOP('',(#234));
#287=EDGE_LOOP('',(#235));
#288=EDGE_LOOP('',(#236));
#289=EDGE_LOOP('',(#237));
#290=EDGE_LOOP('',(#238));
#291=EDGE_LOOP('',(#239));
#292=EDGE_LOOP('',(#240));
#293=EDGE_LOOP('',(#241));
#294=EDGE_LOOP('',(#242));
#295=EDGE_LOOP('',(#243));
#296=FACE_BOUND('',#244,.T.);
#297=FACE_BOUND('',#245,.T.);
#298=FACE_BOUND('',#246,.T.);
#299=FACE_BOUND('',#247,.T.);
#300=FACE_BOUND('',#248,.T.);
#301=FACE_BOUND('',#249,.T.);
#302=FACE_BOUND('',#250,.T.);
#303=FACE_BOUND('',#251,.T.);
#304=FACE_BOUND('',#252,.T.);
#305=FACE_BOUND('',#253,.T.);
#306=FACE_BOUND('',#254,.T.);
#307=FACE_BOUND('',#255,.T.);
#308=FACE_BOUND('',#256,.T.);
#309=FACE_BOUND('',#257,.T.);
#310=FACE_BOUND('',#258,.T.);
#311=FACE_BOUND('',#259,.T.);
#312=FACE_BOUND('',#260,.T.);
#313=FACE_BOUND('',#261,.T.);
#314=FACE_BOUND('',#262,.T.);
#315=FACE_BOUND('',#263,.T.);
#316=FACE_BOUND('',#264,.T.);
#317=FACE_BOUND('',#265,.T.);
#318=FACE_BOUND('',#266,.T.);
#319=FACE_BOUND('',#267,.T.);
#320=FACE_BOUND('',#268,.T.);
#321=FACE_BOUND('',#269,.T.);
#322=FACE_BOUND('',#270,.T.);
#323=FACE_BOUND('',#271,.T.);
#324=FACE_BOUND('',#272,.T.);
#325=FACE_BOUND('',#273,.T.);
#326=FACE_BOUND('',#274,.T.);
#327=FACE_BOUND('',#275,.T.);
#328=FACE_BOUND('',#276,.T.);
#329=FACE_BOUND('',#277,.T.);
#330=FACE_BOUND('',#278,.T.);
#331=FACE_BOUND('',#279,.T.);
#332=FACE_BOUND('',#280,.T.);
#333=FACE_BOUND('',#281,.T.);
#334=FACE_BOUND('',#282,.T.);
#335=FACE_BOUND('',#283,.T.);
#336=FACE_BOUND('',#284,.T.);
#337=FACE_BOUND('',#285,.T.);
#338=FACE_BOUND('',#286,.T.);
#339=FACE_BOUND('',#287,.T.);
#340=FACE_BOUND('',#288,.T.);
#341=FACE_BOUND('',#289,.T.);
#342=FACE_BOUND('',#290,.T.);
#343=FACE_BOUND('',#291,.T.);
#344=FACE_BOUND('',#292,.T.);
#345=FACE_BOUND('',#293,.T.);
#346=FACE_BOUND('',#294,.T.);
#347=FACE_BOUND('',#295,.T.);
#348=ADVANCED_FACE('',(#296,#297),#571,.F.);
#349=ADVANCED_FACE('',(#298,#299),#106,.F.);
#350=ADVANCED_FACE('',(#300,#301),#572,.F.);
#351=ADVANCED_FACE('',(#302,#303),#107,.F.);
#352=ADVANCED_FACE('',(#304,#305),#573,.F.);
#353=ADVANCED_FACE('',(#306,#307),#108,.F.);
#354=ADVANCED_FACE('',(#308,#309),#109,.F.);
#355=ADVANCED_FACE('',(#310,#311,#312,#313,#314,#315,#316,#317,#318),#104,
 .T.);
#356=ADVANCED_FACE('',(#319,#320),#574,.F.);
#357=ADVANCED_FACE('',(#321,#322),#110,.F.);
#358=ADVANCED_FACE('',(#323,#324),#575,.F.);
#359=ADVANCED_FACE('',(#325,#326),#111,.F.);
#360=ADVANCED_FACE('',(#327,#328),#576,.F.);
#361=ADVANCED_FACE('',(#329,#330),#112,.F.);
#362=ADVANCED_FACE('',(#331,#332),#577,.F.);
#363=ADVANCED_FACE('',(#333,#334),#113,.F.);
#364=ADVANCED_FACE('',(#335,#336),#578,.F.);
#365=ADVANCED_FACE('',(#337,#338),#579,.T.);
#366=ADVANCED_FACE('',(#339,#340,#341,#342,#343,#344,#345,#346,#347),#105,
 .F.);
#367=AXIS2_PLACEMENT_3D('',#500,#412,#413);
#368=AXIS2_PLACEMENT_3D('',#501,#414,#415);
#369=AXIS2_PLACEMENT_3D('',#503,#416,#417);
#370=AXIS2_PLACEMENT_3D('',#505,#418,#419);
#371=AXIS2_PLACEMENT_3D('',#506,#420,#421);
#372=AXIS2_PLACEMENT_3D('',#508,#422,#423);
#373=AXIS2_PLACEMENT_3D('',#509,#424,#425);
#374=AXIS2_PLACEMENT_3D('',#511,#426,#427);
#375=AXIS2_PLACEMENT_3D('',#513,#428,#429);
#376=AXIS2_PLACEMENT_3D('',#514,#430,#431);
#377=AXIS2_PLACEMENT_3D('',#516,#432,#433);
#378=AXIS2_PLACEMENT_3D('',#517,#434,#435);
#379=AXIS2_PLACEMENT_3D('',#519,#436,#437);
#380=AXIS2_PLACEMENT_3D('',#521,#438,#439);
#381=AXIS2_PLACEMENT_3D('',#522,#440,#441);
#382=AXIS2_PLACEMENT_3D('',#524,#442,#443);
#383=AXIS2_PLACEMENT_3D('',#525,#444,#445);
#384=AXIS2_PLACEMENT_3D('',#527,#446,#447);
#385=AXIS2_PLACEMENT_3D('',#529,#448,$);
#386=AXIS2_PLACEMENT_3D('',#530,#449,#450);
#387=AXIS2_PLACEMENT_3D('',#532,#451,#452);
#388=AXIS2_PLACEMENT_3D('',#534,#453,#454);
#389=AXIS2_PLACEMENT_3D('',#536,#455,#456);
#390=AXIS2_PLACEMENT_3D('',#538,#457,#458);
#391=AXIS2_PLACEMENT_3D('',#540,#459,#460);
#392=AXIS2_PLACEMENT_3D('',#541,#461,#462);
#393=AXIS2_PLACEMENT_3D('',#543,#463,#464);
#394=AXIS2_PLACEMENT_3D('',#544,#465,#466);
#395=AXIS2_PLACEMENT_3D('',#546,#467,#468);
#396=AXIS2_PLACEMENT_3D('',#547,#469,#470);
#397=AXIS2_PLACEMENT_3D('',#549,#471,#472);
#398=AXIS2_PLACEMENT_3D('',#550,#473,#474);
#399=AXIS2_PLACEMENT_3D('',#552,#475,#476);
#400=AXIS2_PLACEMENT_3D('',#553,#477,#478);
#401=AXIS2_PLACEMENT_3D('',#555,#479,#480);
#402=AXIS2_PLACEMENT_3D('',#556,#481,#482);
#403=AXIS2_PLACEMENT_3D('',#558,#483,#484);
#404=AXIS2_PLACEMENT_3D('',#559,#485,#486);
#405=AXIS2_PLACEMENT_3D('',#561,#487,#488);
#406=AXIS2_PLACEMENT_3D('',#562,#489,#490);
#407=AXIS2_PLACEMENT_3D('',#564,#491,#492);
#408=AXIS2_PLACEMENT_3D('',#565,#493,#494);
#409=AXIS2_PLACEMENT_3D('',#567,#495,#496);
#410=AXIS2_PLACEMENT_3D('',#568,#497,#498);
#411=AXIS2_PLACEMENT_3D('',#570,#499,$);
#412=DIRECTION('',(0.,-1.,0.));
#413=DIRECTION('',(0.3,0.,0.));
#414=DIRECTION('',(0.,1.,0.));
#415=DIRECTION('',(0.3,0.,0.));
#416=DIRECTION('',(0.,1.,0.));
#417=DIRECTION('',(0.3,0.,0.));
#418=DIRECTION('',(0.,1.,0.));
#419=DIRECTION('',(0.55,0.,0.));
#420=DIRECTION('',(0.,-1.,0.));
#421=DIRECTION('',(0.55,0.,0.));
#422=DIRECTION('',(0.,-1.,0.));
#423=DIRECTION('',(0.3,0.,0.));
#424=DIRECTION('',(0.,1.,0.));
#425=DIRECTION('',(0.3,0.,0.));
#426=DIRECTION('',(0.,1.,0.));
#427=DIRECTION('',(0.3,0.,0.));
#428=DIRECTION('',(0.,1.,0.));
#429=DIRECTION('',(0.55,0.,0.));
#430=DIRECTION('',(0.,-1.,0.));
#431=DIRECTION('',(0.55,0.,0.));
#432=DIRECTION('',(0.,-1.,0.));
#433=DIRECTION('',(0.3,0.,0.));
#434=DIRECTION('',(0.,1.,0.));
#435=DIRECTION('',(0.3,0.,0.));
#436=DIRECTION('',(0.,1.,0.));
#437=DIRECTION('',(0.3,0.,0.));
#438=DIRECTION('',(0.,1.,0.));
#439=DIRECTION('',(0.55,0.,0.));
#440=DIRECTION('',(0.,-1.,0.));
#441=DIRECTION('',(0.55,0.,0.));
#442=DIRECTION('',(0.,1.,0.));
#443=DIRECTION('',(-0.625,0.,0.));
#444=DIRECTION('',(0.,1.,0.));
#445=DIRECTION('',(-0.625,0.,0.));
#446=DIRECTION('',(0.,-1.,0.));
#447=DIRECTION('',(-0.6,0.,0.));
#448=DIRECTION('',(0.,1.,0.));
#449=DIRECTION('',(0.,1.,0.));
#450=DIRECTION('',(-2.025,0.,0.));
#451=DIRECTION('',(0.,1.,0.));
#452=DIRECTION('',(-0.625,0.,0.));
#453=DIRECTION('',(0.,-1.,0.));
#454=DIRECTION('',(7.5,0.,0.));
#455=DIRECTION('',(0.,1.,0.));
#456=DIRECTION('',(-0.625,0.,0.));
#457=DIRECTION('',(0.,1.,0.));
#458=DIRECTION('',(-0.625,0.,0.));
#459=DIRECTION('',(0.,1.,0.));
#460=DIRECTION('',(0.6,0.,0.));
#461=DIRECTION('',(0.,1.,0.));
#462=DIRECTION('',(0.6,0.,0.));
#463=DIRECTION('',(0.,1.,0.));
#464=DIRECTION('',(-2.025,0.,0.));
#465=DIRECTION('',(0.,-1.,0.));
#466=DIRECTION('',(-2.,0.,0.));
#467=DIRECTION('',(0.,1.,0.));
#468=DIRECTION('',(2.,0.,0.));
#469=DIRECTION('',(0.,1.,0.));
#470=DIRECTION('',(2.,0.,0.));
#471=DIRECTION('',(0.,1.,0.));
#472=DIRECTION('',(-0.625,0.,0.));
#473=DIRECTION('',(0.,-1.,0.));
#474=DIRECTION('',(-0.6,0.,0.));
#475=DIRECTION('',(0.,1.,0.));
#476=DIRECTION('',(0.6,0.,0.));
#477=DIRECTION('',(0.,1.,0.));
#478=DIRECTION('',(0.6,0.,0.));
#479=DIRECTION('',(0.,1.,0.));
#480=DIRECTION('',(-0.625,0.,0.));
#481=DIRECTION('',(0.,-1.,0.));
#482=DIRECTION('',(-0.6,0.,0.));
#483=DIRECTION('',(0.,1.,0.));
#484=DIRECTION('',(0.6,0.,0.));
#485=DIRECTION('',(0.,1.,0.));
#486=DIRECTION('',(0.6,0.,0.));
#487=DIRECTION('',(0.,1.,0.));
#488=DIRECTION('',(-0.625,0.,0.));
#489=DIRECTION('',(0.,-1.,0.));
#490=DIRECTION('',(-0.6,0.,0.));
#491=DIRECTION('',(0.,1.,0.));
#492=DIRECTION('',(0.6,0.,0.));
#493=DIRECTION('',(0.,1.,0.));
#494=DIRECTION('',(0.6,0.,0.));
#495=DIRECTION('',(0.,1.,0.));
#496=DIRECTION('',(7.5,0.,0.));
#497=DIRECTION('',(0.,1.,0.));
#498=DIRECTION('',(7.5,0.,0.));
#499=DIRECTION('',(0.,1.,0.));
#500=CARTESIAN_POINT('',(3.6,1.,5.45));
#501=CARTESIAN_POINT('',(3.6,0.,5.45));
#502=CARTESIAN_POINT('',(3.3,0.,5.45));
#503=CARTESIAN_POINT('',(3.6,0.75,5.45));
#504=CARTESIAN_POINT('',(3.9,0.75,5.45));
#505=CARTESIAN_POINT('',(3.6,1.,5.45));
#506=CARTESIAN_POINT('',(3.6,1.,5.45));
#507=CARTESIAN_POINT('',(4.15,1.,5.45));
#508=CARTESIAN_POINT('',(-3.6,1.,5.45));
#509=CARTESIAN_POINT('',(-3.6,0.,5.45));
#510=CARTESIAN_POINT('',(-3.9,0.,5.45));
#511=CARTESIAN_POINT('',(-3.6,0.75,5.45));
#512=CARTESIAN_POINT('',(-3.3,0.75,5.45));
#513=CARTESIAN_POINT('',(-3.6,1.,5.45));
#514=CARTESIAN_POINT('',(-3.6,1.,5.45));
#515=CARTESIAN_POINT('',(-3.05,1.,5.45));
#516=CARTESIAN_POINT('',(0.,1.,4.2));
#517=CARTESIAN_POINT('',(0.,0.,4.2));
#518=CARTESIAN_POINT('',(-0.3,0.,4.2));
#519=CARTESIAN_POINT('',(0.,0.75,4.2));
#520=CARTESIAN_POINT('',(0.3,0.75,4.2));
#521=CARTESIAN_POINT('',(0.,1.,4.2));
#522=CARTESIAN_POINT('',(0.,1.,4.2));
#523=CARTESIAN_POINT('',(0.55,1.,4.2));
#524=CARTESIAN_POINT('',(5.55,1.,0.));
#525=CARTESIAN_POINT('',(5.55,1.,0.));
#526=CARTESIAN_POINT('',(6.175,1.,-7.65404249467096E-017));
#527=CARTESIAN_POINT('',(5.55,0.975,0.));
#528=CARTESIAN_POINT('',(6.15,0.975,7.34788079488411E-017));
#529=CARTESIAN_POINT('',(0.,1.,0.));
#530=CARTESIAN_POINT('',(0.,1.,0.));
#531=CARTESIAN_POINT('',(2.025,1.,-2.47990976827339E-016));
#532=CARTESIAN_POINT('',(-5.55,1.,0.));
#533=CARTESIAN_POINT('',(-4.925,1.,-7.65404249467096E-017));
#534=CARTESIAN_POINT('',(0.,1.,0.));
#535=CARTESIAN_POINT('',(7.5,1.,0.));
#536=CARTESIAN_POINT('',(0.,1.,-5.55));
#537=CARTESIAN_POINT('',(0.625,1.,-5.55));
#538=CARTESIAN_POINT('',(0.,1.,5.55));
#539=CARTESIAN_POINT('',(0.625,1.,5.55));
#540=CARTESIAN_POINT('',(5.55,0.,0.));
#541=CARTESIAN_POINT('',(5.55,0.,0.));
#542=CARTESIAN_POINT('',(6.15,0.,0.));
#543=CARTESIAN_POINT('',(0.,1.,0.));
#544=CARTESIAN_POINT('',(0.,0.975,0.));
#545=CARTESIAN_POINT('',(2.,0.975,2.44929359829471E-016));
#546=CARTESIAN_POINT('',(0.,0.,0.));
#547=CARTESIAN_POINT('',(0.,0.,0.));
#548=CARTESIAN_POINT('',(2.,0.,0.));
#549=CARTESIAN_POINT('',(0.,1.,5.55));
#550=CARTESIAN_POINT('',(0.,0.975,5.55));
#551=CARTESIAN_POINT('',(0.6,0.975,5.55));
#552=CARTESIAN_POINT('',(0.,0.,5.55));
#553=CARTESIAN_POINT('',(0.,0.,5.55));
#554=CARTESIAN_POINT('',(0.6,0.,5.55));
#555=CARTESIAN_POINT('',(-5.55,1.,0.));
#556=CARTESIAN_POINT('',(-5.55,0.975,0.));
#557=CARTESIAN_POINT('',(-4.95,0.975,7.34788079488411E-017));
#558=CARTESIAN_POINT('',(-5.55,0.,0.));
#559=CARTESIAN_POINT('',(-5.55,0.,0.));
#560=CARTESIAN_POINT('',(-4.95,0.,0.));
#561=CARTESIAN_POINT('',(0.,1.,-5.55));
#562=CARTESIAN_POINT('',(0.,0.975,-5.55));
#563=CARTESIAN_POINT('',(0.6,0.975,-5.55));
#564=CARTESIAN_POINT('',(0.,0.,-5.55));
#565=CARTESIAN_POINT('',(0.,0.,-5.55));
#566=CARTESIAN_POINT('',(0.6,0.,-5.55));
#567=CARTESIAN_POINT('',(0.,0.,0.));
#568=CARTESIAN_POINT('',(0.,0.,0.));
#569=CARTESIAN_POINT('',(7.5,0.,0.));
#570=CARTESIAN_POINT('',(0.,0.,0.));
#571=CYLINDRICAL_SURFACE('',#367,0.3);
#572=CYLINDRICAL_SURFACE('',#372,0.3);
#573=CYLINDRICAL_SURFACE('',#377,0.3);
#574=CYLINDRICAL_SURFACE('',#391,0.6);
#575=CYLINDRICAL_SURFACE('',#395,2.);
#576=CYLINDRICAL_SURFACE('',#399,0.6);
#577=CYLINDRICAL_SURFACE('',#403,0.6);
#578=CYLINDRICAL_SURFACE('',#407,0.6);
#579=CYLINDRICAL_SURFACE('',#409,7.5);
#580=CLOSED_SHELL('',(#348,#349,#350,#351,#352,#353,#354,#355,#356,#357,
#358,#359,#360,#361,#362,#363,#364,#365,#366));
#581=MANIFOLD_SOLID_BREP('',#580);
#582=ADVANCED_BREP_SHAPE_REPRESENTATION('',(#581),#103);
ENDSEC;
END-ISO-10303-21;
