ISO-10303-21;
HEADER;
FILE_DESCRIPTION(('CATIA V5 STEP Exchange','CAx-IF Rec.Pracs.--- Model Styling and Organization---1.4--- 2014-01-23','CAx-IF Rec.Pracs.---3D Tessellated Data Validation Properties---0.5---2014-09-14'),'2;1');

FILE_NAME('C:\\Users\\manso\\Desktop\\usineur.fr\\tore.stp','2021-07-26T20:08:42+00:00',('none'),('none'),'CATIA Version 5-6 Release 2018 SP6','CATIA V5 STEP AP242','none');

FILE_SCHEMA(('AP242_MANAGED_MODEL_BASED_3D_ENGINEERING_MIM_LF  {1 0 10303 442 1 1 4}'));

ENDSEC;
DATA;
#5=PRODUCT('tore','','',(#2)) ;
#2=PRODUCT_CONTEXT(' ',#1,'mechanical') ;
#1=APPLICATION_CONTEXT('managed model based 3d engineering') ;
#10=PRODUCT_DEFINITION('',' ',#6,#3) ;
#3=PRODUCT_DEFINITION_CONTEXT('part definition',#1,' ') ;
#11=PRODUCT_DEFINITION_SHAPE(' ',' ',#10) ;
#498=MECHANICAL_DESIGN_GEOMETRIC_PRESENTATION_REPRESENTATION(' ',(#29),#16) ;
#19=SHAPE_REPRESENTATION(' ',(#18),#16) ;
#7=PRODUCT_CATEGORY('part','specification') ;
#17=CARTESIAN_POINT(' ',(0.,0.,0.)) ;
#31=CARTESIAN_POINT('Axis2P3D Location',(3.33066907388E-016,14.,22.)) ;
#36=CARTESIAN_POINT('Axis2P3D Location',(-1.,14.,22.)) ;
#40=CARTESIAN_POINT('Vertex',(-3.,14.,22.)) ;
#42=CARTESIAN_POINT('Vertex',(-1.,14.,20.)) ;
#45=CARTESIAN_POINT('Axis2P3D Location',(3.33066907388E-016,14.,20.)) ;
#49=CARTESIAN_POINT('Vertex',(1.,14.,20.)) ;
#52=CARTESIAN_POINT('Axis2P3D Location',(1.,14.,22.)) ;
#56=CARTESIAN_POINT('Vertex',(3.,14.,22.)) ;
#59=CARTESIAN_POINT('Axis2P3D Location',(3.33066907388E-016,14.,22.)) ;
#71=CARTESIAN_POINT('Axis2P3D Location',(-1.11022302463E-016,14.,22.)) ;
#76=CARTESIAN_POINT('Axis2P3D Location',(-1.11022302463E-016,14.,20.)) ;
#81=CARTESIAN_POINT('Axis2P3D Location',(-1.11022302463E-016,14.,22.)) ;
#93=CARTESIAN_POINT('Axis2P3D Location',(-2.22044604925E-016,14.,23.)) ;
#98=CARTESIAN_POINT('Axis2P3D Location',(-2.22044604925E-016,14.,23.)) ;
#102=CARTESIAN_POINT('Vertex',(6.27786229722E-016,14.,26.)) ;
#104=CARTESIAN_POINT('Vertex',(-3.,14.,23.)) ;
#107=CARTESIAN_POINT('Axis2P3D Location',(-2.22044604925E-016,14.,23.)) ;
#111=CARTESIAN_POINT('Vertex',(3.,14.,23.)) ;
#114=CARTESIAN_POINT('Axis2P3D Location',(-2.22044604925E-016,14.,23.)) ;
#125=CARTESIAN_POINT('Axis2P3D Location',(4.4408920985E-016,14.,23.)) ;
#130=CARTESIAN_POINT('Axis2P3D Location',(4.4408920985E-016,14.,23.)) ;
#141=CARTESIAN_POINT('Axis2P3D Location',(0.,14.,23.)) ;
#146=CARTESIAN_POINT('Line Origine',(3.,14.,23.)) ;
#151=CARTESIAN_POINT('Line Origine',(-3.,14.,23.)) ;
#170=CARTESIAN_POINT('Axis2P3D Location',(0.,14.,10.)) ;
#176=CARTESIAN_POINT('Control Point',(1.11022302463E-016,15.,0.)) ;
#177=CARTESIAN_POINT('Control Point',(-0.185548309297,15.,0.179256696976)) ;
#178=CARTESIAN_POINT('Control Point',(-0.372525999514,14.9569647811,0.356817844324)) ;
#179=CARTESIAN_POINT('Control Point',(-0.54834044206,14.8720140346,0.530833843164)) ;
#180=CARTESIAN_POINT('Control Point',(-0.791011580889,14.671112424,0.771281435605)) ;
#181=CARTESIAN_POINT('Control Point',(-0.943549663294,14.3596731346,0.930875829135)) ;
#182=CARTESIAN_POINT('Control Point',(-0.981024209263,14.2462720889,0.971721872345)) ;
#183=CARTESIAN_POINT('Control Point',(-1.,14.1232097098,0.99497342827)) ;
#184=CARTESIAN_POINT('Control Point',(-1.,14.,0.999363138455)) ;
#185=CARTESIAN_POINT('Vertex',(6.2172489379E-015,15.,0.)) ;
#187=CARTESIAN_POINT('Vertex',(-1.,14.,0.999363138455)) ;
#190=CARTESIAN_POINT('Line Origine',(-1.,14.,10.)) ;
#195=CARTESIAN_POINT('Line Origine',(1.,14.,10.)) ;
#199=CARTESIAN_POINT('Vertex',(1.,14.,0.999363664193)) ;
#203=CARTESIAN_POINT('Control Point',(-1.11022302463E-016,15.,-1.7763568394E-015)) ;
#204=CARTESIAN_POINT('Control Point',(0.185548309296,15.,0.179256696976)) ;
#205=CARTESIAN_POINT('Control Point',(0.372525999513,14.9569647811,0.356817844323)) ;
#206=CARTESIAN_POINT('Control Point',(0.548340442059,14.8720140346,0.530833843163)) ;
#207=CARTESIAN_POINT('Control Point',(0.791016930164,14.6711079954,0.771286735865)) ;
#208=CARTESIAN_POINT('Control Point',(0.943556388138,14.3596594043,0.930882865072)) ;
#209=CARTESIAN_POINT('Control Point',(0.981051639589,14.2455775053,0.971780741135)) ;
#210=CARTESIAN_POINT('Control Point',(1.,14.1231206251,0.99498046449)) ;
#211=CARTESIAN_POINT('Control Point',(1.,14.,0.999363664193)) ;
#221=CARTESIAN_POINT('Axis2P3D Location',(8.881784197E-016,5.3290705182E-015,0.)) ;
#226=CARTESIAN_POINT('Axis2P3D Location',(8.881784197E-016,5.3290705182E-015,0.)) ;
#230=CARTESIAN_POINT('Vertex',(-15.,-7.1054273576E-015,-2.44929359829E-016)) ;
#233=CARTESIAN_POINT('Axis2P3D Location',(-14.,1.15463194561E-014,0.)) ;
#237=CARTESIAN_POINT('Vertex',(-14.,-4.4408920985E-015,1.)) ;
#240=CARTESIAN_POINT('Axis2P3D Location',(8.881784197E-016,5.3290705182E-015,1.)) ;
#244=CARTESIAN_POINT('Vertex',(-0.999362041402,13.9642857143,1.)) ;
#248=CARTESIAN_POINT('Control Point',(-0.999999479921,14.0000000185,0.999363664859)) ;
#249=CARTESIAN_POINT('Control Point',(-0.999999799492,13.9880920603,0.999787597335)) ;
#250=CARTESIAN_POINT('Control Point',(-0.999787255541,13.9761841146,1.)) ;
#251=CARTESIAN_POINT('Control Point',(-0.999362041402,13.9642857143,1.)) ;
#262=CARTESIAN_POINT('Control Point',(-1.99840144433E-015,13.,-1.7763568394E-015)) ;
#263=CARTESIAN_POINT('Control Point',(0.171402970005,13.,0.177873268146)) ;
#264=CARTESIAN_POINT('Control Point',(0.344550715864,13.0367237227,0.354297916174)) ;
#265=CARTESIAN_POINT('Control Point',(0.510363949501,13.1092702629,0.528523469051)) ;
#266=CARTESIAN_POINT('Control Point',(0.754835656184,13.2897662965,0.775663842454)) ;
#267=CARTESIAN_POINT('Control Point',(0.924518771526,13.5922226376,0.938049518977)) ;
#268=CARTESIAN_POINT('Control Point',(0.96977468805,13.7092958102,0.979564352167)) ;
#269=CARTESIAN_POINT('Control Point',(0.994792656194,13.8364245507,1.)) ;
#270=CARTESIAN_POINT('Control Point',(0.999362041402,13.9642857143,1.)) ;
#271=CARTESIAN_POINT('Vertex',(3.28626015289E-014,13.,1.22464679915E-016)) ;
#273=CARTESIAN_POINT('Vertex',(0.999362041402,13.9642857143,1.)) ;
#277=CARTESIAN_POINT('Control Point',(1.,14.,0.999363664193)) ;
#278=CARTESIAN_POINT('Control Point',(1.,13.9880983032,0.999787374791)) ;
#279=CARTESIAN_POINT('Control Point',(0.999787368544,13.9761872767,1.)) ;
#280=CARTESIAN_POINT('Control Point',(0.999362041402,13.9642857143,1.)) ;
#283=CARTESIAN_POINT('Control Point',(-1.94289029309E-015,13.,1.7763568394E-015)) ;
#284=CARTESIAN_POINT('Control Point',(-0.171402970002,13.,0.177873268142)) ;
#285=CARTESIAN_POINT('Control Point',(-0.344550715856,13.0367237227,0.354297916166)) ;
#286=CARTESIAN_POINT('Control Point',(-0.510363949487,13.1092702629,0.528523469037)) ;
#287=CARTESIAN_POINT('Control Point',(-0.754835656169,13.2897662965,0.775663842439)) ;
#288=CARTESIAN_POINT('Control Point',(-0.924518771516,13.5922226376,0.938049518968)) ;
#289=CARTESIAN_POINT('Control Point',(-0.969774688049,13.7092958102,0.979564352166)) ;
#290=CARTESIAN_POINT('Control Point',(-0.994792656194,13.8364245506,1.)) ;
#291=CARTESIAN_POINT('Control Point',(-0.999362041402,13.9642857143,1.)) ;
#303=CARTESIAN_POINT('Axis2P3D Location',(8.881784197E-016,5.3290705182E-015,1.)) ;
#307=CARTESIAN_POINT('Vertex',(14.,8.881784197E-016,1.)) ;
#310=CARTESIAN_POINT('Axis2P3D Location',(14.,-1.11022302463E-016,0.)) ;
#314=CARTESIAN_POINT('Vertex',(15.,-8.881784197E-016,-2.44929359829E-016)) ;
#317=CARTESIAN_POINT('Axis2P3D Location',(8.881784197E-016,5.3290705182E-015,0.)) ;
#330=CARTESIAN_POINT('Axis2P3D Location',(8.881784197E-016,5.3290705182E-015,0.)) ;
#335=CARTESIAN_POINT('Axis2P3D Location',(14.,-1.11022302463E-016,0.)) ;
#339=CARTESIAN_POINT('Vertex',(14.,-2.13162820728E-014,-1.)) ;
#342=CARTESIAN_POINT('Axis2P3D Location',(8.881784197E-016,5.3290705182E-015,-1.)) ;
#346=CARTESIAN_POINT('Vertex',(-14.,2.6645352591E-015,-1.)) ;
#349=CARTESIAN_POINT('Axis2P3D Location',(-14.,-7.1054273576E-015,0.)) ;
#362=CARTESIAN_POINT('Axis2P3D Location',(3.5527136788E-015,2.6645352591E-015,0.)) ;
#367=CARTESIAN_POINT('Axis2P3D Location',(3.5527136788E-015,2.6645352591E-015,0.)) ;
#372=CARTESIAN_POINT('Axis2P3D Location',(3.5527136788E-015,2.6645352591E-015,1.)) ;
#384=CARTESIAN_POINT('Axis2P3D Location',(-8.881784197E-016,7.9936057773E-015,0.)) ;
#389=CARTESIAN_POINT('Axis2P3D Location',(-14.,-4.4408920985E-015,0.)) ;
#393=CARTESIAN_POINT('Vertex',(-13.,2.6645352591E-015,1.22464679915E-016)) ;
#396=CARTESIAN_POINT('Axis2P3D Location',(-8.881784197E-016,7.9936057773E-015,1.22464679915E-016)) ;
#408=CARTESIAN_POINT('Axis2P3D Location',(-8.881784197E-016,7.9936057773E-015,1.22464679915E-016)) ;
#412=CARTESIAN_POINT('Vertex',(13.,-1.95399252334E-014,1.22464679915E-016)) ;
#415=CARTESIAN_POINT('Axis2P3D Location',(14.,9.99200722163E-016,0.)) ;
#427=CARTESIAN_POINT('Axis2P3D Location',(1.7763568394E-015,3.5527136788E-015,0.)) ;
#432=CARTESIAN_POINT('Axis2P3D Location',(1.7763568394E-015,3.5527136788E-015,-1.)) ;
#444=CARTESIAN_POINT('Axis2P3D Location',(-8.881784197E-016,7.9936057773E-015,0.)) ;
#449=CARTESIAN_POINT('Axis2P3D Location',(14.,-1.33226762955E-015,0.)) ;
#454=CARTESIAN_POINT('Axis2P3D Location',(-14.,9.99200722163E-016,0.)) ;
#467=CARTESIAN_POINT('Axis2P3D Location',(0.,-2.6645352591E-015,0.)) ;
#472=CARTESIAN_POINT('Axis2P3D Location',(0.,-2.6645352591E-015,1.22464679915E-016)) ;
#484=CARTESIAN_POINT('Axis2P3D Location',(1.7763568394E-015,-8.881784197E-016,0.)) ;
#8=PRODUCT_RELATED_PRODUCT_CATEGORY('part',$,(#5)) ;
#29=STYLED_ITEM(' ',(#28),#21) ;
#28=PRESENTATION_STYLE_ASSIGNMENT((#27)) ;
#27=SURFACE_STYLE_USAGE(.BOTH.,#26) ;
#26=SURFACE_SIDE_STYLE(' ',(#25)) ;
#25=SURFACE_STYLE_FILL_AREA(#24) ;
#24=FILL_AREA_STYLE(' ',(#23)) ;
#23=FILL_AREA_STYLE_COLOUR(' ',#22) ;
#148=VECTOR('Line Direction',#147,1.) ;
#153=VECTOR('Line Direction',#152,1.) ;
#192=VECTOR('Line Direction',#191,1.) ;
#197=VECTOR('Line Direction',#196,1.) ;
#32=DIRECTION('Axis2P3D Direction',(0.,-0.,1.)) ;
#33=DIRECTION('Axis2P3D XDirection',(-1.,-1.42108547152E-014,0.)) ;
#37=DIRECTION('Axis2P3D Direction',(-5.55111512313E-017,1.,0.)) ;
#46=DIRECTION('Axis2P3D Direction',(0.,-0.,1.)) ;
#53=DIRECTION('Axis2P3D Direction',(-1.11022302463E-016,-1.,0.)) ;
#60=DIRECTION('Axis2P3D Direction',(0.,-0.,1.)) ;
#72=DIRECTION('Axis2P3D Direction',(-0.,0.,1.)) ;
#73=DIRECTION('Axis2P3D XDirection',(1.,-1.7763568394E-015,0.)) ;
#77=DIRECTION('Axis2P3D Direction',(-0.,0.,1.)) ;
#82=DIRECTION('Axis2P3D Direction',(-0.,0.,1.)) ;
#94=DIRECTION('Axis2P3D Direction',(0.,0.,1.)) ;
#95=DIRECTION('Axis2P3D XDirection',(-0.5,0.866025403784,0.)) ;
#99=DIRECTION('Axis2P3D Direction',(0.,1.,-0.)) ;
#108=DIRECTION('Axis2P3D Direction',(0.,0.,1.)) ;
#115=DIRECTION('Axis2P3D Direction',(-1.48029736617E-015,-1.,0.)) ;
#126=DIRECTION('Axis2P3D Direction',(0.,0.,1.)) ;
#127=DIRECTION('Axis2P3D XDirection',(1.,0.,0.)) ;
#131=DIRECTION('Axis2P3D Direction',(0.,0.,1.)) ;
#142=DIRECTION('Axis2P3D Direction',(0.,0.,1.)) ;
#143=DIRECTION('Axis2P3D XDirection',(1.,0.,0.)) ;
#147=DIRECTION('Vector Direction',(0.,0.,1.)) ;
#152=DIRECTION('Vector Direction',(0.,0.,1.)) ;
#171=DIRECTION('Axis2P3D Direction',(0.,0.,1.)) ;
#172=DIRECTION('Axis2P3D XDirection',(1.,0.,0.)) ;
#191=DIRECTION('Vector Direction',(0.,0.,1.)) ;
#196=DIRECTION('Vector Direction',(0.,0.,1.)) ;
#222=DIRECTION('Axis2P3D Direction',(-0.,0.,1.)) ;
#223=DIRECTION('Axis2P3D XDirection',(1.,-4.14483262527E-016,0.)) ;
#227=DIRECTION('Axis2P3D Direction',(-0.,0.,1.)) ;
#234=DIRECTION('Axis2P3D Direction',(4.4408920985E-016,1.,0.)) ;
#241=DIRECTION('Axis2P3D Direction',(-0.,0.,1.)) ;
#304=DIRECTION('Axis2P3D Direction',(-0.,0.,1.)) ;
#311=DIRECTION('Axis2P3D Direction',(-3.88578058619E-016,-1.,0.)) ;
#318=DIRECTION('Axis2P3D Direction',(-0.,0.,1.)) ;
#331=DIRECTION('Axis2P3D Direction',(-0.,0.,1.)) ;
#332=DIRECTION('Axis2P3D XDirection',(1.,-4.4408920985E-016,0.)) ;
#336=DIRECTION('Axis2P3D Direction',(-3.88578058619E-016,-1.,0.)) ;
#343=DIRECTION('Axis2P3D Direction',(-0.,0.,1.)) ;
#350=DIRECTION('Axis2P3D Direction',(-8.881784197E-016,1.,-0.)) ;
#363=DIRECTION('Axis2P3D Direction',(0.,-0.,1.)) ;
#364=DIRECTION('Axis2P3D XDirection',(-1.,-3.5527136788E-016,0.)) ;
#368=DIRECTION('Axis2P3D Direction',(0.,-0.,1.)) ;
#373=DIRECTION('Axis2P3D Direction',(0.,-0.,1.)) ;
#385=DIRECTION('Axis2P3D Direction',(-0.,0.,1.)) ;
#386=DIRECTION('Axis2P3D XDirection',(1.,-5.07530525543E-016,0.)) ;
#390=DIRECTION('Axis2P3D Direction',(-8.881784197E-016,1.,-0.)) ;
#397=DIRECTION('Axis2P3D Direction',(-0.,0.,1.)) ;
#409=DIRECTION('Axis2P3D Direction',(-0.,0.,1.)) ;
#416=DIRECTION('Axis2P3D Direction',(-4.99600361081E-016,-1.,0.)) ;
#428=DIRECTION('Axis2P3D Direction',(0.,-0.,1.)) ;
#429=DIRECTION('Axis2P3D XDirection',(-1.,1.52259157663E-015,0.)) ;
#433=DIRECTION('Axis2P3D Direction',(0.,-0.,1.)) ;
#445=DIRECTION('Axis2P3D Direction',(-0.,0.,1.)) ;
#446=DIRECTION('Axis2P3D XDirection',(1.,-5.465713352E-016,0.)) ;
#450=DIRECTION('Axis2P3D Direction',(-6.66133814775E-016,-1.,0.)) ;
#455=DIRECTION('Axis2P3D Direction',(-4.99600361081E-016,1.,-0.)) ;
#468=DIRECTION('Axis2P3D Direction',(0.,-0.,1.)) ;
#469=DIRECTION('Axis2P3D XDirection',(-1.,6.34413156929E-016,0.)) ;
#473=DIRECTION('Axis2P3D Direction',(0.,-0.,1.)) ;
#485=DIRECTION('Axis2P3D Direction',(0.,-0.,1.)) ;
#486=DIRECTION('Axis2P3D XDirection',(-1.,-6.83214169E-016,0.)) ;
#15=UNCERTAINTY_MEASURE_WITH_UNIT(LENGTH_MEASURE(0.005),#12,'distance_accuracy_value','CONFUSED CURVE UNCERTAINTY') ;
#18=AXIS2_PLACEMENT_3D(' ',#17,$,$) ;
#34=AXIS2_PLACEMENT_3D('Torus Axis2P3D',#31,#32,#33) ;
#38=AXIS2_PLACEMENT_3D('Circle Axis2P3D',#36,#37,$) ;
#47=AXIS2_PLACEMENT_3D('Circle Axis2P3D',#45,#46,$) ;
#54=AXIS2_PLACEMENT_3D('Circle Axis2P3D',#52,#53,$) ;
#61=AXIS2_PLACEMENT_3D('Circle Axis2P3D',#59,#60,$) ;
#74=AXIS2_PLACEMENT_3D('Torus Axis2P3D',#71,#72,#73) ;
#78=AXIS2_PLACEMENT_3D('Circle Axis2P3D',#76,#77,$) ;
#83=AXIS2_PLACEMENT_3D('Circle Axis2P3D',#81,#82,$) ;
#96=AXIS2_PLACEMENT_3D('Sphere Axis2P3D',#93,#94,#95) ;
#100=AXIS2_PLACEMENT_3D('Circle Axis2P3D',#98,#99,$) ;
#109=AXIS2_PLACEMENT_3D('Circle Axis2P3D',#107,#108,$) ;
#116=AXIS2_PLACEMENT_3D('Circle Axis2P3D',#114,#115,$) ;
#128=AXIS2_PLACEMENT_3D('Sphere Axis2P3D',#125,#126,#127) ;
#132=AXIS2_PLACEMENT_3D('Circle Axis2P3D',#130,#131,$) ;
#144=AXIS2_PLACEMENT_3D('Cylinder Axis2P3D',#141,#142,#143) ;
#173=AXIS2_PLACEMENT_3D('Cylinder Axis2P3D',#170,#171,#172) ;
#224=AXIS2_PLACEMENT_3D('Torus Axis2P3D',#221,#222,#223) ;
#228=AXIS2_PLACEMENT_3D('Circle Axis2P3D',#226,#227,$) ;
#235=AXIS2_PLACEMENT_3D('Circle Axis2P3D',#233,#234,$) ;
#242=AXIS2_PLACEMENT_3D('Circle Axis2P3D',#240,#241,$) ;
#305=AXIS2_PLACEMENT_3D('Circle Axis2P3D',#303,#304,$) ;
#312=AXIS2_PLACEMENT_3D('Circle Axis2P3D',#310,#311,$) ;
#319=AXIS2_PLACEMENT_3D('Circle Axis2P3D',#317,#318,$) ;
#333=AXIS2_PLACEMENT_3D('Torus Axis2P3D',#330,#331,#332) ;
#337=AXIS2_PLACEMENT_3D('Circle Axis2P3D',#335,#336,$) ;
#344=AXIS2_PLACEMENT_3D('Circle Axis2P3D',#342,#343,$) ;
#351=AXIS2_PLACEMENT_3D('Circle Axis2P3D',#349,#350,$) ;
#365=AXIS2_PLACEMENT_3D('Torus Axis2P3D',#362,#363,#364) ;
#369=AXIS2_PLACEMENT_3D('Circle Axis2P3D',#367,#368,$) ;
#374=AXIS2_PLACEMENT_3D('Circle Axis2P3D',#372,#373,$) ;
#387=AXIS2_PLACEMENT_3D('Torus Axis2P3D',#384,#385,#386) ;
#391=AXIS2_PLACEMENT_3D('Circle Axis2P3D',#389,#390,$) ;
#398=AXIS2_PLACEMENT_3D('Circle Axis2P3D',#396,#397,$) ;
#410=AXIS2_PLACEMENT_3D('Circle Axis2P3D',#408,#409,$) ;
#417=AXIS2_PLACEMENT_3D('Circle Axis2P3D',#415,#416,$) ;
#430=AXIS2_PLACEMENT_3D('Torus Axis2P3D',#427,#428,#429) ;
#434=AXIS2_PLACEMENT_3D('Circle Axis2P3D',#432,#433,$) ;
#447=AXIS2_PLACEMENT_3D('Torus Axis2P3D',#444,#445,#446) ;
#451=AXIS2_PLACEMENT_3D('Circle Axis2P3D',#449,#450,$) ;
#456=AXIS2_PLACEMENT_3D('Circle Axis2P3D',#454,#455,$) ;
#470=AXIS2_PLACEMENT_3D('Torus Axis2P3D',#467,#468,#469) ;
#474=AXIS2_PLACEMENT_3D('Circle Axis2P3D',#472,#473,$) ;
#487=AXIS2_PLACEMENT_3D('Torus Axis2P3D',#484,#485,#486) ;
#149=LINE('Line',#146,#148) ;
#154=LINE('Line',#151,#153) ;
#193=LINE('Line',#190,#192) ;
#198=LINE('Line',#195,#197) ;
#39=CIRCLE('generated circle',#38,2.) ;
#48=CIRCLE('generated circle',#47,1.) ;
#55=CIRCLE('generated circle',#54,2.) ;
#62=CIRCLE('generated circle',#61,3.) ;
#79=CIRCLE('generated circle',#78,1.) ;
#84=CIRCLE('generated circle',#83,3.) ;
#101=CIRCLE('generated circle',#100,3.) ;
#110=CIRCLE('generated circle',#109,3.) ;
#117=CIRCLE('generated circle',#116,3.) ;
#133=CIRCLE('generated circle',#132,3.) ;
#229=CIRCLE('generated circle',#228,15.) ;
#236=CIRCLE('generated circle',#235,1.) ;
#243=CIRCLE('generated circle',#242,14.) ;
#306=CIRCLE('generated circle',#305,14.) ;
#313=CIRCLE('generated circle',#312,1.) ;
#320=CIRCLE('generated circle',#319,15.) ;
#338=CIRCLE('generated circle',#337,1.) ;
#345=CIRCLE('generated circle',#344,14.) ;
#352=CIRCLE('generated circle',#351,1.) ;
#370=CIRCLE('generated circle',#369,15.) ;
#375=CIRCLE('generated circle',#374,14.) ;
#392=CIRCLE('generated circle',#391,1.) ;
#399=CIRCLE('generated circle',#398,13.) ;
#411=CIRCLE('generated circle',#410,13.) ;
#418=CIRCLE('generated circle',#417,1.) ;
#435=CIRCLE('generated circle',#434,14.) ;
#452=CIRCLE('generated circle',#451,1.) ;
#457=CIRCLE('generated circle',#456,1.) ;
#475=CIRCLE('generated circle',#474,13.) ;
#145=CYLINDRICAL_SURFACE('generated cylinder',#144,3.) ;
#174=CYLINDRICAL_SURFACE('generated cylinder',#173,1.) ;
#97=SPHERICAL_SURFACE('',#96,3.) ;
#129=SPHERICAL_SURFACE('',#128,3.) ;
#225=TOROIDAL_SURFACE('homeo Torus',#224,14.,1.) ;
#334=TOROIDAL_SURFACE('homeo Torus',#333,14.,1.) ;
#366=TOROIDAL_SURFACE('homeo Torus',#365,14.,1.) ;
#388=TOROIDAL_SURFACE('homeo Torus',#387,14.,1.) ;
#431=TOROIDAL_SURFACE('homeo Torus',#430,14.,1.) ;
#448=TOROIDAL_SURFACE('homeo Torus',#447,14.,1.) ;
#471=TOROIDAL_SURFACE('homeo Torus',#470,14.,1.) ;
#488=TOROIDAL_SURFACE('homeo Torus',#487,14.,1.) ;
#44=EDGE_CURVE('',#41,#43,#39,.F.) ;
#51=EDGE_CURVE('',#43,#50,#48,.T.) ;
#58=EDGE_CURVE('',#57,#50,#55,.F.) ;
#63=EDGE_CURVE('',#41,#57,#62,.T.) ;
#80=EDGE_CURVE('',#50,#43,#79,.T.) ;
#85=EDGE_CURVE('',#57,#41,#84,.T.) ;
#106=EDGE_CURVE('',#103,#105,#101,.F.) ;
#113=EDGE_CURVE('',#105,#112,#110,.T.) ;
#118=EDGE_CURVE('',#103,#112,#117,.F.) ;
#134=EDGE_CURVE('',#112,#105,#133,.T.) ;
#150=EDGE_CURVE('',#57,#112,#149,.T.) ;
#155=EDGE_CURVE('',#41,#105,#154,.T.) ;
#189=EDGE_CURVE('',#186,#188,#175,.T.) ;
#194=EDGE_CURVE('',#188,#43,#193,.T.) ;
#201=EDGE_CURVE('',#200,#50,#198,.T.) ;
#212=EDGE_CURVE('',#186,#200,#202,.T.) ;
#232=EDGE_CURVE('',#186,#231,#229,.T.) ;
#239=EDGE_CURVE('',#238,#231,#236,.F.) ;
#246=EDGE_CURVE('',#245,#238,#243,.T.) ;
#252=EDGE_CURVE('',#188,#245,#247,.T.) ;
#275=EDGE_CURVE('',#272,#274,#261,.T.) ;
#281=EDGE_CURVE('',#200,#274,#276,.T.) ;
#292=EDGE_CURVE('',#272,#245,#282,.T.) ;
#309=EDGE_CURVE('',#308,#274,#306,.T.) ;
#316=EDGE_CURVE('',#308,#315,#313,.F.) ;
#321=EDGE_CURVE('',#315,#186,#320,.T.) ;
#341=EDGE_CURVE('',#315,#340,#338,.F.) ;
#348=EDGE_CURVE('',#340,#347,#345,.T.) ;
#353=EDGE_CURVE('',#231,#347,#352,.F.) ;
#371=EDGE_CURVE('',#231,#315,#370,.T.) ;
#376=EDGE_CURVE('',#238,#308,#375,.T.) ;
#395=EDGE_CURVE('',#394,#238,#392,.F.) ;
#400=EDGE_CURVE('',#272,#394,#399,.T.) ;
#414=EDGE_CURVE('',#413,#272,#411,.T.) ;
#419=EDGE_CURVE('',#413,#308,#418,.F.) ;
#436=EDGE_CURVE('',#347,#340,#435,.T.) ;
#453=EDGE_CURVE('',#340,#413,#452,.F.) ;
#458=EDGE_CURVE('',#347,#394,#457,.F.) ;
#476=EDGE_CURVE('',#394,#413,#475,.T.) ;
#30=CLOSED_SHELL('Closed Shell',(#70,#92,#124,#140,#162,#169,#220,#260,#302,#329,#361,#383,#407,#426,#443,#466,#483,#495)) ;
#497=SHAPE_REPRESENTATION_RELATIONSHIP(' ',' ',#19,#496) ;
#64=EDGE_LOOP('',(#65,#66,#67,#68)) ;
#86=EDGE_LOOP('',(#87,#88,#89,#90)) ;
#119=EDGE_LOOP('',(#120,#121,#122)) ;
#135=EDGE_LOOP('',(#136,#137,#138)) ;
#156=EDGE_LOOP('',(#157,#158,#159,#160)) ;
#163=EDGE_LOOP('',(#164,#165,#166,#167)) ;
#213=EDGE_LOOP('',(#214,#215,#216,#217,#218)) ;
#253=EDGE_LOOP('',(#254,#255,#256,#257,#258)) ;
#293=EDGE_LOOP('',(#294,#295,#296,#297,#298,#299,#300)) ;
#322=EDGE_LOOP('',(#323,#324,#325,#326,#327)) ;
#354=EDGE_LOOP('',(#355,#356,#357,#358,#359)) ;
#377=EDGE_LOOP('',(#378,#379,#380,#381)) ;
#401=EDGE_LOOP('',(#402,#403,#404,#405)) ;
#420=EDGE_LOOP('',(#421,#422,#423,#424)) ;
#437=EDGE_LOOP('',(#438,#439,#440,#441)) ;
#459=EDGE_LOOP('',(#460,#461,#462,#463,#464)) ;
#477=EDGE_LOOP('',(#478,#479,#480,#481)) ;
#489=EDGE_LOOP('',(#490,#491,#492,#493)) ;
#65=ORIENTED_EDGE('',*,*,#44,.T.) ;
#66=ORIENTED_EDGE('',*,*,#51,.T.) ;
#67=ORIENTED_EDGE('',*,*,#58,.F.) ;
#68=ORIENTED_EDGE('',*,*,#63,.F.) ;
#87=ORIENTED_EDGE('',*,*,#58,.T.) ;
#88=ORIENTED_EDGE('',*,*,#80,.T.) ;
#89=ORIENTED_EDGE('',*,*,#44,.F.) ;
#90=ORIENTED_EDGE('',*,*,#85,.F.) ;
#120=ORIENTED_EDGE('',*,*,#106,.T.) ;
#121=ORIENTED_EDGE('',*,*,#113,.T.) ;
#122=ORIENTED_EDGE('',*,*,#118,.F.) ;
#136=ORIENTED_EDGE('',*,*,#118,.T.) ;
#137=ORIENTED_EDGE('',*,*,#134,.T.) ;
#138=ORIENTED_EDGE('',*,*,#106,.F.) ;
#157=ORIENTED_EDGE('',*,*,#150,.T.) ;
#158=ORIENTED_EDGE('',*,*,#113,.F.) ;
#159=ORIENTED_EDGE('',*,*,#155,.F.) ;
#160=ORIENTED_EDGE('',*,*,#63,.T.) ;
#164=ORIENTED_EDGE('',*,*,#155,.T.) ;
#165=ORIENTED_EDGE('',*,*,#134,.F.) ;
#166=ORIENTED_EDGE('',*,*,#150,.F.) ;
#167=ORIENTED_EDGE('',*,*,#85,.T.) ;
#214=ORIENTED_EDGE('',*,*,#189,.T.) ;
#215=ORIENTED_EDGE('',*,*,#194,.T.) ;
#216=ORIENTED_EDGE('',*,*,#80,.F.) ;
#217=ORIENTED_EDGE('',*,*,#201,.F.) ;
#218=ORIENTED_EDGE('',*,*,#212,.F.) ;
#254=ORIENTED_EDGE('',*,*,#232,.T.) ;
#255=ORIENTED_EDGE('',*,*,#239,.F.) ;
#256=ORIENTED_EDGE('',*,*,#246,.F.) ;
#257=ORIENTED_EDGE('',*,*,#252,.F.) ;
#258=ORIENTED_EDGE('',*,*,#189,.F.) ;
#294=ORIENTED_EDGE('',*,*,#275,.T.) ;
#295=ORIENTED_EDGE('',*,*,#281,.F.) ;
#296=ORIENTED_EDGE('',*,*,#201,.T.) ;
#297=ORIENTED_EDGE('',*,*,#51,.F.) ;
#298=ORIENTED_EDGE('',*,*,#194,.F.) ;
#299=ORIENTED_EDGE('',*,*,#252,.T.) ;
#300=ORIENTED_EDGE('',*,*,#292,.F.) ;
#323=ORIENTED_EDGE('',*,*,#309,.F.) ;
#324=ORIENTED_EDGE('',*,*,#316,.T.) ;
#325=ORIENTED_EDGE('',*,*,#321,.T.) ;
#326=ORIENTED_EDGE('',*,*,#212,.T.) ;
#327=ORIENTED_EDGE('',*,*,#281,.T.) ;
#355=ORIENTED_EDGE('',*,*,#341,.T.) ;
#356=ORIENTED_EDGE('',*,*,#348,.T.) ;
#357=ORIENTED_EDGE('',*,*,#353,.F.) ;
#358=ORIENTED_EDGE('',*,*,#232,.F.) ;
#359=ORIENTED_EDGE('',*,*,#321,.F.) ;
#378=ORIENTED_EDGE('',*,*,#239,.T.) ;
#379=ORIENTED_EDGE('',*,*,#371,.T.) ;
#380=ORIENTED_EDGE('',*,*,#316,.F.) ;
#381=ORIENTED_EDGE('',*,*,#376,.F.) ;
#402=ORIENTED_EDGE('',*,*,#246,.T.) ;
#403=ORIENTED_EDGE('',*,*,#395,.F.) ;
#404=ORIENTED_EDGE('',*,*,#400,.F.) ;
#405=ORIENTED_EDGE('',*,*,#292,.T.) ;
#421=ORIENTED_EDGE('',*,*,#414,.F.) ;
#422=ORIENTED_EDGE('',*,*,#419,.T.) ;
#423=ORIENTED_EDGE('',*,*,#309,.T.) ;
#424=ORIENTED_EDGE('',*,*,#275,.F.) ;
#438=ORIENTED_EDGE('',*,*,#353,.T.) ;
#439=ORIENTED_EDGE('',*,*,#436,.T.) ;
#440=ORIENTED_EDGE('',*,*,#341,.F.) ;
#441=ORIENTED_EDGE('',*,*,#371,.F.) ;
#460=ORIENTED_EDGE('',*,*,#453,.T.) ;
#461=ORIENTED_EDGE('',*,*,#414,.T.) ;
#462=ORIENTED_EDGE('',*,*,#400,.T.) ;
#463=ORIENTED_EDGE('',*,*,#458,.F.) ;
#464=ORIENTED_EDGE('',*,*,#348,.F.) ;
#478=ORIENTED_EDGE('',*,*,#395,.T.) ;
#479=ORIENTED_EDGE('',*,*,#376,.T.) ;
#480=ORIENTED_EDGE('',*,*,#419,.F.) ;
#481=ORIENTED_EDGE('',*,*,#476,.F.) ;
#490=ORIENTED_EDGE('',*,*,#458,.T.) ;
#491=ORIENTED_EDGE('',*,*,#476,.T.) ;
#492=ORIENTED_EDGE('',*,*,#453,.F.) ;
#493=ORIENTED_EDGE('',*,*,#436,.F.) ;
#21=MANIFOLD_SOLID_BREP('Corps principal',#30) ;
#41=VERTEX_POINT('',#40) ;
#43=VERTEX_POINT('',#42) ;
#50=VERTEX_POINT('',#49) ;
#57=VERTEX_POINT('',#56) ;
#103=VERTEX_POINT('',#102) ;
#105=VERTEX_POINT('',#104) ;
#112=VERTEX_POINT('',#111) ;
#186=VERTEX_POINT('',#185) ;
#188=VERTEX_POINT('',#187) ;
#200=VERTEX_POINT('',#199) ;
#231=VERTEX_POINT('',#230) ;
#238=VERTEX_POINT('',#237) ;
#245=VERTEX_POINT('',#244) ;
#272=VERTEX_POINT('',#271) ;
#274=VERTEX_POINT('',#273) ;
#308=VERTEX_POINT('',#307) ;
#315=VERTEX_POINT('',#314) ;
#340=VERTEX_POINT('',#339) ;
#347=VERTEX_POINT('',#346) ;
#394=VERTEX_POINT('',#393) ;
#413=VERTEX_POINT('',#412) ;
#496=ADVANCED_BREP_SHAPE_REPRESENTATION('NONE',(#21),#16) ;
#70=ADVANCED_FACE('Corps principal',(#69),#35,.T.) ;
#92=ADVANCED_FACE('Corps principal',(#91),#75,.T.) ;
#124=ADVANCED_FACE('Corps principal',(#123),#97,.T.) ;
#140=ADVANCED_FACE('Corps principal',(#139),#129,.T.) ;
#162=ADVANCED_FACE('Corps principal',(#161),#145,.T.) ;
#169=ADVANCED_FACE('Corps principal',(#168),#145,.T.) ;
#220=ADVANCED_FACE('Corps principal',(#219),#174,.T.) ;
#260=ADVANCED_FACE('Corps principal',(#259),#225,.T.) ;
#302=ADVANCED_FACE('Corps principal',(#301),#174,.T.) ;
#329=ADVANCED_FACE('Corps principal',(#328),#225,.T.) ;
#361=ADVANCED_FACE('Corps principal',(#360),#334,.T.) ;
#383=ADVANCED_FACE('Corps principal',(#382),#366,.T.) ;
#407=ADVANCED_FACE('Corps principal',(#406),#388,.T.) ;
#426=ADVANCED_FACE('Corps principal',(#425),#388,.T.) ;
#443=ADVANCED_FACE('Corps principal',(#442),#431,.T.) ;
#466=ADVANCED_FACE('Corps principal',(#465),#448,.T.) ;
#483=ADVANCED_FACE('Corps principal',(#482),#471,.T.) ;
#495=ADVANCED_FACE('Corps principal',(#494),#488,.T.) ;
#4=APPLICATION_PROTOCOL_DEFINITION('international standard','ap242_managed_model_based_3d_engineering',2014,#1) ;
#175=B_SPLINE_CURVE_WITH_KNOTS('',5,(#176,#177,#178,#179,#180,#181,#182,#183,#184),.UNSPECIFIED.,.F.,.U.,(6,3,6),(0.,1.79363365654,2.664715132),.UNSPECIFIED.) ;
#202=B_SPLINE_CURVE_WITH_KNOTS('',5,(#203,#204,#205,#206,#207,#208,#209,#210,#211),.UNSPECIFIED.,.F.,.U.,(6,3,6),(0.,1.79363365653,2.66477387114),.UNSPECIFIED.) ;
#247=B_SPLINE_CURVE_WITH_KNOTS('',3,(#248,#249,#250,#251),.UNSPECIFIED.,.F.,.U.,(4,4),(2.664715132,2.71522799457),.UNSPECIFIED.) ;
#261=B_SPLINE_CURVE_WITH_KNOTS('',5,(#262,#263,#264,#265,#266,#267,#268,#269,#270),.UNSPECIFIED.,.F.,.U.,(6,3,6),(0.,1.77995391929,2.68464603396),.UNSPECIFIED.) ;
#276=B_SPLINE_CURVE_WITH_KNOTS('',3,(#277,#278,#279,#280),.UNSPECIFIED.,.F.,.U.,(4,4),(0.,0.0505262866648),.UNSPECIFIED.) ;
#282=B_SPLINE_CURVE_WITH_KNOTS('',5,(#283,#284,#285,#286,#287,#288,#289,#290,#291),.UNSPECIFIED.,.F.,.U.,(6,3,6),(0.,1.77995391925,2.68464603394),.UNSPECIFIED.) ;
#22=COLOUR_RGB('Colour',0.823529411765,0.823529411765,1.) ;
#35=DEGENERATE_TOROIDAL_SURFACE('homeo Torus',#34,1.,2.,.T.) ;
#75=DEGENERATE_TOROIDAL_SURFACE('homeo Torus',#74,1.,2.,.T.) ;
#69=FACE_OUTER_BOUND('',#64,.T.) ;
#91=FACE_OUTER_BOUND('',#86,.T.) ;
#123=FACE_OUTER_BOUND('',#119,.T.) ;
#139=FACE_OUTER_BOUND('',#135,.T.) ;
#161=FACE_OUTER_BOUND('',#156,.T.) ;
#168=FACE_OUTER_BOUND('',#163,.T.) ;
#219=FACE_OUTER_BOUND('',#213,.T.) ;
#259=FACE_OUTER_BOUND('',#253,.T.) ;
#301=FACE_OUTER_BOUND('',#293,.T.) ;
#328=FACE_OUTER_BOUND('',#322,.T.) ;
#360=FACE_OUTER_BOUND('',#354,.T.) ;
#382=FACE_OUTER_BOUND('',#377,.T.) ;
#406=FACE_OUTER_BOUND('',#401,.T.) ;
#425=FACE_OUTER_BOUND('',#420,.T.) ;
#442=FACE_OUTER_BOUND('',#437,.T.) ;
#465=FACE_OUTER_BOUND('',#459,.T.) ;
#482=FACE_OUTER_BOUND('',#477,.T.) ;
#494=FACE_OUTER_BOUND('',#489,.T.) ;
#9=PRODUCT_CATEGORY_RELATIONSHIP(' ',' ',#7,#8) ;
#6=PRODUCT_DEFINITION_FORMATION_WITH_SPECIFIED_SOURCE('',' ',#5,.NOT_KNOWN.) ;
#20=SHAPE_DEFINITION_REPRESENTATION(#11,#19) ;
#12=(LENGTH_UNIT()NAMED_UNIT(*)SI_UNIT(.MILLI.,.METRE.)) ;
#13=(NAMED_UNIT(*)PLANE_ANGLE_UNIT()SI_UNIT($,.RADIAN.)) ;
#14=(NAMED_UNIT(*)SI_UNIT($,.STERADIAN.)SOLID_ANGLE_UNIT()) ;
#16=(GEOMETRIC_REPRESENTATION_CONTEXT(3)GLOBAL_UNCERTAINTY_ASSIGNED_CONTEXT((#15))GLOBAL_UNIT_ASSIGNED_CONTEXT((#12,#13,#14))REPRESENTATION_CONTEXT(' ',' ')) ;
ENDSEC;
END-ISO-10303-21;
