ISO-10303-21;
HEADER;
/* Generated by software containing ST-Developer
 * from STEP Tools, Inc. (www.steptools.com) 
 */

FILE_DESCRIPTION(
/* description */ ('Alibre Inc.'),
/* implementation_level */ '2;1');

FILE_NAME(
/* name */ 'export-12CE3F38-D6B5-4D51-89A4-FA534C21CE9D',
/* time_stamp */ '2021-07-02T15:23:01+02:00',
/* author */ (''),
/* organization */ (''),
/* preprocessor_version */ 'ST-DEVELOPER v17',
/* originating_system */ 'Alibre',
/* authorisation */ '');

FILE_SCHEMA (('AUTOMOTIVE_DESIGN'));
ENDSEC;

DATA;
#10=STYLED_ITEM('NAME_0',(#18),#498);
#11=MECHANICAL_DESIGN_GEOMETRIC_PRESENTATION_REPRESENTATION('NAME_0',(#10),
#33);
#12=COLOUR_RGB('',0.250980392156863,0.501960784313725,0.501960784313725);
#13=FILL_AREA_STYLE_COLOUR('NAME_0',#12);
#14=FILL_AREA_STYLE('NAME_0',(#13));
#15=SURFACE_STYLE_FILL_AREA(#14);
#16=SURFACE_SIDE_STYLE('NAME_0',(#15));
#17=SURFACE_STYLE_USAGE(.POSITIVE.,#16);
#18=PRESENTATION_STYLE_ASSIGNMENT((#17));
#19=PRODUCT_DEFINITION_CONTEXT('part definition',#26,'design');
#20=SHAPE_DEFINITION_REPRESENTATION(#21,#499);
#21=PRODUCT_DEFINITION_SHAPE('PRODUCT_VERSION_ID',
'PRODUCT_VERSION_DESCR',#22);
#22=PRODUCT_DEFINITION('PRODUCT_VERSION_ID','PRODUCT_VERSION_DESCR',#23,
#19);
#23=PRODUCT_DEFINITION_FORMATION_WITH_SPECIFIED_SOURCE(
'PRODUCT_VERSION_ID','PRODUCT_VERSION_DESCR',#28,.MADE.);
#24=PRODUCT_RELATED_PRODUCT_CATEGORY('part','part',(#28));
#25=APPLICATION_PROTOCOL_DEFINITION('Draft International Standard',
'automotive_design',1994,#26);
#26=APPLICATION_CONTEXT('automotive_Design');
#27=PRODUCT_CONTEXT('3D Mechanical Parts',#26,'mechanical');
#28=PRODUCT('','EcrouHublot','Ecrou hublot pour caisson RX0',(#27));
#29=(
LENGTH_UNIT()
NAMED_UNIT(*)
SI_UNIT(.MILLI.,.METRE.)
);
#30=(
NAMED_UNIT(*)
PLANE_ANGLE_UNIT()
SI_UNIT($,.RADIAN.)
);
#31=(
NAMED_UNIT(*)
SI_UNIT($,.STERADIAN.)
SOLID_ANGLE_UNIT()
);
#32=UNCERTAINTY_MEASURE_WITH_UNIT(LENGTH_MEASURE(1.E-6),#29,
'DISTANCE_ACCURACY_VALUE',
'Maximum model space distance between geometric entities at asserted c
onnectivities');
#33=(
GEOMETRIC_REPRESENTATION_CONTEXT(3)
GLOBAL_UNCERTAINTY_ASSIGNED_CONTEXT((#32))
GLOBAL_UNIT_ASSIGNED_CONTEXT((#31,#30,#29))
REPRESENTATION_CONTEXT('ID1','3D')
);
#34=CONICAL_SURFACE('',#327,41.,0.785398163397448);
#35=CYLINDRICAL_SURFACE('',#311,1.5);
#36=CYLINDRICAL_SURFACE('',#314,1.50000000000003);
#37=CYLINDRICAL_SURFACE('',#317,1.5);
#38=CYLINDRICAL_SURFACE('',#319,1.5);
#39=CYLINDRICAL_SURFACE('',#329,37.);
#40=CYLINDRICAL_SURFACE('',#331,44.);
#41=CIRCLE('',#307,38.);
#42=CIRCLE('',#308,1.50000000000003);
#43=CIRCLE('',#309,1.5);
#44=CIRCLE('',#312,1.5);
#45=CIRCLE('',#313,1.5);
#46=CIRCLE('',#315,1.50000000000003);
#47=CIRCLE('',#318,1.5);
#48=CIRCLE('',#320,1.5);
#49=CIRCLE('',#321,1.5);
#50=CIRCLE('',#323,38.);
#51=CIRCLE('',#325,44.);
#52=CIRCLE('',#326,41.);
#53=CIRCLE('',#328,37.);
#54=CIRCLE('',#330,37.);
#55=CIRCLE('',#332,44.);
#56=VECTOR('',#335,1.);
#57=VECTOR('',#336,1.);
#58=VECTOR('',#337,1.);
#59=VECTOR('',#343,1.);
#60=VECTOR('',#346,1.);
#61=VECTOR('',#348,1.);
#62=VECTOR('',#349,1.);
#63=VECTOR('',#354,1.);
#64=VECTOR('',#357,1.);
#65=VECTOR('',#358,1.);
#66=VECTOR('',#363,1.);
#67=VECTOR('',#365,1.);
#68=VECTOR('',#366,1.);
#69=VECTOR('',#371,1.);
#70=VECTOR('',#372,1.);
#71=VECTOR('',#379,1.);
#72=VECTOR('',#381,1.);
#73=VECTOR('',#382,1.);
#74=LINE('',#409,#56);
#75=LINE('',#411,#57);
#76=LINE('',#413,#58);
#77=LINE('',#419,#59);
#78=LINE('',#423,#60);
#79=LINE('',#429,#61);
#80=LINE('',#431,#62);
#81=LINE('',#436,#63);
#82=LINE('',#440,#64);
#83=LINE('',#446,#65);
#84=LINE('',#450,#66);
#85=LINE('',#452,#67);
#86=LINE('',#454,#68);
#87=LINE('',#462,#69);
#88=LINE('',#464,#70);
#89=LINE('',#471,#71);
#90=LINE('',#473,#72);
#91=LINE('',#474,#73);
#92=VERTEX_POINT('',#407);
#93=VERTEX_POINT('',#408);
#94=VERTEX_POINT('',#410);
#95=VERTEX_POINT('',#412);
#96=VERTEX_POINT('',#416);
#97=VERTEX_POINT('',#418);
#98=VERTEX_POINT('',#420);
#99=VERTEX_POINT('',#422);
#100=VERTEX_POINT('',#428);
#101=VERTEX_POINT('',#430);
#102=VERTEX_POINT('',#434);
#103=VERTEX_POINT('',#435);
#104=VERTEX_POINT('',#437);
#105=VERTEX_POINT('',#439);
#106=VERTEX_POINT('',#444);
#107=VERTEX_POINT('',#445);
#108=VERTEX_POINT('',#449);
#109=VERTEX_POINT('',#453);
#110=VERTEX_POINT('',#460);
#111=VERTEX_POINT('',#461);
#112=VERTEX_POINT('',#463);
#113=VERTEX_POINT('',#465);
#114=VERTEX_POINT('',#468);
#115=VERTEX_POINT('',#470);
#116=VERTEX_POINT('',#478);
#117=VERTEX_POINT('',#482);
#118=VERTEX_POINT('',#485);
#119=VERTEX_POINT('',#488);
#120=(
BOUNDED_CURVE()
B_SPLINE_CURVE(2,(#404,#405,#406),.UNSPECIFIED.,.F.,.U.)
B_SPLINE_CURVE_WITH_KNOTS((3,3),(0.,0.42442784826988),.UNSPECIFIED.)
CURVE()
GEOMETRIC_REPRESENTATION_ITEM()
RATIONAL_B_SPLINE_CURVE((1.,1.00072293644276,1.))
REPRESENTATION_ITEM('')
);
#121=(
BOUNDED_CURVE()
B_SPLINE_CURVE(2,(#425,#426,#427),.UNSPECIFIED.,.F.,.U.)
B_SPLINE_CURVE_WITH_KNOTS((3,3),(0.,0.42442784826988),.UNSPECIFIED.)
CURVE()
GEOMETRIC_REPRESENTATION_ITEM()
RATIONAL_B_SPLINE_CURVE((1.,1.00072293644276,1.))
REPRESENTATION_ITEM('')
);
#122=(
BOUNDED_CURVE()
B_SPLINE_CURVE(2,(#441,#442,#443),.UNSPECIFIED.,.F.,.U.)
B_SPLINE_CURVE_WITH_KNOTS((3,3),(0.,0.42442784826988),.UNSPECIFIED.)
CURVE()
GEOMETRIC_REPRESENTATION_ITEM()
RATIONAL_B_SPLINE_CURVE((1.,1.00072293569832,1.))
REPRESENTATION_ITEM('')
);
#123=(
BOUNDED_CURVE()
B_SPLINE_CURVE(2,(#457,#458,#459),.UNSPECIFIED.,.F.,.U.)
B_SPLINE_CURVE_WITH_KNOTS((3,3),(0.,0.42442784826988),.UNSPECIFIED.)
CURVE()
GEOMETRIC_REPRESENTATION_ITEM()
RATIONAL_B_SPLINE_CURVE((1.,1.00072293569832,1.))
REPRESENTATION_ITEM('')
);
#124=EDGE_CURVE('',#92,#93,#120,.T.);
#125=EDGE_CURVE('',#94,#92,#74,.T.);
#126=EDGE_CURVE('',#94,#95,#75,.T.);
#127=EDGE_CURVE('',#93,#95,#76,.T.);
#128=EDGE_CURVE('',#93,#96,#41,.T.);
#129=EDGE_CURVE('',#95,#97,#42,.T.);
#130=EDGE_CURVE('',#97,#98,#77,.T.);
#131=EDGE_CURVE('',#98,#99,#43,.T.);
#132=EDGE_CURVE('',#99,#96,#78,.T.);
#133=EDGE_CURVE('',#96,#100,#121,.T.);
#134=EDGE_CURVE('',#101,#99,#79,.T.);
#135=EDGE_CURVE('',#100,#101,#80,.T.);
#136=EDGE_CURVE('',#102,#103,#44,.T.);
#137=EDGE_CURVE('',#104,#102,#81,.T.);
#138=EDGE_CURVE('',#105,#104,#45,.T.);
#139=EDGE_CURVE('',#105,#103,#82,.T.);
#140=EDGE_CURVE('',#106,#107,#122,.T.);
#141=EDGE_CURVE('',#103,#106,#76,.T.);
#142=EDGE_CURVE('',#107,#105,#83,.T.);
#143=EDGE_CURVE('',#108,#94,#46,.T.);
#144=EDGE_CURVE('',#108,#97,#84,.T.);
#145=EDGE_CURVE('',#109,#108,#85,.T.);
#146=EDGE_CURVE('',#109,#98,#86,.T.);
#147=EDGE_CURVE('',#101,#109,#47,.T.);
#148=EDGE_CURVE('',#110,#111,#123,.T.);
#149=EDGE_CURVE('',#112,#110,#87,.T.);
#150=EDGE_CURVE('',#112,#113,#88,.T.);
#151=EDGE_CURVE('',#111,#113,#78,.T.);
#152=EDGE_CURVE('',#113,#114,#48,.T.);
#153=EDGE_CURVE('',#115,#112,#49,.T.);
#154=EDGE_CURVE('',#115,#114,#89,.T.);
#155=EDGE_CURVE('',#114,#102,#90,.T.);
#156=EDGE_CURVE('',#104,#115,#91,.T.);
#157=EDGE_CURVE('',#111,#106,#50,.T.);
#158=EDGE_CURVE('',#116,#116,#51,.T.);
#159=EDGE_CURVE('',#100,#110,#52,.T.);
#160=EDGE_CURVE('',#107,#92,#52,.T.);
#161=EDGE_CURVE('',#117,#117,#53,.T.);
#162=EDGE_CURVE('',#118,#118,#54,.T.);
#163=EDGE_CURVE('',#119,#119,#55,.T.);
#164=ORIENTED_EDGE('',*,*,#124,.F.);
#165=ORIENTED_EDGE('',*,*,#125,.F.);
#166=ORIENTED_EDGE('',*,*,#126,.T.);
#167=ORIENTED_EDGE('',*,*,#127,.F.);
#168=ORIENTED_EDGE('',*,*,#128,.F.);
#169=ORIENTED_EDGE('',*,*,#127,.T.);
#170=ORIENTED_EDGE('',*,*,#129,.T.);
#171=ORIENTED_EDGE('',*,*,#130,.T.);
#172=ORIENTED_EDGE('',*,*,#131,.T.);
#173=ORIENTED_EDGE('',*,*,#132,.T.);
#174=ORIENTED_EDGE('',*,*,#133,.F.);
#175=ORIENTED_EDGE('',*,*,#132,.F.);
#176=ORIENTED_EDGE('',*,*,#134,.F.);
#177=ORIENTED_EDGE('',*,*,#135,.F.);
#178=ORIENTED_EDGE('',*,*,#136,.F.);
#179=ORIENTED_EDGE('',*,*,#137,.F.);
#180=ORIENTED_EDGE('',*,*,#138,.F.);
#181=ORIENTED_EDGE('',*,*,#139,.T.);
#182=ORIENTED_EDGE('',*,*,#140,.F.);
#183=ORIENTED_EDGE('',*,*,#141,.F.);
#184=ORIENTED_EDGE('',*,*,#139,.F.);
#185=ORIENTED_EDGE('',*,*,#142,.F.);
#186=ORIENTED_EDGE('',*,*,#129,.F.);
#187=ORIENTED_EDGE('',*,*,#126,.F.);
#188=ORIENTED_EDGE('',*,*,#143,.F.);
#189=ORIENTED_EDGE('',*,*,#144,.T.);
#190=ORIENTED_EDGE('',*,*,#130,.F.);
#191=ORIENTED_EDGE('',*,*,#144,.F.);
#192=ORIENTED_EDGE('',*,*,#145,.F.);
#193=ORIENTED_EDGE('',*,*,#146,.T.);
#194=ORIENTED_EDGE('',*,*,#131,.F.);
#195=ORIENTED_EDGE('',*,*,#146,.F.);
#196=ORIENTED_EDGE('',*,*,#147,.F.);
#197=ORIENTED_EDGE('',*,*,#134,.T.);
#198=ORIENTED_EDGE('',*,*,#148,.F.);
#199=ORIENTED_EDGE('',*,*,#149,.F.);
#200=ORIENTED_EDGE('',*,*,#150,.T.);
#201=ORIENTED_EDGE('',*,*,#151,.F.);
#202=ORIENTED_EDGE('',*,*,#152,.F.);
#203=ORIENTED_EDGE('',*,*,#150,.F.);
#204=ORIENTED_EDGE('',*,*,#153,.F.);
#205=ORIENTED_EDGE('',*,*,#154,.T.);
#206=ORIENTED_EDGE('',*,*,#155,.F.);
#207=ORIENTED_EDGE('',*,*,#154,.F.);
#208=ORIENTED_EDGE('',*,*,#156,.F.);
#209=ORIENTED_EDGE('',*,*,#137,.T.);
#210=ORIENTED_EDGE('',*,*,#157,.F.);
#211=ORIENTED_EDGE('',*,*,#151,.T.);
#212=ORIENTED_EDGE('',*,*,#152,.T.);
#213=ORIENTED_EDGE('',*,*,#155,.T.);
#214=ORIENTED_EDGE('',*,*,#136,.T.);
#215=ORIENTED_EDGE('',*,*,#141,.T.);
#216=ORIENTED_EDGE('',*,*,#158,.F.);
#217=ORIENTED_EDGE('',*,*,#142,.T.);
#218=ORIENTED_EDGE('',*,*,#138,.T.);
#219=ORIENTED_EDGE('',*,*,#156,.T.);
#220=ORIENTED_EDGE('',*,*,#153,.T.);
#221=ORIENTED_EDGE('',*,*,#149,.T.);
#222=ORIENTED_EDGE('',*,*,#159,.F.);
#223=ORIENTED_EDGE('',*,*,#135,.T.);
#224=ORIENTED_EDGE('',*,*,#147,.T.);
#225=ORIENTED_EDGE('',*,*,#145,.T.);
#226=ORIENTED_EDGE('',*,*,#143,.T.);
#227=ORIENTED_EDGE('',*,*,#125,.T.);
#228=ORIENTED_EDGE('',*,*,#160,.F.);
#229=ORIENTED_EDGE('',*,*,#140,.T.);
#230=ORIENTED_EDGE('',*,*,#160,.T.);
#231=ORIENTED_EDGE('',*,*,#124,.T.);
#232=ORIENTED_EDGE('',*,*,#128,.T.);
#233=ORIENTED_EDGE('',*,*,#133,.T.);
#234=ORIENTED_EDGE('',*,*,#159,.T.);
#235=ORIENTED_EDGE('',*,*,#148,.T.);
#236=ORIENTED_EDGE('',*,*,#157,.T.);
#237=ORIENTED_EDGE('',*,*,#161,.T.);
#238=ORIENTED_EDGE('',*,*,#162,.F.);
#239=ORIENTED_EDGE('',*,*,#161,.F.);
#240=ORIENTED_EDGE('',*,*,#158,.T.);
#241=ORIENTED_EDGE('',*,*,#163,.T.);
#242=ORIENTED_EDGE('',*,*,#162,.T.);
#243=ORIENTED_EDGE('',*,*,#163,.F.);
#244=EDGE_LOOP('',(#164,#165,#166,#167));
#245=EDGE_LOOP('',(#168,#169,#170,#171,#172,#173));
#246=EDGE_LOOP('',(#174,#175,#176,#177));
#247=EDGE_LOOP('',(#178,#179,#180,#181));
#248=EDGE_LOOP('',(#182,#183,#184,#185));
#249=EDGE_LOOP('',(#186,#187,#188,#189));
#250=EDGE_LOOP('',(#190,#191,#192,#193));
#251=EDGE_LOOP('',(#194,#195,#196,#197));
#252=EDGE_LOOP('',(#198,#199,#200,#201));
#253=EDGE_LOOP('',(#202,#203,#204,#205));
#254=EDGE_LOOP('',(#206,#207,#208,#209));
#255=EDGE_LOOP('',(#210,#211,#212,#213,#214,#215));
#256=EDGE_LOOP('',(#216));
#257=EDGE_LOOP('',(#217,#218,#219,#220,#221,#222,#223,#224,#225,#226,#227,
#228));
#258=EDGE_LOOP('',(#229,#230,#231,#232,#233,#234,#235,#236));
#259=EDGE_LOOP('',(#237));
#260=EDGE_LOOP('',(#238));
#261=EDGE_LOOP('',(#239));
#262=EDGE_LOOP('',(#240));
#263=EDGE_LOOP('',(#241));
#264=EDGE_LOOP('',(#242));
#265=EDGE_LOOP('',(#243));
#266=FACE_BOUND('',#244,.T.);
#267=FACE_BOUND('',#245,.T.);
#268=FACE_BOUND('',#246,.T.);
#269=FACE_BOUND('',#247,.T.);
#270=FACE_BOUND('',#248,.T.);
#271=FACE_BOUND('',#249,.T.);
#272=FACE_BOUND('',#250,.T.);
#273=FACE_BOUND('',#251,.T.);
#274=FACE_BOUND('',#252,.T.);
#275=FACE_BOUND('',#253,.T.);
#276=FACE_BOUND('',#254,.T.);
#277=FACE_BOUND('',#255,.T.);
#278=FACE_BOUND('',#256,.T.);
#279=FACE_BOUND('',#257,.T.);
#280=FACE_BOUND('',#258,.T.);
#281=FACE_BOUND('',#259,.T.);
#282=FACE_BOUND('',#260,.T.);
#283=FACE_BOUND('',#261,.T.);
#284=FACE_BOUND('',#262,.T.);
#285=FACE_BOUND('',#263,.T.);
#286=FACE_BOUND('',#264,.T.);
#287=FACE_BOUND('',#265,.T.);
#288=ADVANCED_FACE('',(#266),#490,.F.);
#289=ADVANCED_FACE('',(#267),#491,.T.);
#290=ADVANCED_FACE('',(#268),#492,.F.);
#291=ADVANCED_FACE('',(#269),#35,.F.);
#292=ADVANCED_FACE('',(#270),#490,.F.);
#293=ADVANCED_FACE('',(#271),#36,.F.);
#294=ADVANCED_FACE('',(#272),#493,.F.);
#295=ADVANCED_FACE('',(#273),#37,.F.);
#296=ADVANCED_FACE('',(#274),#492,.F.);
#297=ADVANCED_FACE('',(#275),#38,.F.);
#298=ADVANCED_FACE('',(#276),#494,.F.);
#299=ADVANCED_FACE('',(#277),#491,.T.);
#300=ADVANCED_FACE('',(#278,#279),#495,.T.);
#301=ADVANCED_FACE('',(#280,#281),#34,.F.);
#302=ADVANCED_FACE('',(#282,#283),#39,.F.);
#303=ADVANCED_FACE('',(#284,#285),#40,.T.);
#304=ADVANCED_FACE('',(#286,#287),#496,.F.);
#305=AXIS2_PLACEMENT_3D('',#403,#334,$);
#306=AXIS2_PLACEMENT_3D('',#414,#338,$);
#307=AXIS2_PLACEMENT_3D('',#415,#339,#340);
#308=AXIS2_PLACEMENT_3D('',#417,#341,#342);
#309=AXIS2_PLACEMENT_3D('',#421,#344,#345);
#310=AXIS2_PLACEMENT_3D('',#424,#347,$);
#311=AXIS2_PLACEMENT_3D('',#432,#350,#351);
#312=AXIS2_PLACEMENT_3D('',#433,#352,#353);
#313=AXIS2_PLACEMENT_3D('',#438,#355,#356);
#314=AXIS2_PLACEMENT_3D('',#447,#359,#360);
#315=AXIS2_PLACEMENT_3D('',#448,#361,#362);
#316=AXIS2_PLACEMENT_3D('',#451,#364,$);
#317=AXIS2_PLACEMENT_3D('',#455,#367,#368);
#318=AXIS2_PLACEMENT_3D('',#456,#369,#370);
#319=AXIS2_PLACEMENT_3D('',#466,#373,#374);
#320=AXIS2_PLACEMENT_3D('',#467,#375,#376);
#321=AXIS2_PLACEMENT_3D('',#469,#377,#378);
#322=AXIS2_PLACEMENT_3D('',#472,#380,$);
#323=AXIS2_PLACEMENT_3D('',#475,#383,#384);
#324=AXIS2_PLACEMENT_3D('',#476,#385,$);
#325=AXIS2_PLACEMENT_3D('',#477,#386,#387);
#326=AXIS2_PLACEMENT_3D('',#479,#388,#389);
#327=AXIS2_PLACEMENT_3D('',#480,#390,#391);
#328=AXIS2_PLACEMENT_3D('',#481,#392,#393);
#329=AXIS2_PLACEMENT_3D('',#483,#394,#395);
#330=AXIS2_PLACEMENT_3D('',#484,#396,#397);
#331=AXIS2_PLACEMENT_3D('',#486,#398,#399);
#332=AXIS2_PLACEMENT_3D('',#487,#400,#401);
#333=AXIS2_PLACEMENT_3D('',#489,#402,$);
#334=DIRECTION('',(1.218537466052E-16,-1.,0.));
#335=DIRECTION('',(-1.,-1.218537466052E-16,-1.5770213417971E-17));
#336=DIRECTION('',(0.,0.,-1.));
#337=DIRECTION('',(1.,1.218537466052E-16,0.));
#338=DIRECTION('',(3.87855215480476E-32,-2.92328538054832E-31,1.));
#339=DIRECTION('',(3.87855215480476E-32,-2.92328538054832E-31,1.));
#340=DIRECTION('',(-38.,0.,0.));
#341=DIRECTION('',(-1.5770213417971E-17,2.62626810598259E-33,1.));
#342=DIRECTION('',(1.50000000000003,0.,0.));
#343=DIRECTION('',(0.,1.,0.));
#344=DIRECTION('',(-1.5770213417971E-17,2.62626810598259E-33,1.));
#345=DIRECTION('',(1.5,0.,0.));
#346=DIRECTION('',(-1.,1.218537466052E-16,0.));
#347=DIRECTION('',(1.218537466052E-16,1.,0.));
#348=DIRECTION('',(0.,0.,-1.));
#349=DIRECTION('',(1.,-1.218537466052E-16,1.5770213417971E-17));
#350=DIRECTION('',(0.,0.,-1.));
#351=DIRECTION('',(1.5,0.,0.));
#352=DIRECTION('',(-1.5770213417971E-17,2.62626810598259E-33,1.));
#353=DIRECTION('',(1.5,0.,0.));
#354=DIRECTION('',(0.,0.,-1.));
#355=DIRECTION('',(1.5770213417971E-17,-2.62626810598259E-33,-1.));
#356=DIRECTION('',(1.5,0.,0.));
#357=DIRECTION('',(0.,0.,-1.));
#358=DIRECTION('',(-1.,-1.218537466052E-16,-1.5770213417971E-17));
#359=DIRECTION('',(0.,0.,-1.));
#360=DIRECTION('',(1.50000000000003,0.,0.));
#361=DIRECTION('',(1.5770213417971E-17,-2.62626810598259E-33,-1.));
#362=DIRECTION('',(1.50000000000003,0.,0.));
#363=DIRECTION('',(0.,0.,-1.));
#364=DIRECTION('',(1.,0.,0.));
#365=DIRECTION('',(0.,-1.,2.62626810598259E-33));
#366=DIRECTION('',(0.,0.,-1.));
#367=DIRECTION('',(0.,0.,-1.));
#368=DIRECTION('',(1.5,0.,0.));
#369=DIRECTION('',(1.5770213417971E-17,-2.62626810598259E-33,-1.));
#370=DIRECTION('',(1.5,0.,0.));
#371=DIRECTION('',(1.,-1.218537466052E-16,1.5770213417971E-17));
#372=DIRECTION('',(0.,0.,-1.));
#373=DIRECTION('',(0.,0.,-1.));
#374=DIRECTION('',(1.5,0.,0.));
#375=DIRECTION('',(-1.5770213417971E-17,2.62626810598259E-33,1.));
#376=DIRECTION('',(1.5,0.,0.));
#377=DIRECTION('',(1.5770213417971E-17,-2.62626810598259E-33,-1.));
#378=DIRECTION('',(1.5,0.,0.));
#379=DIRECTION('',(0.,0.,-1.));
#380=DIRECTION('',(-1.,0.,0.));
#381=DIRECTION('',(0.,-1.,0.));
#382=DIRECTION('',(0.,1.,-2.62626810598259E-33));
#383=DIRECTION('',(3.87855215480476E-32,-2.92328538054832E-31,1.));
#384=DIRECTION('',(-38.,0.,0.));
#385=DIRECTION('',(-1.5770213417971E-17,2.62626810598259E-33,1.));
#386=DIRECTION('',(1.5770213417971E-17,-2.62626810598259E-33,-1.));
#387=DIRECTION('',(44.,0.,1.11022302462516E-15));
#388=DIRECTION('',(-1.5770213417971E-17,2.62626810598259E-33,1.));
#389=DIRECTION('',(-41.,-1.69808914949039E-48,-6.4657875013681E-16));
#390=DIRECTION('',(-1.5770213417971E-17,2.62626810598259E-33,1.));
#391=DIRECTION('',(-41.,0.,0.));
#392=DIRECTION('',(1.5770213417971E-17,-2.62626810598259E-33,-1.));
#393=DIRECTION('',(-37.,-8.38179013084913E-47,-5.55111512312578E-16));
#394=DIRECTION('',(0.,2.62626810598258E-33,1.));
#395=DIRECTION('',(37.,-2.91574332010056E-48,0.));
#396=DIRECTION('',(-1.5770213417971E-17,2.62626810598259E-33,1.));
#397=DIRECTION('',(37.,0.,1.11022302462516E-15));
#398=DIRECTION('',(0.,2.62626810598258E-33,1.));
#399=DIRECTION('',(44.,-2.91574332010056E-48,0.));
#400=DIRECTION('',(-1.5770213417971E-17,2.62626810598259E-33,1.));
#401=DIRECTION('',(44.,0.,1.11022302462516E-15));
#402=DIRECTION('',(-1.5770213417971E-17,2.62626810598259E-33,1.));
#403=CARTESIAN_POINT('',(0.,-1.55,14.));
#404=CARTESIAN_POINT('',(40.9706907435059,-1.55,14.));
#405=CARTESIAN_POINT('',(39.4125268585723,-1.55,12.4429499839689));
#406=CARTESIAN_POINT('',(37.9683749981481,-1.55,11.));
#407=CARTESIAN_POINT('',(40.9706907435059,-1.55,14.));
#408=CARTESIAN_POINT('',(37.9683749981481,-1.55,11.));
#409=CARTESIAN_POINT('',(9.44366536190304E-17,-1.55,14.));
#410=CARTESIAN_POINT('',(41.,-1.55,14.));
#411=CARTESIAN_POINT('',(41.,-1.55,14.));
#412=CARTESIAN_POINT('',(41.,-1.55,11.));
#413=CARTESIAN_POINT('',(-41.,-1.55000000000001,11.));
#414=CARTESIAN_POINT('',(1.19348975147204E-14,4.40186082029115E-16,11.));
#415=CARTESIAN_POINT('',(-4.73106402539129E-17,1.01496508069207E-30,11.));
#416=CARTESIAN_POINT('',(37.9683749981481,1.55,11.));
#417=CARTESIAN_POINT('',(41.,-0.049999999999974,11.));
#418=CARTESIAN_POINT('',(42.5,-0.0499999999999744,11.));
#419=CARTESIAN_POINT('',(42.5,-0.0499999999999735,11.));
#420=CARTESIAN_POINT('',(42.5,0.0499999999999995,11.));
#421=CARTESIAN_POINT('',(41.,0.0500000000000208,11.));
#422=CARTESIAN_POINT('',(41.,1.55000000000002,11.));
#423=CARTESIAN_POINT('',(41.,1.55,11.));
#424=CARTESIAN_POINT('',(0.,1.55,14.));
#425=CARTESIAN_POINT('',(37.9683749981481,1.55,11.));
#426=CARTESIAN_POINT('',(39.4125268585723,1.55,12.4429499839689));
#427=CARTESIAN_POINT('',(40.9706907435059,1.55,14.));
#428=CARTESIAN_POINT('',(40.9706907435059,1.55,14.));
#429=CARTESIAN_POINT('',(41.,1.55000000000002,14.));
#430=CARTESIAN_POINT('',(41.,1.55000000000002,14.));
#431=CARTESIAN_POINT('',(9.44366536190304E-17,1.55,14.));
#432=CARTESIAN_POINT('',(-41.,-0.0499999999999845,14.));
#433=CARTESIAN_POINT('',(-41.,-0.0499999999999845,11.));
#434=CARTESIAN_POINT('',(-42.5,-0.0499999999999845,11.));
#435=CARTESIAN_POINT('',(-41.,-1.54999999999999,11.));
#436=CARTESIAN_POINT('',(-42.5,-0.0499999999999845,14.));
#437=CARTESIAN_POINT('',(-42.5,-0.0499999999999845,14.));
#438=CARTESIAN_POINT('',(-41.,-0.0499999999999845,14.));
#439=CARTESIAN_POINT('',(-41.,-1.54999999999999,14.));
#440=CARTESIAN_POINT('',(-41.,-1.54999999999999,14.));
#441=CARTESIAN_POINT('',(-37.9683749981481,-1.55000000000001,11.));
#442=CARTESIAN_POINT('',(-39.4125268585549,-1.55000000000001,12.4429499839516));
#443=CARTESIAN_POINT('',(-40.9706907435059,-1.55000000000001,14.));
#444=CARTESIAN_POINT('',(-37.9683749981481,-1.55000000000001,11.));
#445=CARTESIAN_POINT('',(-40.9706907435059,-1.55000000000001,14.));
#446=CARTESIAN_POINT('',(9.44366536190304E-17,-1.55,14.));
#447=CARTESIAN_POINT('',(41.,-0.049999999999974,14.));
#448=CARTESIAN_POINT('',(41.,-0.049999999999974,14.));
#449=CARTESIAN_POINT('',(42.5,-0.0499999999999744,14.));
#450=CARTESIAN_POINT('',(42.5,-0.0499999999999744,14.));
#451=CARTESIAN_POINT('',(42.5,1.25593979660721E-14,14.));
#452=CARTESIAN_POINT('',(42.5,6.27969898303604E-15,14.));
#453=CARTESIAN_POINT('',(42.5,0.0499999999999995,14.));
#454=CARTESIAN_POINT('',(42.5,0.0499999999999995,14.));
#455=CARTESIAN_POINT('',(41.,0.0500000000000208,14.));
#456=CARTESIAN_POINT('',(41.,0.0500000000000208,14.));
#457=CARTESIAN_POINT('',(-40.9706907435059,1.55000000000001,14.));
#458=CARTESIAN_POINT('',(-39.4125268585549,1.55000000000001,12.4429499839516));
#459=CARTESIAN_POINT('',(-37.9683749981481,1.55000000000001,11.));
#460=CARTESIAN_POINT('',(-40.9706907435059,1.55000000000001,14.));
#461=CARTESIAN_POINT('',(-37.9683749981481,1.55000000000001,11.));
#462=CARTESIAN_POINT('',(9.44366536190304E-17,1.55,14.));
#463=CARTESIAN_POINT('',(-41.,1.55000000000001,14.));
#464=CARTESIAN_POINT('',(-41.,1.55000000000001,14.));
#465=CARTESIAN_POINT('',(-41.,1.55000000000001,11.));
#466=CARTESIAN_POINT('',(-41.,0.0500000000000103,14.));
#467=CARTESIAN_POINT('',(-41.,0.0500000000000103,11.));
#468=CARTESIAN_POINT('',(-42.5,0.0500000000000103,11.));
#469=CARTESIAN_POINT('',(-41.,0.0500000000000103,14.));
#470=CARTESIAN_POINT('',(-42.5,0.0500000000000103,14.));
#471=CARTESIAN_POINT('',(-42.5,0.0500000000000103,14.));
#472=CARTESIAN_POINT('',(-42.5,1.28976690438876E-14,14.));
#473=CARTESIAN_POINT('',(-42.5,0.0500000000000103,11.));
#474=CARTESIAN_POINT('',(-42.5,6.44883452194378E-15,14.));
#475=CARTESIAN_POINT('',(-4.73106402539129E-17,1.01496508069207E-30,11.));
#476=CARTESIAN_POINT('',(-1.0868173885553E-32,1.02284388501002E-30,14.));
#477=CARTESIAN_POINT('',(-1.0868173885553E-32,1.02284388501002E-30,14.));
#478=CARTESIAN_POINT('',(44.,1.02284388501002E-30,14.));
#479=CARTESIAN_POINT('',(-9.46212805078258E-17,1.02284388501002E-30,14.));
#480=CARTESIAN_POINT('',(-9.46212805078258E-17,1.02284388501002E-30,14.));
#481=CARTESIAN_POINT('',(-3.15404268359419E-17,1.01233881258609E-30,10.));
#482=CARTESIAN_POINT('',(37.,-4.53119315684521E-15,10.));
#483=CARTESIAN_POINT('',(-1.0868173885553E-32,1.00708627637413E-30,8.));
#484=CARTESIAN_POINT('',(-1.0868173885553E-32,1.00708627637413E-30,8.));
#485=CARTESIAN_POINT('',(37.,1.00708627637413E-30,8.));
#486=CARTESIAN_POINT('',(-1.0868173885553E-32,1.00708627637413E-30,8.));
#487=CARTESIAN_POINT('',(-1.0868173885553E-32,1.00708627637413E-30,8.));
#488=CARTESIAN_POINT('',(44.,1.00708627637413E-30,8.));
#489=CARTESIAN_POINT('',(-1.0868173885553E-32,1.00708627637413E-30,8.));
#490=PLANE('',#305);
#491=PLANE('',#306);
#492=PLANE('',#310);
#493=PLANE('',#316);
#494=PLANE('',#322);
#495=PLANE('',#324);
#496=PLANE('',#333);
#497=CLOSED_SHELL('',(#288,#289,#290,#291,#292,#293,#294,#295,#296,#297,
#298,#299,#300,#301,#302,#303,#304));
#498=MANIFOLD_SOLID_BREP('',#497);
#499=ADVANCED_BREP_SHAPE_REPRESENTATION('',(#498),#33);
ENDSEC;
END-ISO-10303-21;
