ISO-10303-21;
HEADER;
FILE_DESCRIPTION (( 'STEP AP203' ),
    '1' );
FILE_NAME ('entretoise.STEP',
    '2021-07-23T15:10:31',
    ( '' ),
    ( '' ),
    'SwSTEP 2.0',
    'SolidWorks 2018',
    '' );
FILE_SCHEMA (( 'CONFIG_CONTROL_DESIGN' ));
ENDSEC;

DATA;
#1 = AXIS2_PLACEMENT_3D ( 'NONE', #205, #126, #146 ) ;
#2 = EDGE_CURVE ( 'NONE', #16, #242, #208, .T. ) ;
#3 = ORIENTED_EDGE ( 'NONE', *, *, #76, .F. ) ;
#4 = EDGE_CURVE ( 'NONE', #189, #16, #286, .T. ) ;
#5 = DIRECTION ( 'NONE',  ( 0.8939127454926890648, 0.4482410104460801681, 0.000000000000000000 ) ) ;
#6 = FACE_OUTER_BOUND ( 'NONE', #240, .T. ) ;
#7 = PLANE ( 'NONE',  #18 ) ;
#8 = DIRECTION ( 'NONE',  ( 0.4131219524575683866, -0.8238759286597392428, 0.3880189513061170214 ) ) ;
#9 = CC_DESIGN_APPROVAL ( #123, ( #118 ) ) ;
#10 = APPLICATION_CONTEXT ( 'configuration controlled 3d designs of mechanical parts and assemblies' ) ;
#11 = ORIENTED_EDGE ( 'NONE', *, *, #45, .T. ) ;
#12 = PERSON_AND_ORGANIZATION_ROLE ( 'creator' ) ;
#13 = AXIS2_PLACEMENT_3D ( 'NONE', #214, #8, #262 ) ;
#14 = DIRECTION ( 'NONE',  ( 0.4131219524575682200, -0.8238759286597383547, 0.3880189513061192974 ) ) ;
#15 = VECTOR ( 'NONE', #284, 1000.000000000000000 ) ;
#16 = VERTEX_POINT ( 'NONE', #144 ) ;
#17 = ADVANCED_BREP_SHAPE_REPRESENTATION ( 'entretoise', ( #250, #171 ), #162 ) ;
#18 = AXIS2_PLACEMENT_3D ( 'NONE', #63, #131, #84 ) ;
#19 = ORGANIZATION ( 'UNSPECIFIED', 'UNSPECIFIED', '' ) ;
#20 = AXIS2_PLACEMENT_3D ( 'NONE', #165, #23, #56 ) ;
#21 = VERTEX_POINT ( 'NONE', #185 ) ;
#22 = PERSON_AND_ORGANIZATION ( #69, #19 ) ;
#23 = DIRECTION ( 'NONE',  ( 0.4131219524575682200, -0.8238759286597383547, 0.3880189513061192974 ) ) ;
#24 = LINE ( 'NONE', #48, #49 ) ;
#25 = AXIS2_PLACEMENT_3D ( 'NONE', #108, #282, #172 ) ;
#26 = ORIENTED_EDGE ( 'NONE', *, *, #267, .T. ) ;
#27 = APPROVAL ( #292, 'UNSPECIFIED' ) ;
#28 = PERSON_AND_ORGANIZATION ( #69, #19 ) ;
#29 = CYLINDRICAL_SURFACE ( 'NONE', #225, 11.24999999999991651 ) ;
#30 = VERTEX_POINT ( 'NONE', #248 ) ;
#31 = COORDINATED_UNIVERSAL_TIME_OFFSET ( 1, 0, .AHEAD. ) ;
#32 = PRODUCT_RELATED_PRODUCT_CATEGORY ( 'detail', '', ( #46 ) ) ;
#33 = CIRCLE ( 'NONE', #251, 15.74999999999997691 ) ;
#34 = CALENDAR_DATE ( 2021, 23, 7 ) ;
#35 = DIRECTION ( 'NONE',  ( 0.8939127454926881766, 0.4482410104460817779, 0.000000000000000000 ) ) ;
#36 = LINE ( 'NONE', #155, #268 ) ;
#37 = DIRECTION ( 'NONE',  ( 0.4131219524575681645, -0.8238759286597383547, 0.3880189513061191864 ) ) ;
#38 = EDGE_LOOP ( 'NONE', ( #168, #26, #140, #151 ) ) ;
#39 = DIRECTION ( 'NONE',  ( 0.4131219524575683866, -0.8238759286597392428, 0.3880189513061170214 ) ) ;
#40 = DATE_AND_TIME ( #163, #280 ) ;
#41 = CARTESIAN_POINT ( 'NONE',  ( -681.9497828256586445, 131.8985138176913949, -1173.377129880458824 ) ) ;
#42 = ADVANCED_FACE ( 'NONE', ( #164, #264 ), #101, .T. ) ;
#43 = FACE_OUTER_BOUND ( 'NONE', #224, .T. ) ;
#44 = DIRECTION ( 'NONE',  ( 0.8939127454926885097, 0.4482410104460811673, 0.000000000000000000 ) ) ;
#45 = EDGE_CURVE ( 'NONE', #30, #200, #58, .T. ) ;
#46 = PRODUCT ( 'entretoise', 'entretoise', '', ( #94 ) ) ;
#47 = ADVANCED_FACE ( 'NONE', ( #103 ), #191, .T. ) ;
#48 = CARTESIAN_POINT ( 'NONE',  ( -669.3495632757027352, 106.7702979935692440, -1161.542551865622045 ) ) ;
#49 = VECTOR ( 'NONE', #157, 1000.000000000000114 ) ;
#50 = CIRCLE ( 'NONE', #243, 15.74999999999997691 ) ;
#51 = ORIENTED_EDGE ( 'NONE', *, *, #125, .T. ) ;
#52 = VERTEX_POINT ( 'NONE', #86 ) ;
#53 = COORDINATED_UNIVERSAL_TIME_OFFSET ( 1, 0, .AHEAD. ) ;
#54 = ORIENTED_EDGE ( 'NONE', *, *, #141, .F. ) ;
#55 = CALENDAR_DATE ( 2021, 23, 7 ) ;
#56 = DIRECTION ( 'NONE',  ( 0.8939127454926890648, 0.4482410104460801681, 0.000000000000000000 ) ) ;
#57 = COORDINATED_UNIVERSAL_TIME_OFFSET ( 1, 0, .AHEAD. ) ;
#58 = CIRCLE ( 'NONE', #13, 11.24999999999991651 ) ;
#59 = DIRECTION ( 'NONE',  ( 0.8939127454926881766, 0.4482410104460817779, 0.000000000000000000 ) ) ;
#60 = AXIS2_PLACEMENT_3D ( 'NONE', #80, #64, #212 ) ;
#61 = CARTESIAN_POINT ( 'NONE',  ( -657.4339961028509833, 108.1055676821188598, -1159.796466584744394 ) ) ;
#62 = DESIGN_CONTEXT ( 'detailed design', #295, 'design' ) ;
#63 = CARTESIAN_POINT ( 'NONE',  ( -671.8932644388659128, 136.9412251852095892, -1173.377129880459051 ) ) ;
#64 = DIRECTION ( 'NONE',  ( 0.4131219524575682200, -0.8238759286597383547, 0.3880189513061192974 ) ) ;
#65 = CARTESIAN_POINT ( 'NONE',  ( -669.3495632757027352, 106.7702979935692440, -1161.542551865622045 ) ) ;
#66 = ORIENTED_EDGE ( 'NONE', *, *, #2, .T. ) ;
#67 = CARTESIAN_POINT ( 'NONE',  ( -649.2365265021173855, 116.8557207286060020, -1161.542551865622045 ) ) ;
#68 = DATE_AND_TIME ( #124, #186 ) ;
#69 = PERSON ( 'UNSPECIFIED', 'UNSPECIFIED', 'UNSPECIFIED', ('UNSPECIFIED'), ('UNSPECIFIED'), ('UNSPECIFIED') ) ;
#70 = APPLICATION_PROTOCOL_DEFINITION ( 'international standard', 'config_control_design', 1994, #10 ) ;
#71 = AXIS2_PLACEMENT_3D ( 'NONE', #197, #39, #294 ) ;
#72 = ORIENTED_EDGE ( 'NONE', *, *, #207, .F. ) ;
#73 = PRODUCT_DEFINITION_SHAPE ( 'NONE', 'NONE',  #95 ) ;
#74 = CIRCLE ( 'NONE', #25, 11.24999999999991651 ) ;
#75 = EDGE_LOOP ( 'NONE', ( #246, #174, #192, #78 ) ) ;
#76 = EDGE_CURVE ( 'NONE', #81, #189, #106, .T. ) ;
#77 = CARTESIAN_POINT ( 'NONE',  ( -656.2497913927437594, 144.7854428680160481, -1173.377129880459051 ) ) ;
#78 = ORIENTED_EDGE ( 'NONE', *, *, #221, .F. ) ;
#79 = EDGE_CURVE ( 'NONE', #21, #231, #74, .T. ) ;
#80 = CARTESIAN_POINT ( 'NONE',  ( -671.8932644388660265, 136.9412251852097029, -1173.377129880458824 ) ) ;
#81 = VERTEX_POINT ( 'NONE', #278 ) ;
#82 = ORIENTED_EDGE ( 'NONE', *, *, #253, .T. ) ;
#83 = DIRECTION ( 'NONE',  ( 0.4131219524575682200, -0.8238759286597383547, 0.3880189513061192974 ) ) ;
#84 = DIRECTION ( 'NONE',  ( 0.8939127454926885097, 0.4482410104460813338, 0.000000000000000000 ) ) ;
#85 = CARTESIAN_POINT ( 'NONE',  ( -667.4905144896437150, 103.0628563146004524, -1159.796466584744394 ) ) ;
#86 = CARTESIAN_POINT ( 'NONE',  ( -671.5131218443608532, 101.0457717675931093, -1159.796466584744394 ) ) ;
#87 = AXIS2_PLACEMENT_3D ( 'NONE', #196, #134, #183 ) ;
#88 = ADVANCED_FACE ( 'NONE', ( #206 ), #256, .T. ) ;
#89 = APPROVAL_ROLE ( '' ) ;
#90 = ADVANCED_FACE ( 'NONE', ( #6 ), #96, .F. ) ;
#91 = CIRCLE ( 'NONE', #107, 17.50000000000007461 ) ;
#92 =( NAMED_UNIT ( * ) SI_UNIT ( $, .STERADIAN. ) SOLID_ANGLE_UNIT ( ) );
#93 = AXIS2_PLACEMENT_3D ( 'NONE', #258, #83, #257 ) ;
#94 = MECHANICAL_CONTEXT ( 'NONE', #10, 'mechanical' ) ;
#95 = PRODUCT_DEFINITION ( 'UNKNOWN', '', #274, #62 ) ;
#96 = CONICAL_SURFACE ( 'NONE', #230, 11.24999999999991651, 0.7853981633974594923 ) ;
#97 = CC_DESIGN_DATE_AND_TIME_ASSIGNMENT ( #238, #180, ( #118 ) ) ;
#98 = ORIENTED_EDGE ( 'NONE', *, *, #296, .F. ) ;
#99 = DIRECTION ( 'NONE',  ( 0.4131219524575681645, -0.8238759286597383547, 0.3880189513061192419 ) ) ;
#100 = FACE_BOUND ( 'NONE', #184, .T. ) ;
#101 = PLANE ( 'NONE',  #1 ) ;
#102 = CIRCLE ( 'NONE', #132, 17.50000000000007461 ) ;
#103 = FACE_OUTER_BOUND ( 'NONE', #252, .T. ) ;
#104 = EDGE_LOOP ( 'NONE', ( #66, #270 ) ) ;
#105 = CC_DESIGN_PERSON_AND_ORGANIZATION_ASSIGNMENT ( #22, #120, ( #46 ) ) ;
#106 = CIRCLE ( 'NONE', #204, 17.50000000000007461 ) ;
#107 = AXIS2_PLACEMENT_3D ( 'NONE', #259, #114, #217 ) ;
#108 = CARTESIAN_POINT ( 'NONE',  ( -671.8932644388660265, 136.9412251852097029, -1173.377129880458824 ) ) ;
#109 = CARTESIAN_POINT ( 'NONE',  ( -673.0774691489731367, 100.2613499993122872, -1159.796466584744621 ) ) ;
#110 = VECTOR ( 'NONE', #198, 999.9999999999998863 ) ;
#111 = ORIENTED_EDGE ( 'NONE', *, *, #4, .F. ) ;
#112 = DATE_AND_TIME ( #136, #190 ) ;
#113 = PERSON_AND_ORGANIZATION ( #69, #19 ) ;
#114 = DIRECTION ( 'NONE',  ( 0.4131219524575682200, -0.8238759286597383547, 0.3880189513061192974 ) ) ;
#115 = VERTEX_POINT ( 'NONE', #193 ) ;
#116 = DIRECTION ( 'NONE',  ( 0.8939127454926890648, 0.4482410104460801681, 0.000000000000000000 ) ) ;
#117 = ADVANCED_FACE ( 'NONE', ( #199 ), #29, .F. ) ;
#118 = SECURITY_CLASSIFICATION ( '', '', #138 ) ;
#119 = APPROVAL_STATUS ( 'not_yet_approved' ) ;
#120 = PERSON_AND_ORGANIZATION_ROLE ( 'design_owner' ) ;
#121 = PERSON_AND_ORGANIZATION ( #69, #19 ) ;
#122 = CC_DESIGN_DATE_AND_TIME_ASSIGNMENT ( #112, #159, ( #95 ) ) ;
#123 = APPROVAL ( #216, 'UNSPECIFIED' ) ;
#124 = CALENDAR_DATE ( 2021, 23, 7 ) ;
#125 = EDGE_CURVE ( 'NONE', #231, #21, #158, .T. ) ;
#126 = DIRECTION ( 'NONE',  ( 0.4131219524575682200, -0.8238759286597383547, 0.3880189513061192974 ) ) ;
#127 = CC_DESIGN_PERSON_AND_ORGANIZATION_ASSIGNMENT ( #28, #220, ( #118 ) ) ;
#128 = DIRECTION ( 'NONE',  ( 0.8939127454926890648, 0.4482410104460801681, 0.000000000000000000 ) ) ;
#129 = LINE ( 'NONE', #67, #110 ) ;
#130 = CARTESIAN_POINT ( 'NONE',  ( -656.2497913927437594, 144.7854428680160481, -1173.377129880459051 ) ) ;
#131 = DIRECTION ( 'NONE',  ( 0.4131219524575682200, -0.8238759286597383547, 0.3880189513061192974 ) ) ;
#132 = AXIS2_PLACEMENT_3D ( 'NONE', #236, #14, #116 ) ;
#133 = ORIENTED_EDGE ( 'NONE', *, *, #45, .F. ) ;
#134 = DIRECTION ( 'NONE',  ( 0.4131219524575683866, -0.8238759286597392428, 0.3880189513061170214 ) ) ;
#135 = CARTESIAN_POINT ( 'NONE',  ( -657.4339961028509833, 108.1055676821188598, -1159.796466584744394 ) ) ;
#136 = CALENDAR_DATE ( 2021, 23, 7 ) ;
#137 = DIRECTION ( 'NONE',  ( 1.000000000000000000, 0.000000000000000000, 0.000000000000000000 ) ) ;
#138 = SECURITY_CLASSIFICATION_LEVEL ( 'unclassified' ) ;
#139 = EDGE_LOOP ( 'NONE', ( #54, #175, #213, #11 ) ) ;
#140 = ORIENTED_EDGE ( 'NONE', *, *, #152, .F. ) ;
#141 = EDGE_CURVE ( 'NONE', #231, #200, #167, .T. ) ;
#142 = LOCAL_TIME ( 17, 10, 31.00000000000000000, #283 ) ;
#143 = CLOSED_SHELL ( 'NONE', ( #290, #117, #47, #88, #178, #42, #154, #90 ) ) ;
#144 = CARTESIAN_POINT ( 'NONE',  ( -641.7905230567289436, 115.9497853649251908, -1159.796466584744621 ) ) ;
#145 = CYLINDRICAL_SURFACE ( 'NONE', #249, 11.24999999999991651 ) ;
#146 = DIRECTION ( 'NONE',  ( 0.8939127454926885097, 0.4482410104460813338, 0.000000000000000000 ) ) ;
#147 = ORIENTED_EDGE ( 'NONE', *, *, #267, .F. ) ;
#148 = ORIENTED_EDGE ( 'NONE', *, *, #79, .T. ) ;
#149 = CARTESIAN_POINT ( 'NONE',  ( -671.8932644388659128, 136.9412251852095892, -1173.377129880459051 ) ) ;
#150 = FACE_OUTER_BOUND ( 'NONE', #38, .T. ) ;
#151 = ORIENTED_EDGE ( 'NONE', *, *, #255, .F. ) ;
#152 = EDGE_CURVE ( 'NONE', #115, #52, #50, .T. ) ;
#153 = DIRECTION ( 'NONE',  ( 0.000000000000000000, 0.000000000000000000, 1.000000000000000000 ) ) ;
#154 = ADVANCED_FACE ( 'NONE', ( #272 ), #145, .F. ) ;
#155 = CARTESIAN_POINT ( 'NONE',  ( -687.5367374849879525, 129.0970075024031587, -1173.377129880459051 ) ) ;
#156 = APPROVAL_DATE_TIME ( #40, #201 ) ;
#157 = DIRECTION ( 'NONE',  ( -0.3399704300872017915, -0.8995225141039968619, 0.2743708316974450834 ) ) ;
#158 = CIRCLE ( 'NONE', #60, 11.24999999999991651 ) ;
#159 = DATE_TIME_ROLE ( 'creation_date' ) ;
#160 = VECTOR ( 'NONE', #99, 1000.000000000000114 ) ;
#161 = ORIENTED_EDGE ( 'NONE', *, *, #4, .T. ) ;
#162 =( GEOMETRIC_REPRESENTATION_CONTEXT ( 3 ) GLOBAL_UNCERTAINTY_ASSIGNED_CONTEXT ( ( #245 ) ) GLOBAL_UNIT_ASSIGNED_CONTEXT ( ( #237, #202, #92 ) ) REPRESENTATION_CONTEXT ( 'NONE', 'WORKASPACE' ) );
#163 = CALENDAR_DATE ( 2021, 23, 7 ) ;
#164 = FACE_BOUND ( 'NONE', #297, .T. ) ;
#165 = CARTESIAN_POINT ( 'NONE',  ( -657.4339961028509833, 108.1055676821187603, -1159.796466584744621 ) ) ;
#166 = CIRCLE ( 'NONE', #71, 11.24999999999991651 ) ;
#167 = LINE ( 'NONE', #85, #15 ) ;
#168 = ORIENTED_EDGE ( 'NONE', *, *, #273, .F. ) ;
#169 = ORIENTED_EDGE ( 'NONE', *, *, #152, .T. ) ;
#170 = APPROVAL_PERSON_ORGANIZATION ( #293, #27, #182 ) ;
#171 = AXIS2_PLACEMENT_3D ( 'NONE', #263, #153, #137 ) ;
#172 = DIRECTION ( 'NONE',  ( 0.8939127454926881766, 0.4482410104460817779, 0.000000000000000000 ) ) ;
#173 = DIRECTION ( 'NONE',  ( 0.4131219524575682200, -0.8238759286597383547, 0.3880189513061192974 ) ) ;
#174 = ORIENTED_EDGE ( 'NONE', *, *, #141, .T. ) ;
#175 = ORIENTED_EDGE ( 'NONE', *, *, #79, .F. ) ;
#176 = CARTESIAN_POINT ( 'NONE',  ( -659.2930448889100035, 111.8130093610876230, -1161.542551865622045 ) ) ;
#177 = APPLICATION_PROTOCOL_DEFINITION ( 'international standard', 'config_control_design', 1994, #295 ) ;
#178 = ADVANCED_FACE ( 'NONE', ( #100, #43 ), #7, .F. ) ;
#179 = CC_DESIGN_PERSON_AND_ORGANIZATION_ASSIGNMENT ( #113, #265, ( #274 ) ) ;
#180 = DATE_TIME_ROLE ( 'classification_date' ) ;
#181 = ORIENTED_EDGE ( 'NONE', *, *, #253, .F. ) ;
#182 = APPROVAL_ROLE ( '' ) ;
#183 = DIRECTION ( 'NONE',  ( 0.8939127454926881766, 0.4482410104460817779, 0.000000000000000000 ) ) ;
#184 = EDGE_LOOP ( 'NONE', ( #148, #51 ) ) ;
#185 = CARTESIAN_POINT ( 'NONE',  ( -661.8367460520732948, 141.9839365527281529, -1173.377129880458824 ) ) ;
#186 = LOCAL_TIME ( 17, 10, 31.00000000000000000, #279 ) ;
#187 = VECTOR ( 'NONE', #194, 1000.000000000000000 ) ;
#188 = PERSON_AND_ORGANIZATION ( #69, #19 ) ;
#189 = VERTEX_POINT ( 'NONE', #130 ) ;
#190 = LOCAL_TIME ( 17, 10, 31.00000000000000000, #31 ) ;
#191 = CYLINDRICAL_SURFACE ( 'NONE', #285, 17.50000000000007461 ) ;
#192 = ORIENTED_EDGE ( 'NONE', *, *, #273, .T. ) ;
#193 = CARTESIAN_POINT ( 'NONE',  ( -643.3548703613412272, 115.1653635966446103, -1159.796466584744394 ) ) ;
#194 = DIRECTION ( 'NONE',  ( 0.4131219524575681645, -0.8238759286597383547, 0.3880189513061191864 ) ) ;
#195 = DIRECTION ( 'NONE',  ( 0.4131219524575682200, -0.8238759286597383547, 0.3880189513061192974 ) ) ;
#196 = CARTESIAN_POINT ( 'NONE',  ( -659.2930448889100035, 111.8130093610876230, -1161.542551865622045 ) ) ;
#197 = CARTESIAN_POINT ( 'NONE',  ( -659.2930448889100035, 111.8130093610876230, -1161.542551865622045 ) ) ;
#198 = DIRECTION ( 'NONE',  ( 0.9242130981667414646, -0.2656139979193218315, 0.2743708316974450834 ) ) ;
#199 = FACE_OUTER_BOUND ( 'NONE', #75, .T. ) ;
#200 = VERTEX_POINT ( 'NONE', #65 ) ;
#201 = APPROVAL ( #119, 'UNSPECIFIED' ) ;
#202 =( NAMED_UNIT ( * ) PLANE_ANGLE_UNIT ( ) SI_UNIT ( $, .RADIAN. ) );
#203 = EDGE_LOOP ( 'NONE', ( #226, #269, #161, #72 ) ) ;
#204 = AXIS2_PLACEMENT_3D ( 'NONE', #233, #173, #128 ) ;
#205 = CARTESIAN_POINT ( 'NONE',  ( -657.4339961028509833, 108.1055676821187603, -1159.796466584744621 ) ) ;
#206 = FACE_OUTER_BOUND ( 'NONE', #203, .T. ) ;
#207 = EDGE_CURVE ( 'NONE', #242, #16, #91, .T. ) ;
#208 = CIRCLE ( 'NONE', #20, 17.50000000000007461 ) ;
#209 = CARTESIAN_POINT ( 'NONE',  ( -657.4339961028509833, 108.1055676821188314, -1159.796466584744394 ) ) ;
#210 = CC_DESIGN_PERSON_AND_ORGANIZATION_ASSIGNMENT ( #254, #219, ( #95 ) ) ;
#211 = DIRECTION ( 'NONE',  ( -0.4131219524575682200, 0.8238759286597383547, -0.3880189513061192974 ) ) ;
#212 = DIRECTION ( 'NONE',  ( 0.8939127454926881766, 0.4482410104460817779, 0.000000000000000000 ) ) ;
#213 = ORIENTED_EDGE ( 'NONE', *, *, #221, .T. ) ;
#214 = CARTESIAN_POINT ( 'NONE',  ( -659.2930448889100035, 111.8130093610876230, -1161.542551865622045 ) ) ;
#215 = APPROVAL_DATE_TIME ( #68, #123 ) ;
#216 = APPROVAL_STATUS ( 'not_yet_approved' ) ;
#217 = DIRECTION ( 'NONE',  ( 0.8939127454926890648, 0.4482410104460801681, 0.000000000000000000 ) ) ;
#218 = DIRECTION ( 'NONE',  ( 0.4131219524575681645, -0.8238759286597383547, 0.3880189513061192419 ) ) ;
#219 = PERSON_AND_ORGANIZATION_ROLE ( 'creator' ) ;
#220 = PERSON_AND_ORGANIZATION_ROLE ( 'classification_officer' ) ;
#221 = EDGE_CURVE ( 'NONE', #21, #30, #239, .T. ) ;
#222 = ORIENTED_EDGE ( 'NONE', *, *, #2, .F. ) ;
#223 = CC_DESIGN_APPROVAL ( #201, ( #95 ) ) ;
#224 = EDGE_LOOP ( 'NONE', ( #98, #3 ) ) ;
#225 = AXIS2_PLACEMENT_3D ( 'NONE', #260, #37, #35 ) ;
#226 = ORIENTED_EDGE ( 'NONE', *, *, #291, .F. ) ;
#227 = PERSON_AND_ORGANIZATION ( #69, #19 ) ;
#228 = DIRECTION ( 'NONE',  ( 0.4131219524575681645, -0.8238759286597383547, 0.3880189513061191864 ) ) ;
#229 = DIRECTION ( 'NONE',  ( 0.8939127454926885097, 0.4482410104460811673, 0.000000000000000000 ) ) ;
#230 = AXIS2_PLACEMENT_3D ( 'NONE', #176, #289, #59 ) ;
#231 = VERTEX_POINT ( 'NONE', #41 ) ;
#232 = DIRECTION ( 'NONE',  ( 0.8939127454926881766, 0.4482410104460817779, 0.000000000000000000 ) ) ;
#233 = CARTESIAN_POINT ( 'NONE',  ( -671.8932644388659128, 136.9412251852095892, -1173.377129880459051 ) ) ;
#234 = APPROVAL_ROLE ( '' ) ;
#235 = ORIENTED_EDGE ( 'NONE', *, *, #255, .T. ) ;
#236 = CARTESIAN_POINT ( 'NONE',  ( -671.8932644388659128, 136.9412251852095892, -1173.377129880459051 ) ) ;
#237 =( LENGTH_UNIT ( ) NAMED_UNIT ( * ) SI_UNIT ( .MILLI., .METRE. ) );
#238 = DATE_AND_TIME ( #34, #142 ) ;
#239 = LINE ( 'NONE', #287, #187 ) ;
#240 = EDGE_LOOP ( 'NONE', ( #147, #133, #235, #181 ) ) ;
#241 = DIRECTION ( 'NONE',  ( -0.4131219524575682200, 0.8238759286597383547, -0.3880189513061192974 ) ) ;
#242 = VERTEX_POINT ( 'NONE', #109 ) ;
#243 = AXIS2_PLACEMENT_3D ( 'NONE', #61, #211, #229 ) ;
#244 = CC_DESIGN_SECURITY_CLASSIFICATION ( #118, ( #274 ) ) ;
#245 = UNCERTAINTY_MEASURE_WITH_UNIT (LENGTH_MEASURE( 1.000000000000000082E-05 ), #237, 'distance_accuracy_value', 'NONE');
#246 = ORIENTED_EDGE ( 'NONE', *, *, #125, .F. ) ;
#247 = CC_DESIGN_PERSON_AND_ORGANIZATION_ASSIGNMENT ( #227, #12, ( #274 ) ) ;
#248 = CARTESIAN_POINT ( 'NONE',  ( -649.2365265021173855, 116.8557207286059878, -1161.542551865622045 ) ) ;
#249 = AXIS2_PLACEMENT_3D ( 'NONE', #209, #228, #232 ) ;
#250 = MANIFOLD_SOLID_BREP ( 'Chanfrein1', #143 ) ;
#251 = AXIS2_PLACEMENT_3D ( 'NONE', #135, #241, #44 ) ;
#252 = EDGE_LOOP ( 'NONE', ( #277, #261, #222, #111 ) ) ;
#253 = EDGE_CURVE ( 'NONE', #52, #115, #33, .T. ) ;
#254 = PERSON_AND_ORGANIZATION ( #69, #19 ) ;
#255 = EDGE_CURVE ( 'NONE', #30, #115, #129, .T. ) ;
#256 = CYLINDRICAL_SURFACE ( 'NONE', #93, 17.50000000000007461 ) ;
#257 = DIRECTION ( 'NONE',  ( 0.8939127454926890648, 0.4482410104460801681, 0.000000000000000000 ) ) ;
#258 = CARTESIAN_POINT ( 'NONE',  ( -671.8932644388659128, 136.9412251852095892, -1173.377129880459051 ) ) ;
#259 = CARTESIAN_POINT ( 'NONE',  ( -657.4339961028509833, 108.1055676821187603, -1159.796466584744621 ) ) ;
#260 = CARTESIAN_POINT ( 'NONE',  ( -657.4339961028509833, 108.1055676821188314, -1159.796466584744394 ) ) ;
#261 = ORIENTED_EDGE ( 'NONE', *, *, #291, .T. ) ;
#262 = DIRECTION ( 'NONE',  ( 0.8939127454926881766, 0.4482410104460817779, 0.000000000000000000 ) ) ;
#263 = CARTESIAN_POINT ( 'NONE',  ( 0.000000000000000000, 0.000000000000000000, 0.000000000000000000 ) ) ;
#264 = FACE_OUTER_BOUND ( 'NONE', #104, .T. ) ;
#265 = PERSON_AND_ORGANIZATION_ROLE ( 'design_supplier' ) ;
#266 = APPROVAL_PERSON_ORGANIZATION ( #188, #123, #89 ) ;
#267 = EDGE_CURVE ( 'NONE', #200, #52, #24, .T. ) ;
#268 = VECTOR ( 'NONE', #218, 1000.000000000000114 ) ;
#269 = ORIENTED_EDGE ( 'NONE', *, *, #76, .T. ) ;
#270 = ORIENTED_EDGE ( 'NONE', *, *, #207, .T. ) ;
#271 = APPROVAL_PERSON_ORGANIZATION ( #121, #201, #234 ) ;
#272 = FACE_OUTER_BOUND ( 'NONE', #139, .T. ) ;
#273 = EDGE_CURVE ( 'NONE', #200, #30, #166, .T. ) ;
#274 = PRODUCT_DEFINITION_FORMATION_WITH_SPECIFIED_SOURCE ( 'ANY', '', #46, .NOT_KNOWN. ) ;
#275 = CONICAL_SURFACE ( 'NONE', #87, 11.24999999999991651, 0.7853981633974594923 ) ;
#276 = APPROVAL_DATE_TIME ( #299, #27 ) ;
#277 = ORIENTED_EDGE ( 'NONE', *, *, #296, .T. ) ;
#278 = CARTESIAN_POINT ( 'NONE',  ( -687.5367374849879525, 129.0970075024031303, -1173.377129880459051 ) ) ;
#279 = COORDINATED_UNIVERSAL_TIME_OFFSET ( 1, 0, .AHEAD. ) ;
#280 = LOCAL_TIME ( 17, 10, 31.00000000000000000, #57 ) ;
#281 = LOCAL_TIME ( 17, 10, 31.00000000000000000, #53 ) ;
#282 = DIRECTION ( 'NONE',  ( 0.4131219524575682200, -0.8238759286597383547, 0.3880189513061192974 ) ) ;
#283 = COORDINATED_UNIVERSAL_TIME_OFFSET ( 1, 0, .AHEAD. ) ;
#284 = DIRECTION ( 'NONE',  ( 0.4131219524575681645, -0.8238759286597383547, 0.3880189513061191864 ) ) ;
#285 = AXIS2_PLACEMENT_3D ( 'NONE', #149, #195, #5 ) ;
#286 = LINE ( 'NONE', #77, #160 ) ;
#287 = CARTESIAN_POINT ( 'NONE',  ( -647.3774777160583653, 113.1482790496372104, -1159.796466584744394 ) ) ;
#288 = CC_DESIGN_APPROVAL ( #27, ( #274 ) ) ;
#289 = DIRECTION ( 'NONE',  ( 0.4131219524575683866, -0.8238759286597392428, 0.3880189513061170214 ) ) ;
#290 = ADVANCED_FACE ( 'NONE', ( #150 ), #275, .F. ) ;
#291 = EDGE_CURVE ( 'NONE', #81, #242, #36, .T. ) ;
#292 = APPROVAL_STATUS ( 'not_yet_approved' ) ;
#293 = PERSON_AND_ORGANIZATION ( #69, #19 ) ;
#294 = DIRECTION ( 'NONE',  ( 0.8939127454926881766, 0.4482410104460817779, 0.000000000000000000 ) ) ;
#295 = APPLICATION_CONTEXT ( 'configuration controlled 3d designs of mechanical parts and assemblies' ) ;
#296 = EDGE_CURVE ( 'NONE', #189, #81, #102, .T. ) ;
#297 = EDGE_LOOP ( 'NONE', ( #169, #82 ) ) ;
#298 = SHAPE_DEFINITION_REPRESENTATION ( #73, #17 ) ;
#299 = DATE_AND_TIME ( #55, #281 ) ;
ENDSEC;
END-ISO-10303-21;
