ISO-10303-21;
HEADER;
/* Generated by software containing ST-Developer
 * from STEP Tools, Inc. (www.steptools.com) 
 */
/* OPTION: using custom renumber hook */

FILE_DESCRIPTION(
/* description */ ('STEP AP214'),
/* implementation_level */ '2;1');

FILE_NAME(
/* name */ '60f5b5674d922a0788bad483',
/* time_stamp */ '2021-07-19T17:24:56+00:00',
/* author */ (''),
/* organization */ (''),
/* preprocessor_version */ 'ST-DEVELOPER v18.1',
/* originating_system */ '  ',
/* authorisation */ '  ');

FILE_SCHEMA (('AUTOMOTIVE_DESIGN {1 0 10303 214 3 1 1}'));
ENDSEC;

DATA;
#10=PROPERTY_DEFINITION_REPRESENTATION(#14,#12);
#11=PROPERTY_DEFINITION_REPRESENTATION(#15,#13);
#12=REPRESENTATION('',(#16),#219);
#13=REPRESENTATION('',(#17),#219);
#14=PROPERTY_DEFINITION('pmi validation property','',#224);
#15=PROPERTY_DEFINITION('pmi validation property','',#224);
#16=VALUE_REPRESENTATION_ITEM('number of annotations',COUNT_MEASURE(0.));
#17=VALUE_REPRESENTATION_ITEM('number of views',COUNT_MEASURE(0.));
#18=SHAPE_REPRESENTATION_RELATIONSHIP('','',#143,#19);
#19=ADVANCED_BREP_SHAPE_REPRESENTATION('',(#141),#219);
#20=CIRCLE('',#150,0.0125);
#21=CIRCLE('',#151,0.0125);
#22=CYLINDRICAL_SURFACE('',#149,0.0125);
#23=ORIENTED_EDGE('',*,*,#51,.T.);
#24=ORIENTED_EDGE('',*,*,#52,.F.);
#25=ORIENTED_EDGE('',*,*,#53,.F.);
#26=ORIENTED_EDGE('',*,*,#54,.T.);
#27=ORIENTED_EDGE('',*,*,#55,.F.);
#28=ORIENTED_EDGE('',*,*,#54,.F.);
#29=ORIENTED_EDGE('',*,*,#56,.T.);
#30=ORIENTED_EDGE('',*,*,#57,.T.);
#31=ORIENTED_EDGE('',*,*,#58,.F.);
#32=ORIENTED_EDGE('',*,*,#57,.F.);
#33=ORIENTED_EDGE('',*,*,#59,.T.);
#34=ORIENTED_EDGE('',*,*,#60,.T.);
#35=ORIENTED_EDGE('',*,*,#61,.T.);
#36=ORIENTED_EDGE('',*,*,#60,.F.);
#37=ORIENTED_EDGE('',*,*,#62,.F.);
#38=ORIENTED_EDGE('',*,*,#52,.T.);
#39=ORIENTED_EDGE('',*,*,#63,.T.);
#40=ORIENTED_EDGE('',*,*,#64,.F.);
#41=ORIENTED_EDGE('',*,*,#53,.T.);
#42=ORIENTED_EDGE('',*,*,#62,.T.);
#43=ORIENTED_EDGE('',*,*,#59,.F.);
#44=ORIENTED_EDGE('',*,*,#56,.F.);
#45=ORIENTED_EDGE('',*,*,#63,.F.);
#46=ORIENTED_EDGE('',*,*,#51,.F.);
#47=ORIENTED_EDGE('',*,*,#55,.T.);
#48=ORIENTED_EDGE('',*,*,#58,.T.);
#49=ORIENTED_EDGE('',*,*,#61,.F.);
#50=ORIENTED_EDGE('',*,*,#64,.T.);
#51=EDGE_CURVE('',#65,#66,#75,.T.);
#52=EDGE_CURVE('',#67,#66,#76,.T.);
#53=EDGE_CURVE('',#68,#67,#77,.T.);
#54=EDGE_CURVE('',#68,#65,#78,.T.);
#55=EDGE_CURVE('',#65,#69,#79,.T.);
#56=EDGE_CURVE('',#68,#70,#80,.T.);
#57=EDGE_CURVE('',#70,#69,#81,.T.);
#58=EDGE_CURVE('',#69,#71,#82,.T.);
#59=EDGE_CURVE('',#70,#72,#83,.T.);
#60=EDGE_CURVE('',#72,#71,#84,.T.);
#61=EDGE_CURVE('',#66,#71,#85,.T.);
#62=EDGE_CURVE('',#67,#72,#86,.T.);
#63=EDGE_CURVE('',#73,#73,#20,.T.);
#64=EDGE_CURVE('',#74,#74,#21,.T.);
#65=VERTEX_POINT('',#189);
#66=VERTEX_POINT('',#190);
#67=VERTEX_POINT('',#192);
#68=VERTEX_POINT('',#194);
#69=VERTEX_POINT('',#198);
#70=VERTEX_POINT('',#200);
#71=VERTEX_POINT('',#204);
#72=VERTEX_POINT('',#206);
#73=VERTEX_POINT('',#213);
#74=VERTEX_POINT('',#215);
#75=LINE('',#188,#87);
#76=LINE('',#191,#88);
#77=LINE('',#193,#89);
#78=LINE('',#195,#90);
#79=LINE('',#197,#91);
#80=LINE('',#199,#92);
#81=LINE('',#201,#93);
#82=LINE('',#203,#94);
#83=LINE('',#205,#95);
#84=LINE('',#207,#96);
#85=LINE('',#209,#97);
#86=LINE('',#210,#98);
#87=VECTOR('',#158,1.);
#88=VECTOR('',#159,1.);
#89=VECTOR('',#160,1.);
#90=VECTOR('',#161,1.);
#91=VECTOR('',#164,1.);
#92=VECTOR('',#165,1.);
#93=VECTOR('',#166,1.);
#94=VECTOR('',#169,1.);
#95=VECTOR('',#170,1.);
#96=VECTOR('',#171,1.);
#97=VECTOR('',#174,1.);
#98=VECTOR('',#175,1.);
#99=EDGE_LOOP('',(#23,#24,#25,#26));
#100=EDGE_LOOP('',(#27,#28,#29,#30));
#101=EDGE_LOOP('',(#31,#32,#33,#34));
#102=EDGE_LOOP('',(#35,#36,#37,#38));
#103=EDGE_LOOP('',(#39));
#104=EDGE_LOOP('',(#40));
#105=EDGE_LOOP('',(#41,#42,#43,#44));
#106=EDGE_LOOP('',(#45));
#107=EDGE_LOOP('',(#46,#47,#48,#49));
#108=EDGE_LOOP('',(#50));
#109=FACE_BOUND('',#99,.T.);
#110=FACE_BOUND('',#100,.T.);
#111=FACE_BOUND('',#101,.T.);
#112=FACE_BOUND('',#102,.T.);
#113=FACE_BOUND('',#103,.T.);
#114=FACE_BOUND('',#104,.T.);
#115=FACE_BOUND('',#105,.T.);
#116=FACE_BOUND('',#106,.T.);
#117=FACE_BOUND('',#107,.T.);
#118=FACE_BOUND('',#108,.T.);
#119=PLANE('',#145);
#120=PLANE('',#146);
#121=PLANE('',#147);
#122=PLANE('',#148);
#123=PLANE('',#152);
#124=PLANE('',#153);
#125=ADVANCED_FACE('',(#109),#119,.F.);
#126=ADVANCED_FACE('',(#110),#120,.T.);
#127=ADVANCED_FACE('',(#111),#121,.T.);
#128=ADVANCED_FACE('',(#112),#122,.F.);
#129=ADVANCED_FACE('',(#113,#114),#22,.T.);
#130=ADVANCED_FACE('',(#115,#116),#123,.F.);
#131=ADVANCED_FACE('',(#117,#118),#124,.T.);
#132=CLOSED_SHELL('',(#125,#126,#127,#128,#129,#130,#131));
#133=STYLED_ITEM('',(#134),#141);
#134=PRESENTATION_STYLE_ASSIGNMENT((#135));
#135=SURFACE_STYLE_USAGE(.BOTH.,#136);
#136=SURFACE_SIDE_STYLE('',(#137));
#137=SURFACE_STYLE_FILL_AREA(#138);
#138=FILL_AREA_STYLE('',(#139));
#139=FILL_AREA_STYLE_COLOUR('',#140);
#140=COLOUR_RGB('',0.615686274509804,0.811764705882353,0.929411764705882);
#141=MANIFOLD_SOLID_BREP('cylindre',#132);
#142=SHAPE_DEFINITION_REPRESENTATION(#224,#143);
#143=SHAPE_REPRESENTATION('cylindre',(#144),#219);
#144=AXIS2_PLACEMENT_3D('',#186,#154,#155);
#145=AXIS2_PLACEMENT_3D('',#187,#156,#157);
#146=AXIS2_PLACEMENT_3D('',#196,#162,#163);
#147=AXIS2_PLACEMENT_3D('',#202,#167,#168);
#148=AXIS2_PLACEMENT_3D('',#208,#172,#173);
#149=AXIS2_PLACEMENT_3D('',#211,#176,#177);
#150=AXIS2_PLACEMENT_3D('',#212,#178,#179);
#151=AXIS2_PLACEMENT_3D('',#214,#180,#181);
#152=AXIS2_PLACEMENT_3D('',#216,#182,#183);
#153=AXIS2_PLACEMENT_3D('',#217,#184,#185);
#154=DIRECTION('',(0.,0.,1.));
#155=DIRECTION('',(1.,0.,0.));
#156=DIRECTION('',(-1.,0.,-8.26058798084194E-17));
#157=DIRECTION('',(-8.26058798084194E-17,0.,1.));
#158=DIRECTION('',(8.26058798084194E-17,0.,-1.));
#159=DIRECTION('',(0.,-1.,0.));
#160=DIRECTION('',(8.26058798084194E-17,0.,-1.));
#161=DIRECTION('',(0.,-1.,0.));
#162=DIRECTION('',(0.,0.,-1.));
#163=DIRECTION('',(-1.,0.,0.));
#164=DIRECTION('',(1.,0.,0.));
#165=DIRECTION('',(1.,0.,0.));
#166=DIRECTION('',(0.,-1.,0.));
#167=DIRECTION('',(-1.,0.,0.));
#168=DIRECTION('',(0.,0.,1.));
#169=DIRECTION('',(0.,0.,-1.));
#170=DIRECTION('',(0.,0.,-1.));
#171=DIRECTION('',(0.,-1.,0.));
#172=DIRECTION('',(0.,0.,-1.));
#173=DIRECTION('',(-1.,0.,0.));
#174=DIRECTION('',(1.,0.,0.));
#175=DIRECTION('',(1.,0.,0.));
#176=DIRECTION('',(0.,-1.,0.));
#177=DIRECTION('',(0.,0.,-1.));
#178=DIRECTION('',(0.,-1.,0.));
#179=DIRECTION('',(0.,0.,-1.));
#180=DIRECTION('',(0.,-1.,0.));
#181=DIRECTION('',(0.,0.,-1.));
#182=DIRECTION('',(0.,-1.,0.));
#183=DIRECTION('',(1.,0.,0.));
#184=DIRECTION('',(0.,-1.,0.));
#185=DIRECTION('',(1.,0.,0.));
#186=CARTESIAN_POINT('',(0.,0.,0.));
#187=CARTESIAN_POINT('',(-0.00525,0.0106,0.));
#188=CARTESIAN_POINT('',(-0.00525,0.,0.));
#189=CARTESIAN_POINT('',(-0.00525,0.,0.00525));
#190=CARTESIAN_POINT('',(-0.00525,0.,-0.00525));
#191=CARTESIAN_POINT('',(-0.00525,0.0106,-0.00525));
#192=CARTESIAN_POINT('',(-0.00525,0.0106,-0.00525));
#193=CARTESIAN_POINT('',(-0.00525,0.0106,0.));
#194=CARTESIAN_POINT('',(-0.00525,0.0106,0.00525));
#195=CARTESIAN_POINT('',(-0.00525,0.0106,0.00525));
#196=CARTESIAN_POINT('',(-8.67361737988404E-19,0.0106,0.00525));
#197=CARTESIAN_POINT('',(-8.67361737988404E-19,0.,0.00525));
#198=CARTESIAN_POINT('',(0.00525,0.,0.00525));
#199=CARTESIAN_POINT('',(-8.67361737988404E-19,0.0106,0.00525));
#200=CARTESIAN_POINT('',(0.00525,0.0106,0.00525));
#201=CARTESIAN_POINT('',(0.00525,0.0106,0.00525));
#202=CARTESIAN_POINT('',(0.00525,0.0106,0.));
#203=CARTESIAN_POINT('',(0.00525,0.,0.));
#204=CARTESIAN_POINT('',(0.00525,0.,-0.00525));
#205=CARTESIAN_POINT('',(0.00525,0.0106,0.));
#206=CARTESIAN_POINT('',(0.00525,0.0106,-0.00525));
#207=CARTESIAN_POINT('',(0.00525,0.0106,-0.00525));
#208=CARTESIAN_POINT('',(-8.67361737988404E-19,0.0106,-0.00525));
#209=CARTESIAN_POINT('',(-8.67361737988404E-19,0.,-0.00525));
#210=CARTESIAN_POINT('',(-8.67361737988404E-19,0.0106,-0.00525));
#211=CARTESIAN_POINT('',(0.,0.0106,7.65404249467096E-19));
#212=CARTESIAN_POINT('',(0.,0.0106,7.65404249467096E-19));
#213=CARTESIAN_POINT('',(0.,0.0106,-0.0125));
#214=CARTESIAN_POINT('',(0.,0.,7.65404249467096E-19));
#215=CARTESIAN_POINT('',(0.,0.,-0.0125));
#216=CARTESIAN_POINT('',(0.,0.0106,0.));
#217=CARTESIAN_POINT('',(0.,0.,0.));
#218=MECHANICAL_DESIGN_GEOMETRIC_PRESENTATION_REPRESENTATION('',(#133),
#219);
#219=(
GEOMETRIC_REPRESENTATION_CONTEXT(3)
GLOBAL_UNCERTAINTY_ASSIGNED_CONTEXT((#220))
GLOBAL_UNIT_ASSIGNED_CONTEXT((#223,#222,#221))
REPRESENTATION_CONTEXT('cylindre','TOP_LEVEL_ASSEMBLY_PART')
);
#220=UNCERTAINTY_MEASURE_WITH_UNIT(LENGTH_MEASURE(5.E-6),#223,
'DISTANCE_ACCURACY_VALUE','Maximum Tolerance applied to model');
#221=(
NAMED_UNIT(*)
SI_UNIT($,.STERADIAN.)
SOLID_ANGLE_UNIT()
);
#222=(
NAMED_UNIT(*)
PLANE_ANGLE_UNIT()
SI_UNIT($,.RADIAN.)
);
#223=(
LENGTH_UNIT()
NAMED_UNIT(*)
SI_UNIT($,.METRE.)
);
#224=PRODUCT_DEFINITION_SHAPE('','',#225);
#225=PRODUCT_DEFINITION('','',#227,#226);
#226=PRODUCT_DEFINITION_CONTEXT('',#233,'design');
#227=PRODUCT_DEFINITION_FORMATION_WITH_SPECIFIED_SOURCE('','',#229,
 .NOT_KNOWN.);
#228=PRODUCT_RELATED_PRODUCT_CATEGORY('','',(#229));
#229=PRODUCT('cylindre','cylindre','cylindre',(#231));
#230=PRODUCT_CATEGORY('','');
#231=PRODUCT_CONTEXT('',#233,'mechanical');
#232=APPLICATION_PROTOCOL_DEFINITION('international standard',
'automotive_design',2010,#233);
#233=APPLICATION_CONTEXT(
'core data for automotive mechanical design processes');
ENDSEC;
END-ISO-10303-21;
