ISO-10303-21;
HEADER;
/* Generated by software containing ST-Developer
 * from STEP Tools, Inc. (www.steptools.com) 
 */
/* OPTION: strings as raw bytes, not using required /X/ escapes */

FILE_DESCRIPTION(
/* description */ ('Unknown'),
/* implementation_level */ '2;1');

FILE_NAME(
/* name */ 'PiÃ¨ce usinÃ©e',
/* time_stamp */ '2020-10-21T12:08:41+02:00',
/* author */ ('Unknown'),
/* organization */ ('Unknown'),
/* preprocessor_version */ 'ST-DEVELOPER v16.7',
/* originating_system */ 'Solid Edge',
/* authorisation */ 'Unknown');

FILE_SCHEMA (('AUTOMOTIVE_DESIGN {1 0 10303 214 3 1 1}'));
ENDSEC;

DATA;
#10=PROPERTY_DEFINITION_REPRESENTATION(#14,#12);
#11=PROPERTY_DEFINITION_REPRESENTATION(#15,#13);
#12=REPRESENTATION('',(#16),#509);
#13=REPRESENTATION('',(#17),#509);
#14=PROPERTY_DEFINITION('pmi validation property','',#514);
#15=PROPERTY_DEFINITION('pmi validation property','',#514);
#16=VALUE_REPRESENTATION_ITEM('number of annotations',COUNT_MEASURE(0.));
#17=VALUE_REPRESENTATION_ITEM('number of views',COUNT_MEASURE(0.));
#18=SHAPE_REPRESENTATION_RELATIONSHIP('','',#307,#19);
#19=ADVANCED_BREP_SHAPE_REPRESENTATION('',(#305),#509);
#20=B_SPLINE_CURVE_WITH_KNOTS('',3,(#442,#443,#444,#445,#446,#447,#448,
#449,#450,#451,#452),.UNSPECIFIED.,.T.,.F.,(1,1,1,1,1,1,1,1,1,1,1,1,1,1,
1),(-0.0070400246368628,-0.00469334975790853,-0.00234667487895427,0.,0.00234667487895427,
0.00469334975790853,0.0070400246368628,0.00938669951581707,0.0117333743947713,
0.0140800492737256,0.0164267241526799,0.0187733990316341,0.0211200739105884,
0.0234667487895427,0.0258134236684969),.UNSPECIFIED.);
#21=B_SPLINE_CURVE_WITH_KNOTS('',3,(#473,#474,#475,#476,#477,#478,#479,
#480,#481,#482,#483),.UNSPECIFIED.,.T.,.F.,(1,1,1,1,1,1,1,1,1,1,1,1,1,1,
1),(-0.00704359589545561,-0.00469573059697041,-0.0023478652984852,0.,0.0023478652984852,
0.0046957305969704,0.00704359589545561,0.00939146119394081,0.011739326492426,
0.0140871917909112,0.0164350570893964,0.0187829223878816,0.0211307876863668,
0.023478652984852,0.0258265182833372),.UNSPECIFIED.);
#22=CYLINDRICAL_SURFACE('',#314,25.);
#23=CYLINDRICAL_SURFACE('',#321,20.);
#24=CYLINDRICAL_SURFACE('',#327,10.);
#25=CYLINDRICAL_SURFACE('',#329,10.);
#26=CYLINDRICAL_SURFACE('',#331,3.);
#27=LINE('',#413,#55);
#28=LINE('',#415,#56);
#29=LINE('',#417,#57);
#30=LINE('',#421,#58);
#31=LINE('',#423,#59);
#32=LINE('',#425,#60);
#33=LINE('',#427,#61);
#34=LINE('',#430,#62);
#35=LINE('',#431,#63);
#36=LINE('',#433,#64);
#37=LINE('',#435,#65);
#38=LINE('',#436,#66);
#39=LINE('',#438,#67);
#40=LINE('',#440,#68);
#41=LINE('',#454,#69);
#42=LINE('',#458,#70);
#43=LINE('',#463,#71);
#44=LINE('',#467,#72);
#45=LINE('',#469,#73);
#46=LINE('',#471,#74);
#47=LINE('',#487,#75);
#48=LINE('',#489,#76);
#49=LINE('',#491,#77);
#50=LINE('',#496,#78);
#51=LINE('',#500,#79);
#52=LINE('',#501,#80);
#53=LINE('',#503,#81);
#54=LINE('',#505,#82);
#55=VECTOR('',#338,1000.);
#56=VECTOR('',#339,1000.);
#57=VECTOR('',#340,1000.);
#58=VECTOR('',#343,1000.);
#59=VECTOR('',#344,1000.);
#60=VECTOR('',#345,1000.);
#61=VECTOR('',#348,1000.);
#62=VECTOR('',#349,1000.);
#63=VECTOR('',#350,1000.);
#64=VECTOR('',#351,1000.);
#65=VECTOR('',#352,1000.);
#66=VECTOR('',#353,1000.);
#67=VECTOR('',#356,1000.);
#68=VECTOR('',#357,1000.);
#69=VECTOR('',#360,1000.);
#70=VECTOR('',#365,1000.);
#71=VECTOR('',#370,1000.);
#72=VECTOR('',#373,1000.);
#73=VECTOR('',#376,1000.);
#74=VECTOR('',#377,1000.);
#75=VECTOR('',#382,1000.);
#76=VECTOR('',#385,1000.);
#77=VECTOR('',#388,1000.);
#78=VECTOR('',#391,1000.);
#79=VECTOR('',#396,1000.);
#80=VECTOR('',#397,1000.);
#81=VECTOR('',#400,1000.);
#82=VECTOR('',#403,1000.);
#83=ORIENTED_EDGE('',*,*,#159,.T.);
#84=ORIENTED_EDGE('',*,*,#160,.T.);
#85=ORIENTED_EDGE('',*,*,#161,.F.);
#86=ORIENTED_EDGE('',*,*,#162,.F.);
#87=ORIENTED_EDGE('',*,*,#163,.F.);
#88=ORIENTED_EDGE('',*,*,#164,.F.);
#89=ORIENTED_EDGE('',*,*,#165,.F.);
#90=ORIENTED_EDGE('',*,*,#166,.T.);
#91=ORIENTED_EDGE('',*,*,#167,.T.);
#92=ORIENTED_EDGE('',*,*,#168,.T.);
#93=ORIENTED_EDGE('',*,*,#165,.T.);
#94=ORIENTED_EDGE('',*,*,#169,.F.);
#95=ORIENTED_EDGE('',*,*,#170,.F.);
#96=ORIENTED_EDGE('',*,*,#171,.T.);
#97=ORIENTED_EDGE('',*,*,#161,.T.);
#98=ORIENTED_EDGE('',*,*,#172,.F.);
#99=ORIENTED_EDGE('',*,*,#164,.T.);
#100=ORIENTED_EDGE('',*,*,#173,.F.);
#101=ORIENTED_EDGE('',*,*,#174,.F.);
#102=ORIENTED_EDGE('',*,*,#169,.T.);
#103=ORIENTED_EDGE('',*,*,#175,.T.);
#104=ORIENTED_EDGE('',*,*,#163,.T.);
#105=ORIENTED_EDGE('',*,*,#176,.F.);
#106=ORIENTED_EDGE('',*,*,#177,.F.);
#107=ORIENTED_EDGE('',*,*,#173,.T.);
#108=ORIENTED_EDGE('',*,*,#162,.T.);
#109=ORIENTED_EDGE('',*,*,#171,.F.);
#110=ORIENTED_EDGE('',*,*,#178,.F.);
#111=ORIENTED_EDGE('',*,*,#176,.T.);
#112=ORIENTED_EDGE('',*,*,#179,.F.);
#113=ORIENTED_EDGE('',*,*,#180,.F.);
#114=ORIENTED_EDGE('',*,*,#181,.F.);
#115=ORIENTED_EDGE('',*,*,#182,.F.);
#116=ORIENTED_EDGE('',*,*,#170,.T.);
#117=ORIENTED_EDGE('',*,*,#174,.T.);
#118=ORIENTED_EDGE('',*,*,#177,.T.);
#119=ORIENTED_EDGE('',*,*,#178,.T.);
#120=ORIENTED_EDGE('',*,*,#166,.F.);
#121=ORIENTED_EDGE('',*,*,#168,.F.);
#122=ORIENTED_EDGE('',*,*,#183,.T.);
#123=ORIENTED_EDGE('',*,*,#184,.T.);
#124=ORIENTED_EDGE('',*,*,#185,.F.);
#125=ORIENTED_EDGE('',*,*,#159,.F.);
#126=ORIENTED_EDGE('',*,*,#184,.F.);
#127=ORIENTED_EDGE('',*,*,#186,.T.);
#128=ORIENTED_EDGE('',*,*,#187,.T.);
#129=ORIENTED_EDGE('',*,*,#160,.F.);
#130=ORIENTED_EDGE('',*,*,#187,.F.);
#131=ORIENTED_EDGE('',*,*,#188,.T.);
#132=ORIENTED_EDGE('',*,*,#172,.T.);
#133=ORIENTED_EDGE('',*,*,#189,.T.);
#134=ORIENTED_EDGE('',*,*,#190,.T.);
#135=ORIENTED_EDGE('',*,*,#191,.T.);
#136=ORIENTED_EDGE('',*,*,#192,.T.);
#137=ORIENTED_EDGE('',*,*,#167,.F.);
#138=ORIENTED_EDGE('',*,*,#188,.F.);
#139=ORIENTED_EDGE('',*,*,#186,.F.);
#140=ORIENTED_EDGE('',*,*,#183,.F.);
#141=ORIENTED_EDGE('',*,*,#179,.T.);
#142=ORIENTED_EDGE('',*,*,#193,.T.);
#143=ORIENTED_EDGE('',*,*,#190,.F.);
#144=ORIENTED_EDGE('',*,*,#194,.F.);
#145=ORIENTED_EDGE('',*,*,#180,.T.);
#146=ORIENTED_EDGE('',*,*,#194,.T.);
#147=ORIENTED_EDGE('',*,*,#189,.F.);
#148=ORIENTED_EDGE('',*,*,#195,.F.);
#149=ORIENTED_EDGE('',*,*,#181,.T.);
#150=ORIENTED_EDGE('',*,*,#195,.T.);
#151=ORIENTED_EDGE('',*,*,#192,.F.);
#152=ORIENTED_EDGE('',*,*,#196,.F.);
#153=ORIENTED_EDGE('',*,*,#182,.T.);
#154=ORIENTED_EDGE('',*,*,#196,.T.);
#155=ORIENTED_EDGE('',*,*,#191,.F.);
#156=ORIENTED_EDGE('',*,*,#193,.F.);
#157=ORIENTED_EDGE('',*,*,#175,.F.);
#158=ORIENTED_EDGE('',*,*,#185,.T.);
#159=EDGE_CURVE('',#197,#198,#223,.T.);
#160=EDGE_CURVE('',#198,#199,#27,.T.);
#161=EDGE_CURVE('',#200,#199,#28,.T.);
#162=EDGE_CURVE('',#201,#200,#29,.T.);
#163=EDGE_CURVE('',#202,#201,#224,.T.);
#164=EDGE_CURVE('',#203,#202,#30,.T.);
#165=EDGE_CURVE('',#204,#203,#31,.T.);
#166=EDGE_CURVE('',#204,#197,#32,.T.);
#167=EDGE_CURVE('',#205,#206,#33,.T.);
#168=EDGE_CURVE('',#206,#204,#34,.T.);
#169=EDGE_CURVE('',#207,#203,#35,.T.);
#170=EDGE_CURVE('',#208,#207,#36,.T.);
#171=EDGE_CURVE('',#208,#200,#37,.T.);
#172=EDGE_CURVE('',#205,#199,#38,.T.);
#173=EDGE_CURVE('',#209,#202,#39,.T.);
#174=EDGE_CURVE('',#207,#209,#40,.T.);
#175=EDGE_CURVE('',#210,#210,#20,.T.);
#176=EDGE_CURVE('',#211,#201,#41,.T.);
#177=EDGE_CURVE('',#209,#211,#225,.T.);
#178=EDGE_CURVE('',#211,#208,#42,.T.);
#179=EDGE_CURVE('',#212,#213,#226,.T.);
#180=EDGE_CURVE('',#214,#212,#43,.T.);
#181=EDGE_CURVE('',#215,#214,#227,.T.);
#182=EDGE_CURVE('',#213,#215,#44,.T.);
#183=EDGE_CURVE('',#206,#216,#45,.T.);
#184=EDGE_CURVE('',#216,#197,#46,.T.);
#185=EDGE_CURVE('',#217,#217,#21,.T.);
#186=EDGE_CURVE('',#216,#218,#228,.T.);
#187=EDGE_CURVE('',#218,#198,#47,.T.);
#188=EDGE_CURVE('',#218,#205,#48,.T.);
#189=EDGE_CURVE('',#219,#220,#49,.T.);
#190=EDGE_CURVE('',#220,#221,#229,.T.);
#191=EDGE_CURVE('',#221,#222,#50,.T.);
#192=EDGE_CURVE('',#222,#219,#230,.T.);
#193=EDGE_CURVE('',#213,#221,#51,.T.);
#194=EDGE_CURVE('',#212,#220,#52,.T.);
#195=EDGE_CURVE('',#214,#219,#53,.T.);
#196=EDGE_CURVE('',#215,#222,#54,.T.);
#197=VERTEX_POINT('',#411);
#198=VERTEX_POINT('',#412);
#199=VERTEX_POINT('',#414);
#200=VERTEX_POINT('',#416);
#201=VERTEX_POINT('',#418);
#202=VERTEX_POINT('',#420);
#203=VERTEX_POINT('',#422);
#204=VERTEX_POINT('',#424);
#205=VERTEX_POINT('',#428);
#206=VERTEX_POINT('',#429);
#207=VERTEX_POINT('',#432);
#208=VERTEX_POINT('',#434);
#209=VERTEX_POINT('',#439);
#210=VERTEX_POINT('',#453);
#211=VERTEX_POINT('',#455);
#212=VERTEX_POINT('',#461);
#213=VERTEX_POINT('',#462);
#214=VERTEX_POINT('',#464);
#215=VERTEX_POINT('',#466);
#216=VERTEX_POINT('',#470);
#217=VERTEX_POINT('',#484);
#218=VERTEX_POINT('',#486);
#219=VERTEX_POINT('',#492);
#220=VERTEX_POINT('',#493);
#221=VERTEX_POINT('',#495);
#222=VERTEX_POINT('',#497);
#223=CIRCLE('',#310,20.);
#224=CIRCLE('',#311,25.);
#225=CIRCLE('',#315,25.);
#226=CIRCLE('',#318,10.);
#227=CIRCLE('',#319,10.);
#228=CIRCLE('',#322,20.);
#229=CIRCLE('',#325,10.);
#230=CIRCLE('',#326,10.);
#231=EDGE_LOOP('',(#83,#84,#85,#86,#87,#88,#89,#90));
#232=EDGE_LOOP('',(#91,#92,#93,#94,#95,#96,#97,#98));
#233=EDGE_LOOP('',(#99,#100,#101,#102));
#234=EDGE_LOOP('',(#103));
#235=EDGE_LOOP('',(#104,#105,#106,#107));
#236=EDGE_LOOP('',(#108,#109,#110,#111));
#237=EDGE_LOOP('',(#112,#113,#114,#115));
#238=EDGE_LOOP('',(#116,#117,#118,#119));
#239=EDGE_LOOP('',(#120,#121,#122,#123));
#240=EDGE_LOOP('',(#124));
#241=EDGE_LOOP('',(#125,#126,#127,#128));
#242=EDGE_LOOP('',(#129,#130,#131,#132));
#243=EDGE_LOOP('',(#133,#134,#135,#136));
#244=EDGE_LOOP('',(#137,#138,#139,#140));
#245=EDGE_LOOP('',(#141,#142,#143,#144));
#246=EDGE_LOOP('',(#145,#146,#147,#148));
#247=EDGE_LOOP('',(#149,#150,#151,#152));
#248=EDGE_LOOP('',(#153,#154,#155,#156));
#249=EDGE_LOOP('',(#157));
#250=EDGE_LOOP('',(#158));
#251=FACE_BOUND('',#231,.T.);
#252=FACE_BOUND('',#232,.T.);
#253=FACE_BOUND('',#233,.T.);
#254=FACE_BOUND('',#234,.T.);
#255=FACE_BOUND('',#235,.T.);
#256=FACE_BOUND('',#236,.T.);
#257=FACE_BOUND('',#237,.T.);
#258=FACE_BOUND('',#238,.T.);
#259=FACE_BOUND('',#239,.T.);
#260=FACE_BOUND('',#240,.T.);
#261=FACE_BOUND('',#241,.T.);
#262=FACE_BOUND('',#242,.T.);
#263=FACE_BOUND('',#243,.T.);
#264=FACE_BOUND('',#244,.T.);
#265=FACE_BOUND('',#245,.T.);
#266=FACE_BOUND('',#246,.T.);
#267=FACE_BOUND('',#247,.T.);
#268=FACE_BOUND('',#248,.T.);
#269=FACE_BOUND('',#249,.T.);
#270=FACE_BOUND('',#250,.T.);
#271=PLANE('',#309);
#272=PLANE('',#312);
#273=PLANE('',#313);
#274=PLANE('',#316);
#275=PLANE('',#317);
#276=PLANE('',#320);
#277=PLANE('',#323);
#278=PLANE('',#324);
#279=PLANE('',#328);
#280=PLANE('',#330);
#281=ADVANCED_FACE('',(#251),#271,.F.);
#282=ADVANCED_FACE('',(#252),#272,.F.);
#283=ADVANCED_FACE('',(#253),#273,.F.);
#284=ADVANCED_FACE('',(#254,#255),#22,.T.);
#285=ADVANCED_FACE('',(#256),#274,.F.);
#286=ADVANCED_FACE('',(#257,#258),#275,.T.);
#287=ADVANCED_FACE('',(#259),#276,.T.);
#288=ADVANCED_FACE('',(#260,#261),#23,.F.);
#289=ADVANCED_FACE('',(#262),#277,.T.);
#290=ADVANCED_FACE('',(#263,#264),#278,.F.);
#291=ADVANCED_FACE('',(#265),#24,.F.);
#292=ADVANCED_FACE('',(#266),#279,.F.);
#293=ADVANCED_FACE('',(#267),#25,.F.);
#294=ADVANCED_FACE('',(#268),#280,.F.);
#295=ADVANCED_FACE('',(#269,#270),#26,.F.);
#296=CLOSED_SHELL('',(#281,#282,#283,#284,#285,#286,#287,#288,#289,#290,
#291,#292,#293,#294,#295));
#297=STYLED_ITEM('',(#298),#305);
#298=PRESENTATION_STYLE_ASSIGNMENT((#299));
#299=SURFACE_STYLE_USAGE(.BOTH.,#300);
#300=SURFACE_SIDE_STYLE('',(#301));
#301=SURFACE_STYLE_FILL_AREA(#302);
#302=FILL_AREA_STYLE('',(#303));
#303=FILL_AREA_STYLE_COLOUR('',#304);
#304=COLOUR_RGB('',0.910000026226044,0.899999976158142,0.949999988079071);
#305=MANIFOLD_SOLID_BREP('',#296);
#306=SHAPE_DEFINITION_REPRESENTATION(#514,#307);
#307=SHAPE_REPRESENTATION('Pièce usinée',(#308),#509);
#308=AXIS2_PLACEMENT_3D('',#408,#332,#333);
#309=AXIS2_PLACEMENT_3D('',#409,#334,#335);
#310=AXIS2_PLACEMENT_3D('',#410,#336,#337);
#311=AXIS2_PLACEMENT_3D('',#419,#341,#342);
#312=AXIS2_PLACEMENT_3D('',#426,#346,#347);
#313=AXIS2_PLACEMENT_3D('',#437,#354,#355);
#314=AXIS2_PLACEMENT_3D('',#441,#358,#359);
#315=AXIS2_PLACEMENT_3D('',#456,#361,#362);
#316=AXIS2_PLACEMENT_3D('',#457,#363,#364);
#317=AXIS2_PLACEMENT_3D('',#459,#366,#367);
#318=AXIS2_PLACEMENT_3D('',#460,#368,#369);
#319=AXIS2_PLACEMENT_3D('',#465,#371,#372);
#320=AXIS2_PLACEMENT_3D('',#468,#374,#375);
#321=AXIS2_PLACEMENT_3D('',#472,#378,#379);
#322=AXIS2_PLACEMENT_3D('',#485,#380,#381);
#323=AXIS2_PLACEMENT_3D('',#488,#383,#384);
#324=AXIS2_PLACEMENT_3D('',#490,#386,#387);
#325=AXIS2_PLACEMENT_3D('',#494,#389,#390);
#326=AXIS2_PLACEMENT_3D('',#498,#392,#393);
#327=AXIS2_PLACEMENT_3D('',#499,#394,#395);
#328=AXIS2_PLACEMENT_3D('',#502,#398,#399);
#329=AXIS2_PLACEMENT_3D('',#504,#401,#402);
#330=AXIS2_PLACEMENT_3D('',#506,#404,#405);
#331=AXIS2_PLACEMENT_3D('',#507,#406,#407);
#332=DIRECTION('',(0.,0.,1.));
#333=DIRECTION('',(1.,0.,0.));
#334=DIRECTION('',(0.,1.,0.));
#335=DIRECTION('',(0.,0.,1.));
#336=DIRECTION('',(0.,1.,0.));
#337=DIRECTION('',(-1.,0.,0.));
#338=DIRECTION('',(-1.,0.,-2.39272203583008E-16));
#339=DIRECTION('',(-5.55111512312579E-16,0.,1.));
#340=DIRECTION('',(-1.,0.,-4.78544407166016E-17));
#341=DIRECTION('',(0.,1.,0.));
#342=DIRECTION('',(-1.,0.,0.));
#343=DIRECTION('',(1.,0.,4.78544407166016E-16));
#344=DIRECTION('',(-5.55111512312579E-16,0.,1.));
#345=DIRECTION('',(1.,0.,4.78544407166016E-16));
#346=DIRECTION('',(1.,0.,5.55111512312579E-16));
#347=DIRECTION('',(5.55111512312579E-16,0.,-1.));
#348=DIRECTION('',(-6.93889390390724E-16,0.,1.));
#349=DIRECTION('',(0.,-1.,0.));
#350=DIRECTION('',(0.,-1.,0.));
#351=DIRECTION('',(-5.55111512312579E-16,0.,1.));
#352=DIRECTION('',(0.,-1.,0.));
#353=DIRECTION('',(0.,-1.,0.));
#354=DIRECTION('',(4.78544407166016E-16,0.,-1.));
#355=DIRECTION('',(-1.,0.,-4.78544407166016E-16));
#356=DIRECTION('',(0.,-1.,0.));
#357=DIRECTION('',(1.,0.,4.78544407166016E-16));
#358=DIRECTION('',(0.,-1.,0.));
#359=DIRECTION('',(0.,0.,-1.));
#360=DIRECTION('',(0.,-1.,0.));
#361=DIRECTION('',(0.,1.,0.));
#362=DIRECTION('',(-1.,0.,0.));
#363=DIRECTION('',(-4.78544407166016E-17,0.,1.));
#364=DIRECTION('',(1.,0.,4.78544407166016E-17));
#365=DIRECTION('',(-1.,0.,-4.78544407166016E-17));
#366=DIRECTION('',(0.,1.,0.));
#367=DIRECTION('',(0.,0.,1.));
#368=DIRECTION('',(0.,1.,0.));
#369=DIRECTION('',(0.,0.,1.));
#370=DIRECTION('',(1.,0.,0.));
#371=DIRECTION('',(0.,1.,0.));
#372=DIRECTION('',(0.,0.,1.));
#373=DIRECTION('',(-1.,0.,0.));
#374=DIRECTION('',(4.78544407166016E-16,0.,-1.));
#375=DIRECTION('',(-1.,0.,-4.78544407166016E-16));
#376=DIRECTION('',(1.,0.,4.78544407166016E-16));
#377=DIRECTION('',(0.,-1.,0.));
#378=DIRECTION('',(0.,-1.,0.));
#379=DIRECTION('',(0.,0.,-1.));
#380=DIRECTION('',(0.,1.,0.));
#381=DIRECTION('',(-1.,0.,0.));
#382=DIRECTION('',(0.,-1.,0.));
#383=DIRECTION('',(-2.39272203583008E-16,0.,1.));
#384=DIRECTION('',(1.,0.,2.39272203583008E-16));
#385=DIRECTION('',(-1.,0.,-2.39272203583008E-16));
#386=DIRECTION('',(0.,1.,0.));
#387=DIRECTION('',(0.,0.,1.));
#388=DIRECTION('',(1.,0.,0.));
#389=DIRECTION('',(0.,1.,0.));
#390=DIRECTION('',(0.,0.,1.));
#391=DIRECTION('',(-1.,0.,0.));
#392=DIRECTION('',(0.,1.,0.));
#393=DIRECTION('',(0.,0.,1.));
#394=DIRECTION('',(0.,-1.,0.));
#395=DIRECTION('',(0.,0.,-1.));
#396=DIRECTION('',(0.,-1.,0.));
#397=DIRECTION('',(0.,-1.,0.));
#398=DIRECTION('',(0.,0.,1.));
#399=DIRECTION('',(1.,0.,0.));
#400=DIRECTION('',(0.,-1.,0.));
#401=DIRECTION('',(0.,-1.,0.));
#402=DIRECTION('',(0.,0.,-1.));
#403=DIRECTION('',(0.,-1.,0.));
#404=DIRECTION('',(0.,0.,-1.));
#405=DIRECTION('',(-1.,0.,0.));
#406=DIRECTION('',(-1.,0.,0.));
#407=DIRECTION('',(0.,0.,1.));
#408=CARTESIAN_POINT('',(0.,0.,0.));
#409=CARTESIAN_POINT('',(0.,0.,0.));
#410=CARTESIAN_POINT('',(0.,0.,0.));
#411=CARTESIAN_POINT('',(-2.77555756156289E-14,0.,20.));
#412=CARTESIAN_POINT('',(3.67394039744206E-15,0.,-20.));
#413=CARTESIAN_POINT('',(6.93889390390723E-15,0.,-20.));
#414=CARTESIAN_POINT('',(-145.,0.,-20.));
#415=CARTESIAN_POINT('',(-145.,0.,-25.));
#416=CARTESIAN_POINT('',(-145.,0.,-25.));
#417=CARTESIAN_POINT('',(-4.77048955893622E-15,0.,-25.));
#418=CARTESIAN_POINT('',(4.59242549680257E-15,0.,-25.));
#419=CARTESIAN_POINT('',(0.,0.,0.));
#420=CARTESIAN_POINT('',(-2.77555756156289E-14,0.,25.));
#421=CARTESIAN_POINT('',(-145.,0.,24.9999999999999));
#422=CARTESIAN_POINT('',(-145.,0.,24.9999999999999));
#423=CARTESIAN_POINT('',(-145.,0.,-25.));
#424=CARTESIAN_POINT('',(-145.,0.,19.9999999999999));
#425=CARTESIAN_POINT('',(-145.,0.,19.9999999999999));
#426=CARTESIAN_POINT('',(-145.,32.,-25.));
#427=CARTESIAN_POINT('',(-145.,21.,-20.));
#428=CARTESIAN_POINT('',(-145.,21.,-20.));
#429=CARTESIAN_POINT('',(-145.,21.,19.9999999999999));
#430=CARTESIAN_POINT('',(-145.,21.,19.9999999999999));
#431=CARTESIAN_POINT('',(-145.,32.,24.9999999999999));
#432=CARTESIAN_POINT('',(-145.,32.,24.9999999999999));
#433=CARTESIAN_POINT('',(-145.,32.,-25.));
#434=CARTESIAN_POINT('',(-145.,32.,-25.));
#435=CARTESIAN_POINT('',(-145.,32.,-25.));
#436=CARTESIAN_POINT('',(-145.,21.,-20.));
#437=CARTESIAN_POINT('',(-145.,32.,24.9999999999999));
#438=CARTESIAN_POINT('',(-2.77555756156289E-14,32.,25.));
#439=CARTESIAN_POINT('',(-2.77555756156289E-14,32.,25.));
#440=CARTESIAN_POINT('',(-145.,32.,24.9999999999999));
#441=CARTESIAN_POINT('',(0.,32.,0.));
#442=CARTESIAN_POINT('',(24.9102271333135,12.6465586190628,2.34891929865326));
#443=CARTESIAN_POINT('',(24.7739498259348,15.0005820755486,3.32536009021208));
#444=CARTESIAN_POINT('',(24.9100573148374,17.3511130787429,2.3496403404984));
#445=CARTESIAN_POINT('',(25.0449585711985,18.3242165308628,0.00267161037268405));
#446=CARTESIAN_POINT('',(24.9101080696921,17.3520180421692,-2.35036671576694));
#447=CARTESIAN_POINT('',(24.7740618514222,15.0006607544852,-3.32409742944496));
#448=CARTESIAN_POINT('',(24.9097284284821,12.6520666691119,-2.35324230916595));
#449=CARTESIAN_POINT('',(25.0450108832773,11.6753455635713,-0.00303877779157623));
#450=CARTESIAN_POINT('',(24.9102271333135,12.6465586190628,2.34891929865326));
#451=CARTESIAN_POINT('',(24.7739498259348,15.0005820755486,3.32536009021208));
#452=CARTESIAN_POINT('',(24.9100573148374,17.3511130787429,2.3496403404984));
#453=CARTESIAN_POINT('',(24.8193472919817,15.,3.));
#454=CARTESIAN_POINT('',(4.59242549680257E-15,32.,-25.));
#455=CARTESIAN_POINT('',(4.59242549680257E-15,32.,-25.));
#456=CARTESIAN_POINT('',(0.,32.,0.));
#457=CARTESIAN_POINT('',(-4.77048955893622E-15,32.,-25.));
#458=CARTESIAN_POINT('',(-4.77048955893622E-15,32.,-25.));
#459=CARTESIAN_POINT('',(0.,32.,0.));
#460=CARTESIAN_POINT('',(-11.,32.,0.));
#461=CARTESIAN_POINT('',(-11.,32.,10.));
#462=CARTESIAN_POINT('',(-11.,32.,-10.));
#463=CARTESIAN_POINT('',(0.,32.,10.));
#464=CARTESIAN_POINT('',(-49.,32.,10.));
#465=CARTESIAN_POINT('',(-49.,32.,0.));
#466=CARTESIAN_POINT('',(-49.,32.,-10.));
#467=CARTESIAN_POINT('',(0.,32.,-10.));
#468=CARTESIAN_POINT('',(-145.,21.,19.9999999999999));
#469=CARTESIAN_POINT('',(-145.,21.,19.9999999999999));
#470=CARTESIAN_POINT('',(-2.77555756156289E-14,21.,20.));
#471=CARTESIAN_POINT('',(-2.77555756156289E-14,21.,20.));
#472=CARTESIAN_POINT('',(0.,21.,0.));
#473=CARTESIAN_POINT('',(19.8877808735434,12.6466096237219,2.3488775367076));
#474=CARTESIAN_POINT('',(19.7167411804036,15.0005676857617,3.32538545010064));
#475=CARTESIAN_POINT('',(19.8875740045529,17.3511196332312,2.34958066288983));
#476=CARTESIAN_POINT('',(20.0562034061789,18.324280096152,0.00280955127102395));
#477=CARTESIAN_POINT('',(19.8876119384694,17.3517571004153,-2.35063344519437));
#478=CARTESIAN_POINT('',(19.7168857721523,15.0007952565653,-3.32401476450571));
#479=CARTESIAN_POINT('',(19.8871647749284,12.651990202693,-2.35330616340086));
#480=CARTESIAN_POINT('',(20.0562633461725,11.6753516547934,-0.00270106752976498));
#481=CARTESIAN_POINT('',(19.8877808735434,12.6466096237219,2.3488775367076));
#482=CARTESIAN_POINT('',(19.7167411804036,15.0005676857617,3.32538545010064));
#483=CARTESIAN_POINT('',(19.8875740045529,17.3511196332312,2.34958066288983));
#484=CARTESIAN_POINT('',(19.7737199332851,15.,3.));
#485=CARTESIAN_POINT('',(0.,21.,0.));
#486=CARTESIAN_POINT('',(3.67394039744206E-15,21.,-20.));
#487=CARTESIAN_POINT('',(3.67394039744206E-15,21.,-20.));
#488=CARTESIAN_POINT('',(6.93889390390723E-15,21.,-20.));
#489=CARTESIAN_POINT('',(6.93889390390723E-15,21.,-20.));
#490=CARTESIAN_POINT('',(0.,21.,0.));
#491=CARTESIAN_POINT('',(0.,21.,10.));
#492=CARTESIAN_POINT('',(-49.,21.,10.));
#493=CARTESIAN_POINT('',(-11.,21.,10.));
#494=CARTESIAN_POINT('',(-11.,21.,0.));
#495=CARTESIAN_POINT('',(-11.,21.,-10.));
#496=CARTESIAN_POINT('',(0.,21.,-10.));
#497=CARTESIAN_POINT('',(-49.,21.,-10.));
#498=CARTESIAN_POINT('',(-49.,21.,0.));
#499=CARTESIAN_POINT('',(-11.,180.066654325558,0.));
#500=CARTESIAN_POINT('',(-11.,180.066654325558,-10.));
#501=CARTESIAN_POINT('',(-11.,180.066654325558,10.));
#502=CARTESIAN_POINT('',(-49.,180.066654325558,10.));
#503=CARTESIAN_POINT('',(-49.,180.066654325558,10.));
#504=CARTESIAN_POINT('',(-49.,180.066654325558,0.));
#505=CARTESIAN_POINT('',(-49.,180.066654325558,-10.));
#506=CARTESIAN_POINT('',(-49.,180.066654325558,-10.));
#507=CARTESIAN_POINT('',(180.066654325558,15.,0.));
#508=MECHANICAL_DESIGN_GEOMETRIC_PRESENTATION_REPRESENTATION('',(#297),
#509);
#509=(
GEOMETRIC_REPRESENTATION_CONTEXT(3)
GLOBAL_UNCERTAINTY_ASSIGNED_CONTEXT((#510))
GLOBAL_UNIT_ASSIGNED_CONTEXT((#513,#512,#511))
REPRESENTATION_CONTEXT('Pièce usinée','TOP_LEVEL_ASSEMBLY_PART')
);
#510=UNCERTAINTY_MEASURE_WITH_UNIT(LENGTH_MEASURE(0.005),#513,
'DISTANCE_ACCURACY_VALUE','Maximum Tolerance applied to model');
#511=(
NAMED_UNIT(*)
SI_UNIT($,.STERADIAN.)
SOLID_ANGLE_UNIT()
);
#512=(
NAMED_UNIT(*)
PLANE_ANGLE_UNIT()
SI_UNIT($,.RADIAN.)
);
#513=(
LENGTH_UNIT()
NAMED_UNIT(*)
SI_UNIT(.MILLI.,.METRE.)
);
#514=PRODUCT_DEFINITION_SHAPE('','',#515);
#515=PRODUCT_DEFINITION('','',#517,#516);
#516=PRODUCT_DEFINITION_CONTEXT('',#523,'design');
#517=PRODUCT_DEFINITION_FORMATION_WITH_SPECIFIED_SOURCE('','',#519,
 .NOT_KNOWN.);
#518=PRODUCT_RELATED_PRODUCT_CATEGORY('','',(#519));
#519=PRODUCT('Pièce usinée','Pièce usinée','Pièce usinée',(#521));
#520=PRODUCT_CATEGORY('','');
#521=PRODUCT_CONTEXT('',#523,'mechanical');
#522=APPLICATION_PROTOCOL_DEFINITION('international standard',
'automotive_design',2010,#523);
#523=APPLICATION_CONTEXT(
'core data for automotive mechanical design processes');
ENDSEC;
END-ISO-10303-21;
