ISO-10303-21;
HEADER;
FILE_DESCRIPTION (( 'STEP AP214' ),
    '1' );
FILE_NAME ('Axe godet REP 13.STEP',
    '2021-01-31T12:32:40',
    ( '' ),
    ( '' ),
    'SwSTEP 2.0',
    'SolidWorks 2019',
    '' );
FILE_SCHEMA (( 'AUTOMOTIVE_DESIGN' ));
ENDSEC;

DATA;
#1 = CIRCLE ( 'NONE', #243, 3.659258262890680236 ) ;
#2 = FACE_OUTER_BOUND ( 'NONE', #295, .T. ) ;
#3 = PRODUCT_DEFINITION_SHAPE ( 'NONE', 'NONE',  #53 ) ;
#4 = DIRECTION ( 'NONE',  ( 0.000000000000000000, 0.000000000000000000, -1.000000000000000000 ) ) ;
#5 = EDGE_LOOP ( 'NONE', ( #236, #330 ) ) ;
#6 = DIRECTION ( 'NONE',  ( -1.000000000000000000, -0.000000000000000000, -0.000000000000000000 ) ) ;
#7 = TOROIDAL_SURFACE ( 'NONE', #242, -6.000000000000000000, 10.00000000000000000 ) ;
#8 = ORIENTED_EDGE ( 'NONE', *, *, #211, .T. ) ;
#9 = CIRCLE ( 'NONE', #61, 2.789502522033475262 ) ;
#10 = DIRECTION ( 'NONE',  ( 1.000000000000000000, 0.000000000000000000, 0.000000000000000000 ) ) ;
#11 =( GEOMETRIC_REPRESENTATION_CONTEXT ( 3 ) GLOBAL_UNCERTAINTY_ASSIGNED_CONTEXT ( ( #341 ) ) GLOBAL_UNIT_ASSIGNED_CONTEXT ( ( #163, #40, #324 ) ) REPRESENTATION_CONTEXT ( 'NONE', 'WORKASPACE' ) );
#12 = VERTEX_POINT ( 'NONE', #244 ) ;
#13 = ORIENTED_EDGE ( 'NONE', *, *, #248, .F. ) ;
#14 = ADVANCED_FACE ( 'NONE', ( #169 ), #7, .T. ) ;
#15 = DIRECTION ( 'NONE',  ( 0.000000000000000000, 0.000000000000000000, 1.000000000000000000 ) ) ;
#16 = VECTOR ( 'NONE', #216, 1000.000000000000000 ) ;
#17 = AXIS2_PLACEMENT_3D ( 'NONE', #201, #62, #4 ) ;
#18 = ORIENTED_EDGE ( 'NONE', *, *, #102, .T. ) ;
#19 = ADVANCED_FACE ( 'NONE', ( #214 ), #78, .T. ) ;
#20 = ADVANCED_BREP_SHAPE_REPRESENTATION ( 'Axe godet REP 13', ( #69, #354 ), #32 ) ;
#21 = DIRECTION ( 'NONE',  ( -1.000000000000000000, 0.000000000000000000, -0.000000000000000000 ) ) ;
#22 = CARTESIAN_POINT ( 'NONE',  ( 13.68347502412604122, 4.898587196589412829E-16, -4.000000000000000000 ) ) ;
#23 = DIRECTION ( 'NONE',  ( 0.000000000000000000, 0.000000000000000000, 1.000000000000000000 ) ) ;
#24 = AXIS2_PLACEMENT_3D ( 'NONE', #303, #26, #271 ) ;
#25 = AXIS2_PLACEMENT_3D ( 'NONE', #312, #215, #109 ) ;
#26 = DIRECTION ( 'NONE',  ( -1.000000000000000000, -0.000000000000000000, -0.000000000000000000 ) ) ;
#27 = DIRECTION ( 'NONE',  ( -1.000000000000000000, -0.000000000000000000, -0.000000000000000000 ) ) ;
#28 = FACE_OUTER_BOUND ( 'NONE', #39, .T. ) ;
#29 = CARTESIAN_POINT ( 'NONE',  ( -36.92906451086403052, 0.000000000000000000, 0.000000000000000000 ) ) ;
#30 = CLOSED_SHELL ( 'NONE', ( #274, #253, #113, #19, #193, #261, #86, #152, #155, #209, #108, #323, #14 ) ) ;
#31 = DIRECTION ( 'NONE',  ( 0.000000000000000000, 0.000000000000000000, -1.000000000000000000 ) ) ;
#32 =( GEOMETRIC_REPRESENTATION_CONTEXT ( 3 ) GLOBAL_UNCERTAINTY_ASSIGNED_CONTEXT ( ( #333 ) ) GLOBAL_UNIT_ASSIGNED_CONTEXT ( ( #117, #91, #317 ) ) REPRESENTATION_CONTEXT ( 'NONE', 'WORKASPACE' ) );
#33 = CARTESIAN_POINT ( 'NONE',  ( 0.000000000000000000, 0.000000000000000000, 0.000000000000000000 ) ) ;
#34 = ORIENTED_EDGE ( 'NONE', *, *, #122, .T. ) ;
#35 = DIRECTION ( 'NONE',  ( 0.000000000000000000, 0.000000000000000000, -1.000000000000000000 ) ) ;
#36 = AXIS2_PLACEMENT_3D ( 'NONE', #142, #27, #85 ) ;
#37 = ORIENTED_EDGE ( 'NONE', *, *, #280, .F. ) ;
#38 = ORIENTED_EDGE ( 'NONE', *, *, #284, .T. ) ;
#39 = EDGE_LOOP ( 'NONE', ( #348, #288, #356, #355 ) ) ;
#40 =( NAMED_UNIT ( * ) PLANE_ANGLE_UNIT ( ) SI_UNIT ( $, .RADIAN. ) );
#41 = EDGE_LOOP ( 'NONE', ( #18, #225 ) ) ;
#42 = SURFACE_STYLE_USAGE ( .BOTH. , #184 ) ;
#43 = VERTEX_POINT ( 'NONE', #268 ) ;
#44 = DIRECTION ( 'NONE',  ( 0.000000000000000000, 0.000000000000000000, 1.000000000000000000 ) ) ;
#45 = AXIS2_PLACEMENT_3D ( 'NONE', #79, #338, #55 ) ;
#46 = CIRCLE ( 'NONE', #311, 4.000000000000000000 ) ;
#47 = CARTESIAN_POINT ( 'NONE',  ( -36.92906451086403052, 1.102182119232617911E-15, -9.000000000000001776 ) ) ;
#48 = DIRECTION ( 'NONE',  ( -0.000000000000000000, 0.000000000000000000, 1.000000000000000000 ) ) ;
#49 = UNCERTAINTY_MEASURE_WITH_UNIT (LENGTH_MEASURE( 1.000000000000000082E-05 ), #339, 'distance_accuracy_value', 'NONE');
#50 = CARTESIAN_POINT ( 'NONE',  ( -36.92906451086403052, 0.000000000000000000, 4.000000000000000000 ) ) ;
#51 = DIRECTION ( 'NONE',  ( 0.000000000000000000, -1.224646799147353207E-16, 1.000000000000000000 ) ) ;
#52 = VECTOR ( 'NONE', #222, 1000.000000000000000 ) ;
#53 = PRODUCT_DEFINITION ( 'UNKNOWN', '', #287, #241 ) ;
#54 = CARTESIAN_POINT ( 'NONE',  ( 0.000000000000000000, 0.000000000000000000, 9.000000000000001776 ) ) ;
#55 = DIRECTION ( 'NONE',  ( -0.000000000000000000, 0.000000000000000000, 1.000000000000000000 ) ) ;
#56 = CARTESIAN_POINT ( 'NONE',  ( 21.00000000000000355, 0.000000000000000000, 0.000000000000000000 ) ) ;
#57 = ORIENTED_EDGE ( 'NONE', *, *, #359, .T. ) ;
#58 = CARTESIAN_POINT ( 'NONE',  ( 13.68347502412604122, 0.000000000000000000, 0.000000000000000000 ) ) ;
#59 = EDGE_CURVE ( 'NONE', #43, #115, #259, .T. ) ;
#60 = AXIS2_PLACEMENT_3D ( 'NONE', #137, #309, #15 ) ;
#61 = AXIS2_PLACEMENT_3D ( 'NONE', #154, #224, #344 ) ;
#62 = DIRECTION ( 'NONE',  ( 0.000000000000000000, -1.000000000000000000, 0.000000000000000000 ) ) ;
#63 = CARTESIAN_POINT ( 'NONE',  ( -36.92906451086403052, 0.000000000000000000, 9.000000000000001776 ) ) ;
#64 = VERTEX_POINT ( 'NONE', #166 ) ;
#65 = DIRECTION ( 'NONE',  ( -1.000000000000000000, -0.000000000000000000, -0.000000000000000000 ) ) ;
#66 = COLOUR_RGB ( '',0.7529411764705882248, 0.7529411764705882248, 0.7529411764705882248 ) ;
#67 = VERTEX_POINT ( 'NONE', #80 ) ;
#68 = ORIENTED_EDGE ( 'NONE', *, *, #305, .F. ) ;
#69 = MANIFOLD_SOLID_BREP ( 'Congé2', #30 ) ;
#70 = EDGE_LOOP ( 'NONE', ( #123, #99, #121, #292 ) ) ;
#71 = APPLICATION_PROTOCOL_DEFINITION ( 'draft international standard', 'automotive_design', 1998, #150 ) ;
#72 = ORIENTED_EDGE ( 'NONE', *, *, #223, .F. ) ;
#73 = CONICAL_SURFACE ( 'NONE', #25, 2.392304845413259162, 0.2617993877991499629 ) ;
#74 = EDGE_LOOP ( 'NONE', ( #125, #320, #255, #351 ) ) ;
#75 = PRESENTATION_STYLE_ASSIGNMENT (( #362 ) ) ;
#76 = CARTESIAN_POINT ( 'NONE',  ( 21.00000000000000355, 0.000000000000000000, 0.000000000000000000 ) ) ;
#77 = TOROIDAL_SURFACE ( 'NONE', #275, 0.8576508694553394152, 2.000000000000000000 ) ;
#78 = CYLINDRICAL_SURFACE ( 'NONE', #60, 4.000000000000000000 ) ;
#79 = CARTESIAN_POINT ( 'NONE',  ( 2.439214598638866271E-15, 9.000000000000001776, 0.000000000000000000 ) ) ;
#80 = CARTESIAN_POINT ( 'NONE',  ( 13.68347502412604122, 0.000000000000000000, 4.000000000000000000 ) ) ;
#81 = CARTESIAN_POINT ( 'NONE',  ( -1.999999999999994893, 0.000000000000000000, 0.000000000000000000 ) ) ;
#82 = EDGE_CURVE ( 'NONE', #67, #153, #358, .T. ) ;
#83 = CARTESIAN_POINT ( 'NONE',  ( 0.000000000000000000, 0.000000000000000000, 0.000000000000000000 ) ) ;
#84 = DIRECTION ( 'NONE',  ( -1.000000000000000000, -0.000000000000000000, -0.000000000000000000 ) ) ;
#85 = DIRECTION ( 'NONE',  ( 0.000000000000000000, 0.000000000000000000, 1.000000000000000000 ) ) ;
#86 = ADVANCED_FACE ( 'NONE', ( #172 ), #107, .T. ) ;
#87 = CARTESIAN_POINT ( 'NONE',  ( -1.999999999999998668, 0.000000000000000000, 0.000000000000000000 ) ) ;
#88 = LINE ( 'NONE', #92, #233 ) ;
#89 = STYLED_ITEM ( 'NONE', ( #75 ), #69 ) ;
#90 = AXIS2_PLACEMENT_3D ( 'NONE', #270, #307, #219 ) ;
#91 =( NAMED_UNIT ( * ) PLANE_ANGLE_UNIT ( ) SI_UNIT ( $, .RADIAN. ) );
#92 = CARTESIAN_POINT ( 'NONE',  ( 21.00000000000000355, 2.929728471520051404E-16, -2.392304845413259162 ) ) ;
#93 = ORIENTED_EDGE ( 'NONE', *, *, #371, .T. ) ;
#94 = AXIS2_PLACEMENT_3D ( 'NONE', #200, #286, #313 ) ;
#95 = VERTEX_POINT ( 'NONE', #246 ) ;
#96 = FILL_AREA_STYLE ('',( #130 ) ) ;
#97 = ORIENTED_EDGE ( 'NONE', *, *, #291, .F. ) ;
#98 = EDGE_CURVE ( 'NONE', #67, #95, #334, .T. ) ;
#99 = ORIENTED_EDGE ( 'NONE', *, *, #350, .T. ) ;
#100 = ORIENTED_EDGE ( 'NONE', *, *, #127, .F. ) ;
#101 = DIRECTION ( 'NONE',  ( -1.000000000000000000, -0.000000000000000000, -0.000000000000000000 ) ) ;
#102 = EDGE_CURVE ( 'NONE', #148, #64, #197, .T. ) ;
#103 = DIRECTION ( 'NONE',  ( 1.000000000000000000, 0.000000000000000000, 0.000000000000000000 ) ) ;
#104 = AXIS2_PLACEMENT_3D ( 'NONE', #83, #101, #44 ) ;
#105 = AXIS2_PLACEMENT_3D ( 'NONE', #251, #315, #231 ) ;
#106 = FACE_BOUND ( 'NONE', #322, .T. ) ;
#107 = CYLINDRICAL_SURFACE ( 'NONE', #24, 9.000000000000001776 ) ;
#108 = ADVANCED_FACE ( 'NONE', ( #192 ), #269, .F. ) ;
#109 = DIRECTION ( 'NONE',  ( 0.000000000000000000, 0.000000000000000000, 1.000000000000000000 ) ) ;
#110 = DIRECTION ( 'NONE',  ( 1.000000000000000000, 0.000000000000000000, 0.000000000000000000 ) ) ;
#111 = LINE ( 'NONE', #47, #52 ) ;
#112 = CARTESIAN_POINT ( 'NONE',  ( -1.999999999999994893, 0.000000000000000000, 0.000000000000000000 ) ) ;
#113 = ADVANCED_FACE ( 'NONE', ( #139 ), #285, .T. ) ;
#114 = DIRECTION ( 'NONE',  ( -1.000000000000000000, -0.000000000000000000, -0.000000000000000000 ) ) ;
#115 = VERTEX_POINT ( 'NONE', #54 ) ;
#116 = CARTESIAN_POINT ( 'NONE',  ( -36.92906451086403052, 4.898587196589412829E-16, -4.000000000000000000 ) ) ;
#117 =( LENGTH_UNIT ( ) NAMED_UNIT ( * ) SI_UNIT ( .MILLI., .METRE. ) );
#118 = CIRCLE ( 'NONE', #328, 0.8576508694553394152 ) ;
#119 = CIRCLE ( 'NONE', #90, 2.000000000000000000 ) ;
#120 = STYLED_ITEM ( 'NONE', ( #264 ), #20 ) ;
#121 = ORIENTED_EDGE ( 'NONE', *, *, #291, .T. ) ;
#122 = EDGE_CURVE ( 'NONE', #283, #95, #140, .T. ) ;
#123 = ORIENTED_EDGE ( 'NONE', *, *, #305, .T. ) ;
#124 = CARTESIAN_POINT ( 'NONE',  ( 13.68347502412604122, 0.000000000000000000, 0.000000000000000000 ) ) ;
#125 = ORIENTED_EDGE ( 'NONE', *, *, #211, .F. ) ;
#126 = DIRECTION ( 'NONE',  ( 1.000000000000000000, 0.000000000000000000, 0.000000000000000000 ) ) ;
#127 = EDGE_CURVE ( 'NONE', #64, #148, #118, .T. ) ;
#128 = CIRCLE ( 'NONE', #335, 9.000000000000001776 ) ;
#129 = ORIENTED_EDGE ( 'NONE', *, *, #189, .F. ) ;
#130 = FILL_AREA_STYLE_COLOUR ( '', #161 ) ;
#131 = ORIENTED_EDGE ( 'NONE', *, *, #59, .F. ) ;
#132 = PRODUCT_CONTEXT ( 'NONE', #296, 'mechanical' ) ;
#133 = VERTEX_POINT ( 'NONE', #370 ) ;
#134 = AXIS2_PLACEMENT_3D ( 'NONE', #135, #212, #239 ) ;
#135 = CARTESIAN_POINT ( 'NONE',  ( 13.68347502412604122, -7.347880794884119736E-16, -6.000000000000000000 ) ) ;
#136 = EDGE_CURVE ( 'NONE', #297, #133, #221, .T. ) ;
#137 = CARTESIAN_POINT ( 'NONE',  ( -36.92906451086403052, 0.000000000000000000, 0.000000000000000000 ) ) ;
#138 = DIRECTION ( 'NONE',  ( 0.000000000000000000, 0.000000000000000000, 1.000000000000000000 ) ) ;
#139 = FACE_OUTER_BOUND ( 'NONE', #70, .T. ) ;
#140 = CIRCLE ( 'NONE', #226, 4.000000000000000000 ) ;
#141 = CIRCLE ( 'NONE', #213, 9.000000000000001776 ) ;
#142 = CARTESIAN_POINT ( 'NONE',  ( -36.92906451086403052, 0.000000000000000000, 0.000000000000000000 ) ) ;
#143 =( NAMED_UNIT ( * ) PLANE_ANGLE_UNIT ( ) SI_UNIT ( $, .RADIAN. ) );
#144 = DIRECTION ( 'NONE',  ( -1.000000000000000000, -0.000000000000000000, -0.000000000000000000 ) ) ;
#145 = CYLINDRICAL_SURFACE ( 'NONE', #36, 4.000000000000000000 ) ;
#146 = DIRECTION ( 'NONE',  ( 0.000000000000000000, 0.000000000000000000, 1.000000000000000000 ) ) ;
#147 = AXIS2_PLACEMENT_3D ( 'NONE', #87, #302, #321 ) ;
#148 = VERTEX_POINT ( 'NONE', #310 ) ;
#149 = CARTESIAN_POINT ( 'NONE',  ( -1.999999999999994893, 1.102182119232617911E-15, -9.000000000000001776 ) ) ;
#150 = APPLICATION_CONTEXT ( 'automotive_design' ) ;
#151 = FACE_OUTER_BOUND ( 'NONE', #74, .T. ) ;
#152 = ADVANCED_FACE ( 'NONE', ( #278, #106 ), #174, .F. ) ;
#153 = VERTEX_POINT ( 'NONE', #336 ) ;
#154 = CARTESIAN_POINT ( 'NONE',  ( 19.51763809020505036, 0.000000000000000000, 0.000000000000000000 ) ) ;
#155 = ADVANCED_FACE ( 'NONE', ( #369 ), #145, .T. ) ;
#156 = EDGE_LOOP ( 'NONE', ( #263, #177, #327, #234 ) ) ;
#157 = CARTESIAN_POINT ( 'NONE',  ( 0.000000000000000000, 0.000000000000000000, 0.000000000000000000 ) ) ;
#158 = AXIS2_PLACEMENT_3D ( 'NONE', #205, #319, #281 ) ;
#159 = EDGE_LOOP ( 'NONE', ( #164, #38, #235, #265 ) ) ;
#160 = SURFACE_STYLE_FILL_AREA ( #96 ) ;
#161 = COLOUR_RGB ( '',0.7529411764705882248, 0.7529411764705882248, 0.7529411764705882248 ) ;
#162 = EDGE_LOOP ( 'NONE', ( #129, #204, #93, #266 ) ) ;
#163 =( LENGTH_UNIT ( ) NAMED_UNIT ( * ) SI_UNIT ( .MILLI., .METRE. ) );
#164 = ORIENTED_EDGE ( 'NONE', *, *, #331, .F. ) ;
#165 = SURFACE_STYLE_FILL_AREA ( #332 ) ;
#166 = CARTESIAN_POINT ( 'NONE',  ( 21.00000000000000355, 2.233237363443094216E-16, -0.8576508694553394152 ) ) ;
#167 = CARTESIAN_POINT ( 'NONE',  ( 19.00000000000000355, 1.050319392064425853E-16, -0.8576508694553394152 ) ) ;
#168 = FILL_AREA_STYLE_COLOUR ( '', #66 ) ;
#169 = FACE_OUTER_BOUND ( 'NONE', #298, .T. ) ;
#170 = CIRCLE ( 'NONE', #105, 4.000000000000000000 ) ;
#171 = CARTESIAN_POINT ( 'NONE',  ( 19.51763809020505036, 0.000000000000000000, 2.789502522033475262 ) ) ;
#172 = FACE_OUTER_BOUND ( 'NONE', #162, .T. ) ;
#173 = DIRECTION ( 'NONE',  ( -1.000000000000000000, -0.000000000000000000, -0.000000000000000000 ) ) ;
#174 = PLANE ( 'NONE',  #45 ) ;
#175 = TOROIDAL_SURFACE ( 'NONE', #158, 0.8576508694553394152, 2.000000000000000000 ) ;
#176 = DIRECTION ( 'NONE',  ( 0.000000000000000000, 0.000000000000000000, 1.000000000000000000 ) ) ;
#177 = ORIENTED_EDGE ( 'NONE', *, *, #331, .T. ) ;
#178 = DIRECTION ( 'NONE',  ( 0.000000000000000000, 0.000000000000000000, -1.000000000000000000 ) ) ;
#179 = CARTESIAN_POINT ( 'NONE',  ( 21.00000000000000355, 0.000000000000000000, 2.392304845413259162 ) ) ;
#180 =( GEOMETRIC_REPRESENTATION_CONTEXT ( 3 ) GLOBAL_UNCERTAINTY_ASSIGNED_CONTEXT ( ( #49 ) ) GLOBAL_UNIT_ASSIGNED_CONTEXT ( ( #339, #143, #195 ) ) REPRESENTATION_CONTEXT ( 'NONE', 'WORKASPACE' ) );
#181 = ORIENTED_EDGE ( 'NONE', *, *, #82, .F. ) ;
#182 = DIRECTION ( 'NONE',  ( -1.000000000000000000, -0.000000000000000000, -0.000000000000000000 ) ) ;
#183 = ORIENTED_EDGE ( 'NONE', *, *, #359, .F. ) ;
#184 = SURFACE_SIDE_STYLE ('',( #160 ) ) ;
#185 = EDGE_LOOP ( 'NONE', ( #210, #316, #72, #190 ) ) ;
#186 = SHAPE_DEFINITION_REPRESENTATION ( #3, #20 ) ;
#187 = AXIS2_PLACEMENT_3D ( 'NONE', #337, #306, #218 ) ;
#188 = ORIENTED_EDGE ( 'NONE', *, *, #82, .T. ) ;
#189 = EDGE_CURVE ( 'NONE', #43, #297, #111, .T. ) ;
#190 = ORIENTED_EDGE ( 'NONE', *, *, #371, .F. ) ;
#191 = AXIS2_PLACEMENT_3D ( 'NONE', #58, #6, #35 ) ;
#192 = FACE_OUTER_BOUND ( 'NONE', #41, .T. ) ;
#193 = ADVANCED_FACE ( 'NONE', ( #368 ), #199, .T. ) ;
#194 = DIRECTION ( 'NONE',  ( 0.000000000000000000, 0.000000000000000000, -1.000000000000000000 ) ) ;
#195 =( NAMED_UNIT ( * ) SI_UNIT ( $, .STERADIAN. ) SOLID_ANGLE_UNIT ( ) );
#196 = DIRECTION ( 'NONE',  ( 0.000000000000000000, 0.000000000000000000, -1.000000000000000000 ) ) ;
#197 = CIRCLE ( 'NONE', #293, 0.8576508694553394152 ) ;
#198 = DIRECTION ( 'NONE',  ( 0.000000000000000000, 0.000000000000000000, 1.000000000000000000 ) ) ;
#199 = CYLINDRICAL_SURFACE ( 'NONE', #202, 9.000000000000001776 ) ;
#200 = CARTESIAN_POINT ( 'NONE',  ( 19.51763809020505036, 0.000000000000000000, 0.000000000000000000 ) ) ;
#201 = CARTESIAN_POINT ( 'NONE',  ( 13.68347502412604122, 0.000000000000000000, 6.000000000000000000 ) ) ;
#202 = AXIS2_PLACEMENT_3D ( 'NONE', #29, #114, #138 ) ;
#203 = DIRECTION ( 'NONE',  ( -0.9659258262890680902, 3.169619151431771721E-17, -0.2588190451025212391 ) ) ;
#204 = ORIENTED_EDGE ( 'NONE', *, *, #59, .T. ) ;
#205 = CARTESIAN_POINT ( 'NONE',  ( 19.00000000000000355, 0.000000000000000000, 0.000000000000000000 ) ) ;
#206 = ORIENTED_EDGE ( 'NONE', *, *, #247, .F. ) ;
#207 = VERTEX_POINT ( 'NONE', #279 ) ;
#208 = EDGE_LOOP ( 'NONE', ( #325, #131 ) ) ;
#209 = ADVANCED_FACE ( 'NONE', ( #28 ), #73, .T. ) ;
#210 = ORIENTED_EDGE ( 'NONE', *, *, #318, .T. ) ;
#211 = EDGE_CURVE ( 'NONE', #64, #207, #294, .T. ) ;
#212 = DIRECTION ( 'NONE',  ( 0.000000000000000000, 1.000000000000000000, -1.224646799147353207E-16 ) ) ;
#213 = AXIS2_PLACEMENT_3D ( 'NONE', #81, #144, #146 ) ;
#214 = FACE_OUTER_BOUND ( 'NONE', #156, .T. ) ;
#215 = DIRECTION ( 'NONE',  ( -1.000000000000000000, -0.000000000000000000, -0.000000000000000000 ) ) ;
#216 = DIRECTION ( 'NONE',  ( -1.000000000000000000, -0.000000000000000000, -0.000000000000000000 ) ) ;
#217 = DIRECTION ( 'NONE',  ( -0.000000000000000000, 1.000000000000000000, 1.224646799147353207E-16 ) ) ;
#218 = DIRECTION ( 'NONE',  ( 0.000000000000000000, 0.000000000000000000, 1.000000000000000000 ) ) ;
#219 = DIRECTION ( 'NONE',  ( 0.000000000000000000, 0.000000000000000000, -1.000000000000000000 ) ) ;
#220 = PRODUCT_RELATED_PRODUCT_CATEGORY ( 'part', '', ( #254 ) ) ;
#221 = CIRCLE ( 'NONE', #267, 9.000000000000001776 ) ;
#222 = DIRECTION ( 'NONE',  ( -1.000000000000000000, -0.000000000000000000, -0.000000000000000000 ) ) ;
#223 = EDGE_CURVE ( 'NONE', #133, #297, #141, .T. ) ;
#224 = DIRECTION ( 'NONE',  ( -1.000000000000000000, -0.000000000000000000, -0.000000000000000000 ) ) ;
#225 = ORIENTED_EDGE ( 'NONE', *, *, #127, .T. ) ;
#226 = AXIS2_PLACEMENT_3D ( 'NONE', #237, #361, #23 ) ;
#227 = AXIS2_PLACEMENT_3D ( 'NONE', #167, #217, #51 ) ;
#228 = VERTEX_POINT ( 'NONE', #22 ) ;
#229 = CARTESIAN_POINT ( 'NONE',  ( 0.000000000000000000, 0.000000000000000000, 0.000000000000000000 ) ) ;
#230 = VERTEX_POINT ( 'NONE', #171 ) ;
#231 = DIRECTION ( 'NONE',  ( 0.000000000000000000, 0.000000000000000000, -1.000000000000000000 ) ) ;
#232 = AXIS2_PLACEMENT_3D ( 'NONE', #343, #277, #196 ) ;
#233 = VECTOR ( 'NONE', #203, 1000.000000000000114 ) ;
#234 = ORIENTED_EDGE ( 'NONE', *, *, #98, .F. ) ;
#235 = ORIENTED_EDGE ( 'NONE', *, *, #98, .T. ) ;
#236 = ORIENTED_EDGE ( 'NONE', *, *, #223, .T. ) ;
#237 = CARTESIAN_POINT ( 'NONE',  ( 0.000000000000000000, 0.000000000000000000, 0.000000000000000000 ) ) ;
#238 = SURFACE_SIDE_STYLE ('',( #165 ) ) ;
#239 = DIRECTION ( 'NONE',  ( 0.000000000000000000, 1.224646799147353207E-16, 1.000000000000000000 ) ) ;
#240 = FACE_OUTER_BOUND ( 'NONE', #290, .T. ) ;
#241 = PRODUCT_DEFINITION_CONTEXT ( 'detailed design', #150, 'design' ) ;
#242 = AXIS2_PLACEMENT_3D ( 'NONE', #367, #110, #194 ) ;
#243 = AXIS2_PLACEMENT_3D ( 'NONE', #289, #353, #31 ) ;
#244 = CARTESIAN_POINT ( 'NONE',  ( 16.27166547515125572, 4.481298918902575228E-16, -3.659258262890680236 ) ) ;
#245 = PRESENTATION_LAYER_ASSIGNMENT (  '', '', ( #120 ) ) ;
#246 = CARTESIAN_POINT ( 'NONE',  ( 0.000000000000000000, 0.000000000000000000, 4.000000000000000000 ) ) ;
#247 = EDGE_CURVE ( 'NONE', #153, #12, #300, .T. ) ;
#248 = EDGE_CURVE ( 'NONE', #148, #230, #119, .T. ) ;
#249 = LINE ( 'NONE', #116, #345 ) ;
#250 = DIRECTION ( 'NONE',  ( -1.000000000000000000, -0.000000000000000000, -0.000000000000000000 ) ) ;
#251 = CARTESIAN_POINT ( 'NONE',  ( 13.68347502412604122, 0.000000000000000000, 0.000000000000000000 ) ) ;
#252 = DIRECTION ( 'NONE',  ( -1.000000000000000000, -0.000000000000000000, -0.000000000000000000 ) ) ;
#253 = ADVANCED_FACE ( 'NONE', ( #240 ), #77, .T. ) ;
#254 = PRODUCT ( 'Axe godet REP 13', 'Axe godet REP 13', '', ( #132 ) ) ;
#255 = ORIENTED_EDGE ( 'NONE', *, *, #248, .T. ) ;
#256 = DIRECTION ( 'NONE',  ( 0.000000000000000000, 0.000000000000000000, 1.000000000000000000 ) ) ;
#257 = ORIENTED_EDGE ( 'NONE', *, *, #284, .F. ) ;
#258 = DIRECTION ( 'NONE',  ( 0.000000000000000000, 0.000000000000000000, 1.000000000000000000 ) ) ;
#259 = CIRCLE ( 'NONE', #104, 9.000000000000001776 ) ;
#260 = TOROIDAL_SURFACE ( 'NONE', #314, -6.000000000000000000, 10.00000000000000000 ) ;
#261 = ADVANCED_FACE ( 'NONE', ( #372 ), #340, .F. ) ;
#262 = CIRCLE ( 'NONE', #17, 10.00000000000000000 ) ;
#263 = ORIENTED_EDGE ( 'NONE', *, *, #280, .T. ) ;
#264 = PRESENTATION_STYLE_ASSIGNMENT (( #42 ) ) ;
#265 = ORIENTED_EDGE ( 'NONE', *, *, #122, .F. ) ;
#266 = ORIENTED_EDGE ( 'NONE', *, *, #136, .F. ) ;
#267 = AXIS2_PLACEMENT_3D ( 'NONE', #112, #173, #342 ) ;
#268 = CARTESIAN_POINT ( 'NONE',  ( 0.000000000000000000, 1.102182119232617911E-15, -9.000000000000001776 ) ) ;
#269 = PLANE ( 'NONE',  #364 ) ;
#270 = CARTESIAN_POINT ( 'NONE',  ( 19.00000000000000355, 0.000000000000000000, 0.8576508694553394152 ) ) ;
#271 = DIRECTION ( 'NONE',  ( 0.000000000000000000, 0.000000000000000000, 1.000000000000000000 ) ) ;
#272 = DIRECTION ( 'NONE',  ( 0.000000000000000000, 0.000000000000000000, 1.000000000000000000 ) ) ;
#273 = MECHANICAL_DESIGN_GEOMETRIC_PRESENTATION_REPRESENTATION (  '', ( #89 ), #180 ) ;
#274 = ADVANCED_FACE ( 'NONE', ( #2 ), #260, .T. ) ;
#275 = AXIS2_PLACEMENT_3D ( 'NONE', #363, #84, #198 ) ;
#276 = DIRECTION ( 'NONE',  ( 0.000000000000000000, 0.000000000000000000, 1.000000000000000000 ) ) ;
#277 = DIRECTION ( 'NONE',  ( 1.000000000000000000, 0.000000000000000000, 0.000000000000000000 ) ) ;
#278 = FACE_OUTER_BOUND ( 'NONE', #208, .T. ) ;
#279 = CARTESIAN_POINT ( 'NONE',  ( 19.51763809020505036, 3.948727126862169766E-16, -2.789502522033475262 ) ) ;
#280 = EDGE_CURVE ( 'NONE', #67, #228, #170, .T. ) ;
#281 = DIRECTION ( 'NONE',  ( 0.000000000000000000, 0.000000000000000000, 1.000000000000000000 ) ) ;
#282 = CARTESIAN_POINT ( 'NONE',  ( 0.000000000000000000, 4.898587196589412829E-16, -4.000000000000000000 ) ) ;
#283 = VERTEX_POINT ( 'NONE', #282 ) ;
#284 = EDGE_CURVE ( 'NONE', #228, #67, #329, .T. ) ;
#285 = CONICAL_SURFACE ( 'NONE', #187, 2.392304845413259162, 0.2617993877991499629 ) ;
#286 = DIRECTION ( 'NONE',  ( -1.000000000000000000, -0.000000000000000000, -0.000000000000000000 ) ) ;
#287 = PRODUCT_DEFINITION_FORMATION_WITH_SPECIFIED_SOURCE ( 'ANY', '', #254, .NOT_KNOWN. ) ;
#288 = ORIENTED_EDGE ( 'NONE', *, *, #346, .T. ) ;
#289 = CARTESIAN_POINT ( 'NONE',  ( 16.27166547515125572, 0.000000000000000000, 0.000000000000000000 ) ) ;
#290 = EDGE_LOOP ( 'NONE', ( #100, #8, #68, #13 ) ) ;
#291 = EDGE_CURVE ( 'NONE', #12, #153, #1, .T. ) ;
#292 = ORIENTED_EDGE ( 'NONE', *, *, #299, .F. ) ;
#293 = AXIS2_PLACEMENT_3D ( 'NONE', #76, #103, #276 ) ;
#294 = CIRCLE ( 'NONE', #227, 2.000000000000000000 ) ;
#295 = EDGE_LOOP ( 'NONE', ( #37, #188, #97, #183 ) ) ;
#296 = APPLICATION_CONTEXT ( 'automotive_design' ) ;
#297 = VERTEX_POINT ( 'NONE', #149 ) ;
#298 = EDGE_LOOP ( 'NONE', ( #181, #257, #57, #206 ) ) ;
#299 = EDGE_CURVE ( 'NONE', #230, #153, #347, .T. ) ;
#300 = CIRCLE ( 'NONE', #232, 3.659258262890680236 ) ;
#301 = CARTESIAN_POINT ( 'NONE',  ( 21.00000000000000355, 2.392304845413259162, 0.000000000000000000 ) ) ;
#302 = DIRECTION ( 'NONE',  ( 1.000000000000000000, 0.000000000000000000, 0.000000000000000000 ) ) ;
#303 = CARTESIAN_POINT ( 'NONE',  ( -36.92906451086403052, 0.000000000000000000, 0.000000000000000000 ) ) ;
#304 = DIRECTION ( 'NONE',  ( 1.000000000000000000, 0.000000000000000000, 0.000000000000000000 ) ) ;
#305 = EDGE_CURVE ( 'NONE', #230, #207, #352, .T. ) ;
#306 = DIRECTION ( 'NONE',  ( -1.000000000000000000, -0.000000000000000000, -0.000000000000000000 ) ) ;
#307 = DIRECTION ( 'NONE',  ( 0.000000000000000000, -1.000000000000000000, 0.000000000000000000 ) ) ;
#308 = PRESENTATION_LAYER_ASSIGNMENT (  '', '', ( #89 ) ) ;
#309 = DIRECTION ( 'NONE',  ( -1.000000000000000000, -0.000000000000000000, -0.000000000000000000 ) ) ;
#310 = CARTESIAN_POINT ( 'NONE',  ( 21.00000000000000355, 0.000000000000000000, 0.8576508694553394152 ) ) ;
#311 = AXIS2_PLACEMENT_3D ( 'NONE', #33, #250, #256 ) ;
#312 = CARTESIAN_POINT ( 'NONE',  ( 21.00000000000000355, 0.000000000000000000, 0.000000000000000000 ) ) ;
#313 = DIRECTION ( 'NONE',  ( 0.000000000000000000, 0.000000000000000000, -1.000000000000000000 ) ) ;
#314 = AXIS2_PLACEMENT_3D ( 'NONE', #124, #126, #178 ) ;
#315 = DIRECTION ( 'NONE',  ( -1.000000000000000000, -0.000000000000000000, -0.000000000000000000 ) ) ;
#316 = ORIENTED_EDGE ( 'NONE', *, *, #189, .T. ) ;
#317 =( NAMED_UNIT ( * ) SI_UNIT ( $, .STERADIAN. ) SOLID_ANGLE_UNIT ( ) );
#318 = EDGE_CURVE ( 'NONE', #115, #43, #128, .T. ) ;
#319 = DIRECTION ( 'NONE',  ( -1.000000000000000000, -0.000000000000000000, -0.000000000000000000 ) ) ;
#320 = ORIENTED_EDGE ( 'NONE', *, *, #102, .F. ) ;
#321 = DIRECTION ( 'NONE',  ( 0.000000000000000000, 0.000000000000000000, -1.000000000000000000 ) ) ;
#322 = EDGE_LOOP ( 'NONE', ( #357, #34 ) ) ;
#323 = ADVANCED_FACE ( 'NONE', ( #151 ), #175, .T. ) ;
#324 =( NAMED_UNIT ( * ) SI_UNIT ( $, .STERADIAN. ) SOLID_ANGLE_UNIT ( ) );
#325 = ORIENTED_EDGE ( 'NONE', *, *, #318, .F. ) ;
#326 = APPLICATION_PROTOCOL_DEFINITION ( 'draft international standard', 'automotive_design', 1998, #296 ) ;
#327 = ORIENTED_EDGE ( 'NONE', *, *, #374, .F. ) ;
#328 = AXIS2_PLACEMENT_3D ( 'NONE', #56, #304, #272 ) ;
#329 = CIRCLE ( 'NONE', #191, 4.000000000000000000 ) ;
#330 = ORIENTED_EDGE ( 'NONE', *, *, #136, .T. ) ;
#331 = EDGE_CURVE ( 'NONE', #228, #283, #249, .T. ) ;
#332 = FILL_AREA_STYLE ('',( #168 ) ) ;
#333 = UNCERTAINTY_MEASURE_WITH_UNIT (LENGTH_MEASURE( 1.000000000000000082E-05 ), #117, 'distance_accuracy_value', 'NONE');
#334 = LINE ( 'NONE', #50, #16 ) ;
#335 = AXIS2_PLACEMENT_3D ( 'NONE', #229, #252, #176 ) ;
#336 = CARTESIAN_POINT ( 'NONE',  ( 16.27166547515125572, 0.000000000000000000, 3.659258262890680236 ) ) ;
#337 = CARTESIAN_POINT ( 'NONE',  ( 21.00000000000000355, 0.000000000000000000, 0.000000000000000000 ) ) ;
#338 = DIRECTION ( 'NONE',  ( -1.000000000000000000, 0.000000000000000000, -0.000000000000000000 ) ) ;
#339 =( LENGTH_UNIT ( ) NAMED_UNIT ( * ) SI_UNIT ( .MILLI., .METRE. ) );
#340 = PLANE ( 'NONE',  #147 ) ;
#341 = UNCERTAINTY_MEASURE_WITH_UNIT (LENGTH_MEASURE( 1.000000000000000082E-05 ), #163, 'distance_accuracy_value', 'NONE');
#342 = DIRECTION ( 'NONE',  ( 0.000000000000000000, 0.000000000000000000, 1.000000000000000000 ) ) ;
#343 = CARTESIAN_POINT ( 'NONE',  ( 16.27166547515125572, 0.000000000000000000, 0.000000000000000000 ) ) ;
#344 = DIRECTION ( 'NONE',  ( 0.000000000000000000, 0.000000000000000000, -1.000000000000000000 ) ) ;
#345 = VECTOR ( 'NONE', #182, 1000.000000000000000 ) ;
#346 = EDGE_CURVE ( 'NONE', #207, #230, #9, .T. ) ;
#347 = LINE ( 'NONE', #179, #365 ) ;
#348 = ORIENTED_EDGE ( 'NONE', *, *, #350, .F. ) ;
#349 = LINE ( 'NONE', #63, #366 ) ;
#350 = EDGE_CURVE ( 'NONE', #207, #12, #88, .T. ) ;
#351 = ORIENTED_EDGE ( 'NONE', *, *, #346, .F. ) ;
#352 = CIRCLE ( 'NONE', #94, 2.789502522033475262 ) ;
#353 = DIRECTION ( 'NONE',  ( 1.000000000000000000, 0.000000000000000000, 0.000000000000000000 ) ) ;
#354 = AXIS2_PLACEMENT_3D ( 'NONE', #157, #258, #10 ) ;
#355 = ORIENTED_EDGE ( 'NONE', *, *, #247, .T. ) ;
#356 = ORIENTED_EDGE ( 'NONE', *, *, #299, .T. ) ;
#357 = ORIENTED_EDGE ( 'NONE', *, *, #374, .T. ) ;
#358 = CIRCLE ( 'NONE', #134, 10.00000000000000000 ) ;
#359 = EDGE_CURVE ( 'NONE', #228, #12, #262, .T. ) ;
#360 = MECHANICAL_DESIGN_GEOMETRIC_PRESENTATION_REPRESENTATION (  '', ( #120 ), #11 ) ;
#361 = DIRECTION ( 'NONE',  ( -1.000000000000000000, -0.000000000000000000, -0.000000000000000000 ) ) ;
#362 = SURFACE_STYLE_USAGE ( .BOTH. , #238 ) ;
#363 = CARTESIAN_POINT ( 'NONE',  ( 19.00000000000000355, 0.000000000000000000, 0.000000000000000000 ) ) ;
#364 = AXIS2_PLACEMENT_3D ( 'NONE', #301, #21, #48 ) ;
#365 = VECTOR ( 'NONE', #373, 1000.000000000000114 ) ;
#366 = VECTOR ( 'NONE', #65, 1000.000000000000000 ) ;
#367 = CARTESIAN_POINT ( 'NONE',  ( 13.68347502412604122, 0.000000000000000000, 0.000000000000000000 ) ) ;
#368 = FACE_OUTER_BOUND ( 'NONE', #185, .T. ) ;
#369 = FACE_OUTER_BOUND ( 'NONE', #159, .T. ) ;
#370 = CARTESIAN_POINT ( 'NONE',  ( -1.999999999999994893, 0.000000000000000000, 9.000000000000001776 ) ) ;
#371 = EDGE_CURVE ( 'NONE', #115, #133, #349, .T. ) ;
#372 = FACE_OUTER_BOUND ( 'NONE', #5, .T. ) ;
#373 = DIRECTION ( 'NONE',  ( -0.9659258262890680902, 0.000000000000000000, 0.2588190451025212391 ) ) ;
#374 = EDGE_CURVE ( 'NONE', #95, #283, #46, .T. ) ;
ENDSEC;
END-ISO-10303-21;
