ISO-10303-21;
HEADER;
FILE_DESCRIPTION (( 'STEP AP214' ),
    '1' );
FILE_NAME ('AXE BALANCIER REP 4.STEP',
    '2021-01-31T12:39:42',
    ( '' ),
    ( '' ),
    'SwSTEP 2.0',
    'SolidWorks 2019',
    '' );
FILE_SCHEMA (( 'AUTOMOTIVE_DESIGN' ));
ENDSEC;

DATA;
#1 = ORIENTED_EDGE ( 'NONE', *, *, #183, .T. ) ;
#2 = CONICAL_SURFACE ( 'NONE', #209, 3.500000000000003109, 0.7853981633974405074 ) ;
#3 = FACE_OUTER_BOUND ( 'NONE', #247, .T. ) ;
#4 = EDGE_CURVE ( 'NONE', #309, #305, #232, .T. ) ;
#5 = CARTESIAN_POINT ( 'NONE',  ( -9.499999999999998224, 0.000000000000000000, 0.000000000000000000 ) ) ;
#6 = FACE_OUTER_BOUND ( 'NONE', #9, .T. ) ;
#7 = EDGE_CURVE ( 'NONE', #56, #314, #59, .T. ) ;
#8 = AXIS2_PLACEMENT_3D ( 'NONE', #178, #174, #290 ) ;
#9 = EDGE_LOOP ( 'NONE', ( #113, #368, #60, #369 ) ) ;
#10 = CARTESIAN_POINT ( 'NONE',  ( -9.499999999999998224, 0.000000000000000000, 0.000000000000000000 ) ) ;
#11 = DIRECTION ( 'NONE',  ( 0.7071067811865531239, 8.659560562354866298E-17, 0.7071067811865420216 ) ) ;
#12 = DIRECTION ( 'NONE',  ( 1.000000000000000000, 0.000000000000000000, 0.000000000000000000 ) ) ;
#13 = AXIS2_PLACEMENT_3D ( 'NONE', #191, #335, #242 ) ;
#14 = CARTESIAN_POINT ( 'NONE',  ( 67.50000000000002842, 0.000000000000000000, 0.000000000000000000 ) ) ;
#15 = SURFACE_SIDE_STYLE ('',( #158 ) ) ;
#16 = CARTESIAN_POINT ( 'NONE',  ( -11.92099589627834533, 0.000000000000000000, 2.999999999999999112 ) ) ;
#17 = ORIENTED_EDGE ( 'NONE', *, *, #7, .T. ) ;
#18 = DIRECTION ( 'NONE',  ( 0.000000000000000000, 0.000000000000000000, -1.000000000000000000 ) ) ;
#19 =( NAMED_UNIT ( * ) SI_UNIT ( $, .STERADIAN. ) SOLID_ANGLE_UNIT ( ) );
#20 = PRESENTATION_LAYER_ASSIGNMENT (  '', '', ( #291 ) ) ;
#21 =( GEOMETRIC_REPRESENTATION_CONTEXT ( 3 ) GLOBAL_UNCERTAINTY_ASSIGNED_CONTEXT ( ( #343 ) ) GLOBAL_UNIT_ASSIGNED_CONTEXT ( ( #331, #79, #213 ) ) REPRESENTATION_CONTEXT ( 'NONE', 'WORKASPACE' ) );
#22 =( NAMED_UNIT ( * ) PLANE_ANGLE_UNIT ( ) SI_UNIT ( $, .RADIAN. ) );
#23 = ORIENTED_EDGE ( 'NONE', *, *, #165, .F. ) ;
#24 = VERTEX_POINT ( 'NONE', #65 ) ;
#25 = AXIS2_PLACEMENT_3D ( 'NONE', #122, #208, #128 ) ;
#26 = EDGE_CURVE ( 'NONE', #305, #123, #96, .T. ) ;
#27 = ORIENTED_EDGE ( 'NONE', *, *, #172, .F. ) ;
#28 = ORIENTED_EDGE ( 'NONE', *, *, #344, .F. ) ;
#29 = VECTOR ( 'NONE', #268, 1000.000000000000000 ) ;
#30 = DIRECTION ( 'NONE',  ( -1.000000000000000000, -0.000000000000000000, -0.000000000000000000 ) ) ;
#31 = EDGE_CURVE ( 'NONE', #193, #115, #201, .T. ) ;
#32 = CARTESIAN_POINT ( 'NONE',  ( -11.92099589627834533, 0.000000000000000000, 0.000000000000000000 ) ) ;
#33 = DIRECTION ( 'NONE',  ( 0.7071067811865531239, 0.000000000000000000, -0.7071067811865420216 ) ) ;
#34 = EDGE_CURVE ( 'NONE', #91, #198, #293, .T. ) ;
#35 = LINE ( 'NONE', #200, #203 ) ;
#36 = PRODUCT_DEFINITION_SHAPE ( 'NONE', 'NONE',  #197 ) ;
#37 = ORIENTED_EDGE ( 'NONE', *, *, #332, .T. ) ;
#38 = FACE_OUTER_BOUND ( 'NONE', #223, .T. ) ;
#39 = AXIS2_PLACEMENT_3D ( 'NONE', #32, #229, #149 ) ;
#40 = FACE_OUTER_BOUND ( 'NONE', #173, .T. ) ;
#41 = EDGE_CURVE ( 'NONE', #314, #199, #351, .T. ) ;
#42 = PLANE ( 'NONE',  #283 ) ;
#43 = FILL_AREA_STYLE_COLOUR ( '', #317 ) ;
#44 = AXIS2_PLACEMENT_3D ( 'NONE', #10, #289, #315 ) ;
#45 = CYLINDRICAL_SURFACE ( 'NONE', #180, 2.999999999999999112 ) ;
#46 = CARTESIAN_POINT ( 'NONE',  ( -9.499999999999998224, 0.000000000000000000, -2.749999999999988454 ) ) ;
#47 =( NAMED_UNIT ( * ) SI_UNIT ( $, .STERADIAN. ) SOLID_ANGLE_UNIT ( ) );
#48 = CIRCLE ( 'NONE', #74, 3.000000000000000000 ) ;
#49 = DIRECTION ( 'NONE',  ( 0.000000000000000000, 0.000000000000000000, -1.000000000000000000 ) ) ;
#50 = SHAPE_DEFINITION_REPRESENTATION ( #36, #313 ) ;
#51 = ADVANCED_FACE ( 'NONE', ( #3, #93 ), #63, .F. ) ;
#52 = AXIS2_PLACEMENT_3D ( 'NONE', #261, #244, #365 ) ;
#53 = DIRECTION ( 'NONE',  ( 0.000000000000000000, 0.000000000000000000, -1.000000000000000000 ) ) ;
#54 = SURFACE_STYLE_USAGE ( .BOTH. , #15 ) ;
#55 = AXIS2_PLACEMENT_3D ( 'NONE', #259, #263, #358 ) ;
#56 = VERTEX_POINT ( 'NONE', #204 ) ;
#57 = EDGE_LOOP ( 'NONE', ( #273, #195 ) ) ;
#58 = ORIENTED_EDGE ( 'NONE', *, *, #26, .T. ) ;
#59 = CIRCLE ( 'NONE', #264, 2.749999999999988454 ) ;
#60 = ORIENTED_EDGE ( 'NONE', *, *, #31, .T. ) ;
#61 = CIRCLE ( 'NONE', #349, 2.999999999999999112 ) ;
#62 = ORIENTED_EDGE ( 'NONE', *, *, #41, .T. ) ;
#63 = PLANE ( 'NONE',  #304 ) ;
#64 = CARTESIAN_POINT ( 'NONE',  ( 67.50000000000002842, 0.000000000000000000, 0.000000000000000000 ) ) ;
#65 = CARTESIAN_POINT ( 'NONE',  ( 0.5000000000000004441, 0.000000000000000000, 3.999999999999995559 ) ) ;
#66 = CARTESIAN_POINT ( 'NONE',  ( 68.00000000000000000, 0.000000000000000000, 0.000000000000000000 ) ) ;
#67 = SURFACE_STYLE_FILL_AREA ( #323 ) ;
#68 = AXIS2_PLACEMENT_3D ( 'NONE', #78, #135, #49 ) ;
#69 = AXIS2_PLACEMENT_3D ( 'NONE', #233, #353, #322 ) ;
#70 = CARTESIAN_POINT ( 'NONE',  ( 0.000000000000000000, 0.000000000000000000, 0.000000000000000000 ) ) ;
#71 = CARTESIAN_POINT ( 'NONE',  ( -9.249999999999984013, 0.000000000000000000, 0.000000000000000000 ) ) ;
#72 = ADVANCED_FACE ( 'NONE', ( #254 ), #345, .T. ) ;
#73 = CYLINDRICAL_SURFACE ( 'NONE', #55, 3.999999999999995559 ) ;
#74 = AXIS2_PLACEMENT_3D ( 'NONE', #70, #202, #184 ) ;
#75 =( GEOMETRIC_REPRESENTATION_CONTEXT ( 3 ) GLOBAL_UNCERTAINTY_ASSIGNED_CONTEXT ( ( #168 ) ) GLOBAL_UNIT_ASSIGNED_CONTEXT ( ( #366, #111, #19 ) ) REPRESENTATION_CONTEXT ( 'NONE', 'WORKASPACE' ) );
#76 = DIRECTION ( 'NONE',  ( -1.000000000000000000, -0.000000000000000000, -0.000000000000000000 ) ) ;
#77 = CARTESIAN_POINT ( 'NONE',  ( -11.92099589627834533, 0.000000000000000000, 0.000000000000000000 ) ) ;
#78 = CARTESIAN_POINT ( 'NONE',  ( 1.387320352978662274E-16, 0.000000000000000000, 0.000000000000000000 ) ) ;
#79 =( NAMED_UNIT ( * ) PLANE_ANGLE_UNIT ( ) SI_UNIT ( $, .RADIAN. ) );
#80 = DIRECTION ( 'NONE',  ( -1.000000000000000000, -0.000000000000000000, -0.000000000000000000 ) ) ;
#81 = CONICAL_SURFACE ( 'NONE', #170, 3.999999999999995559, 0.7853981633974473908 ) ;
#82 = ORIENTED_EDGE ( 'NONE', *, *, #280, .F. ) ;
#83 = CIRCLE ( 'NONE', #25, 3.999999999999995559 ) ;
#84 = ADVANCED_FACE ( 'NONE', ( #319 ), #153, .T. ) ;
#85 = ORIENTED_EDGE ( 'NONE', *, *, #339, .T. ) ;
#86 = ORIENTED_EDGE ( 'NONE', *, *, #339, .F. ) ;
#87 = ORIENTED_EDGE ( 'NONE', *, *, #4, .F. ) ;
#88 = ADVANCED_FACE ( 'NONE', ( #40 ), #45, .T. ) ;
#89 = ORIENTED_EDGE ( 'NONE', *, *, #294, .F. ) ;
#90 = DIRECTION ( 'NONE',  ( 0.000000000000000000, 0.000000000000000000, -1.000000000000000000 ) ) ;
#91 = VERTEX_POINT ( 'NONE', #234 ) ;
#92 = CARTESIAN_POINT ( 'NONE',  ( 68.00000000000000000, 0.000000000000000000, 3.500000000000023981 ) ) ;
#93 = FACE_BOUND ( 'NONE', #221, .T. ) ;
#94 = PRODUCT ( 'AXE BALANCIER REP 4', 'AXE BALANCIER REP 4', '', ( #363 ) ) ;
#95 = DIRECTION ( 'NONE',  ( 1.000000000000000000, 0.000000000000000000, 0.000000000000000000 ) ) ;
#96 = LINE ( 'NONE', #282, #224 ) ;
#97 = EDGE_CURVE ( 'NONE', #250, #24, #288, .T. ) ;
#98 = CARTESIAN_POINT ( 'NONE',  ( 67.50000000000002842, 4.898587196589407898E-16, -3.999999999999995559 ) ) ;
#99 = MANIFOLD_SOLID_BREP ( 'Chanfrein2', #131 ) ;
#100 = DIRECTION ( 'NONE',  ( 0.000000000000000000, 0.000000000000000000, 1.000000000000000000 ) ) ;
#101 = CIRCLE ( 'NONE', #298, 3.500000000000023981 ) ;
#102 = DIRECTION ( 'NONE',  ( 0.000000000000000000, 0.000000000000000000, 1.000000000000000000 ) ) ;
#103 = FACE_OUTER_BOUND ( 'NONE', #143, .T. ) ;
#104 = EDGE_CURVE ( 'NONE', #166, #341, #227, .T. ) ;
#105 = CIRCLE ( 'NONE', #144, 3.500000000000003109 ) ;
#106 = CARTESIAN_POINT ( 'NONE',  ( 0.000000000000000000, 0.000000000000000000, 3.000000000000000000 ) ) ;
#107 = ORIENTED_EDGE ( 'NONE', *, *, #280, .T. ) ;
#108 = DIRECTION ( 'NONE',  ( 0.000000000000000000, 0.000000000000000000, -1.000000000000000000 ) ) ;
#109 = APPLICATION_PROTOCOL_DEFINITION ( 'draft international standard', 'automotive_design', 1998, #129 ) ;
#110 = DIRECTION ( 'NONE',  ( 0.000000000000000000, 0.000000000000000000, 1.000000000000000000 ) ) ;
#111 =( NAMED_UNIT ( * ) PLANE_ANGLE_UNIT ( ) SI_UNIT ( $, .RADIAN. ) );
#112 = ORIENTED_EDGE ( 'NONE', *, *, #140, .F. ) ;
#113 = ORIENTED_EDGE ( 'NONE', *, *, #97, .F. ) ;
#114 = EDGE_CURVE ( 'NONE', #193, #250, #105, .T. ) ;
#115 = VERTEX_POINT ( 'NONE', #267 ) ;
#116 = EDGE_LOOP ( 'NONE', ( #112, #346, #23, #141 ) ) ;
#117 = EDGE_CURVE ( 'NONE', #24, #115, #354, .T. ) ;
#118 = AXIS2_PLACEMENT_3D ( 'NONE', #252, #12, #90 ) ;
#119 = ORIENTED_EDGE ( 'NONE', *, *, #26, .F. ) ;
#120 = ADVANCED_FACE ( 'NONE', ( #302 ), #137, .T. ) ;
#121 = CARTESIAN_POINT ( 'NONE',  ( -11.92099589627834533, 0.000000000000000000, 0.000000000000000000 ) ) ;
#122 = CARTESIAN_POINT ( 'NONE',  ( 0.5000000000000004441, 0.000000000000000000, 0.000000000000000000 ) ) ;
#123 = VERTEX_POINT ( 'NONE', #190 ) ;
#124 = ORIENTED_EDGE ( 'NONE', *, *, #114, .T. ) ;
#125 = CARTESIAN_POINT ( 'NONE',  ( 68.00000000000000000, 0.000000000000000000, 0.000000000000000000 ) ) ;
#126 = CARTESIAN_POINT ( 'NONE',  ( -9.249999999999984013, 0.000000000000000000, 2.999999999999999112 ) ) ;
#127 = AXIS2_PLACEMENT_3D ( 'NONE', #192, #362, #53 ) ;
#128 = DIRECTION ( 'NONE',  ( 0.000000000000000000, 0.000000000000000000, -1.000000000000000000 ) ) ;
#129 = APPLICATION_CONTEXT ( 'automotive_design' ) ;
#130 = CARTESIAN_POINT ( 'NONE',  ( -9.499999999999998224, 3.520859547548632551E-16, 2.749999999999988454 ) ) ;
#131 = CLOSED_SHELL ( 'NONE', ( #260, #72, #84, #88, #327, #311, #120, #51, #162, #216, #306, #238, #243 ) ) ;
#132 = DIRECTION ( 'NONE',  ( -1.000000000000000000, -0.000000000000000000, -0.000000000000000000 ) ) ;
#133 = DIRECTION ( 'NONE',  ( -1.000000000000000000, -0.000000000000000000, -0.000000000000000000 ) ) ;
#134 = CARTESIAN_POINT ( 'NONE',  ( -11.92099589627834533, 0.000000000000000000, 3.999999999999995559 ) ) ;
#135 = DIRECTION ( 'NONE',  ( -1.000000000000000000, -0.000000000000000000, -0.000000000000000000 ) ) ;
#136 = APPLICATION_PROTOCOL_DEFINITION ( 'draft international standard', 'automotive_design', 1998, #352 ) ;
#137 = CYLINDRICAL_SURFACE ( 'NONE', #274, 3.999999999999995559 ) ;
#138 = AXIS2_PLACEMENT_3D ( 'NONE', #231, #133, #350 ) ;
#139 = ORIENTED_EDGE ( 'NONE', *, *, #172, .T. ) ;
#140 = EDGE_CURVE ( 'NONE', #250, #193, #253, .T. ) ;
#141 = ORIENTED_EDGE ( 'NONE', *, *, #31, .F. ) ;
#142 = MECHANICAL_DESIGN_GEOMETRIC_PRESENTATION_REPRESENTATION (  '', ( #337 ), #21 ) ;
#143 = EDGE_LOOP ( 'NONE', ( #367, #85, #312, #145 ) ) ;
#144 = AXIS2_PLACEMENT_3D ( 'NONE', #241, #364, #108 ) ;
#145 = ORIENTED_EDGE ( 'NONE', *, *, #356, .F. ) ;
#146 = EDGE_CURVE ( 'NONE', #314, #56, #324, .T. ) ;
#147 = EDGE_LOOP ( 'NONE', ( #17, #167 ) ) ;
#148 = EDGE_LOOP ( 'NONE', ( #370, #279, #251, #82 ) ) ;
#149 = DIRECTION ( 'NONE',  ( 0.000000000000000000, 0.000000000000000000, 1.000000000000000000 ) ) ;
#150 = DIRECTION ( 'NONE',  ( 0.7071067811865524577, 8.659560562354873694E-17, 0.7071067811865426878 ) ) ;
#151 = DIRECTION ( 'NONE',  ( -0.7071067811865482389, 0.000000000000000000, 0.7071067811865469066 ) ) ;
#152 = DIRECTION ( 'NONE',  ( 0.000000000000000000, 0.000000000000000000, 1.000000000000000000 ) ) ;
#153 = CONICAL_SURFACE ( 'NONE', #361, 3.999999999999995559, 0.7853981633974473908 ) ;
#154 = CARTESIAN_POINT ( 'NONE',  ( 0.000000000000000000, 4.286263797015740046E-16, 3.500000000000003109 ) ) ;
#155 = DIRECTION ( 'NONE',  ( 1.000000000000000000, 0.000000000000000000, 0.000000000000000000 ) ) ;
#156 = DIRECTION ( 'NONE',  ( 0.000000000000000000, 0.000000000000000000, -1.000000000000000000 ) ) ;
#157 = DIRECTION ( 'NONE',  ( -0.000000000000000000, 0.000000000000000000, 1.000000000000000000 ) ) ;
#158 = SURFACE_STYLE_FILL_AREA ( #266 ) ;
#159 = VECTOR ( 'NONE', #359, 999.9999999999998863 ) ;
#160 = DIRECTION ( 'NONE',  ( -1.000000000000000000, 0.000000000000000000, -0.000000000000000000 ) ) ;
#161 = SURFACE_SIDE_STYLE ('',( #67 ) ) ;
#162 = ADVANCED_FACE ( 'NONE', ( #164 ), #269, .T. ) ;
#163 = DIRECTION ( 'NONE',  ( 0.000000000000000000, 0.000000000000000000, 1.000000000000000000 ) ) ;
#164 = FACE_OUTER_BOUND ( 'NONE', #239, .T. ) ;
#165 = EDGE_CURVE ( 'NONE', #115, #24, #83, .T. ) ;
#166 = VERTEX_POINT ( 'NONE', #92 ) ;
#167 = ORIENTED_EDGE ( 'NONE', *, *, #146, .T. ) ;
#168 = UNCERTAINTY_MEASURE_WITH_UNIT (LENGTH_MEASURE( 1.000000000000000082E-05 ), #366, 'distance_accuracy_value', 'NONE');
#169 = VECTOR ( 'NONE', #11, 999.9999999999998863 ) ;
#170 = AXIS2_PLACEMENT_3D ( 'NONE', #14, #214, #102 ) ;
#171 = ORIENTED_EDGE ( 'NONE', *, *, #117, .T. ) ;
#172 = EDGE_CURVE ( 'NONE', #123, #199, #61, .T. ) ;
#173 = EDGE_LOOP ( 'NONE', ( #275, #58, #139, #217 ) ) ;
#174 = DIRECTION ( 'NONE',  ( 1.000000000000000000, 0.000000000000000000, 0.000000000000000000 ) ) ;
#175 = DIRECTION ( 'NONE',  ( 1.000000000000000000, 0.000000000000000000, 0.000000000000000000 ) ) ;
#176 = AXIS2_PLACEMENT_3D ( 'NONE', #228, #285, #152 ) ;
#177 = DIRECTION ( 'NONE',  ( -1.000000000000000000, -0.000000000000000000, -0.000000000000000000 ) ) ;
#178 = CARTESIAN_POINT ( 'NONE',  ( 0.000000000000000000, 0.000000000000000000, 0.000000000000000000 ) ) ;
#179 = DIRECTION ( 'NONE',  ( 1.000000000000000000, 0.000000000000000000, 0.000000000000000000 ) ) ;
#180 = AXIS2_PLACEMENT_3D ( 'NONE', #121, #177, #256 ) ;
#181 = CIRCLE ( 'NONE', #326, 2.999999999999999112 ) ;
#182 = DIRECTION ( 'NONE',  ( -1.000000000000000000, -0.000000000000000000, -0.000000000000000000 ) ) ;
#183 = EDGE_CURVE ( 'NONE', #305, #309, #48, .T. ) ;
#184 = DIRECTION ( 'NONE',  ( 0.000000000000000000, 0.000000000000000000, 1.000000000000000000 ) ) ;
#185 = FACE_OUTER_BOUND ( 'NONE', #57, .T. ) ;
#186 = LINE ( 'NONE', #329, #303 ) ;
#187 = LINE ( 'NONE', #46, #218 ) ;
#188 = LINE ( 'NONE', #134, #29 ) ;
#189 = AXIS2_PLACEMENT_3D ( 'NONE', #301, #333, #18 ) ;
#190 = CARTESIAN_POINT ( 'NONE',  ( -9.249999999999984013, 3.673940397442058882E-16, -2.999999999999999112 ) ) ;
#191 = CARTESIAN_POINT ( 'NONE',  ( 0.000000000000000000, 0.000000000000000000, 0.000000000000000000 ) ) ;
#192 = CARTESIAN_POINT ( 'NONE',  ( -9.499999999999998224, 0.000000000000000000, 0.000000000000000000 ) ) ;
#193 = VERTEX_POINT ( 'NONE', #287 ) ;
#194 = ORIENTED_EDGE ( 'NONE', *, *, #262, .F. ) ;
#195 = ORIENTED_EDGE ( 'NONE', *, *, #262, .T. ) ;
#196 = PRODUCT_DEFINITION_CONTEXT ( 'detailed design', #129, 'design' ) ;
#197 = PRODUCT_DEFINITION ( 'UNKNOWN', '', #310, #196 ) ;
#198 = VERTEX_POINT ( 'NONE', #98 ) ;
#199 = VERTEX_POINT ( 'NONE', #126 ) ;
#200 = CARTESIAN_POINT ( 'NONE',  ( 67.50000000000002842, 0.000000000000000000, 3.999999999999995559 ) ) ;
#201 = LINE ( 'NONE', #206, #211 ) ;
#202 = DIRECTION ( 'NONE',  ( -1.000000000000000000, -0.000000000000000000, -0.000000000000000000 ) ) ;
#203 = VECTOR ( 'NONE', #151, 999.9999999999998863 ) ;
#204 = CARTESIAN_POINT ( 'NONE',  ( -9.499999999999998224, 0.000000000000000000, -2.749999999999988454 ) ) ;
#205 = CARTESIAN_POINT ( 'NONE',  ( 0.000000000000000000, 0.000000000000000000, 0.000000000000000000 ) ) ;
#206 = CARTESIAN_POINT ( 'NONE',  ( 0.000000000000000000, 0.000000000000000000, -3.500000000000003109 ) ) ;
#207 = FILL_AREA_STYLE_COLOUR ( '', #308 ) ;
#208 = DIRECTION ( 'NONE',  ( 1.000000000000000000, 0.000000000000000000, 0.000000000000000000 ) ) ;
#209 = AXIS2_PLACEMENT_3D ( 'NONE', #205, #179, #156 ) ;
#210 = CARTESIAN_POINT ( 'NONE',  ( 0.000000000000000000, 3.673940397442059868E-16, -3.000000000000000000 ) ) ;
#211 = VECTOR ( 'NONE', #33, 999.9999999999998863 ) ;
#212 = LINE ( 'NONE', #16, #347 ) ;
#213 =( NAMED_UNIT ( * ) SI_UNIT ( $, .STERADIAN. ) SOLID_ANGLE_UNIT ( ) );
#214 = DIRECTION ( 'NONE',  ( -1.000000000000000000, -0.000000000000000000, -0.000000000000000000 ) ) ;
#215 = DIRECTION ( 'NONE',  ( 0.000000000000000000, 0.000000000000000000, -1.000000000000000000 ) ) ;
#216 = ADVANCED_FACE ( 'NONE', ( #320 ), #292, .F. ) ;
#217 = ORIENTED_EDGE ( 'NONE', *, *, #332, .F. ) ;
#218 = VECTOR ( 'NONE', #240, 1000.000000000000000 ) ;
#219 = ORIENTED_EDGE ( 'NONE', *, *, #140, .T. ) ;
#220 = ORIENTED_EDGE ( 'NONE', *, *, #183, .F. ) ;
#221 = EDGE_LOOP ( 'NONE', ( #87, #220 ) ) ;
#222 = CIRCLE ( 'NONE', #52, 3.999999999999995559 ) ;
#223 = EDGE_LOOP ( 'NONE', ( #278, #62, #27, #277 ) ) ;
#224 = VECTOR ( 'NONE', #255, 1000.000000000000000 ) ;
#225 = EDGE_CURVE ( 'NONE', #166, #91, #35, .T. ) ;
#226 = PRESENTATION_STYLE_ASSIGNMENT (( #265 ) ) ;
#227 = CIRCLE ( 'NONE', #276, 3.500000000000023981 ) ;
#228 = CARTESIAN_POINT ( 'NONE',  ( 0.000000000000000000, 0.000000000000000000, 0.000000000000000000 ) ) ;
#229 = DIRECTION ( 'NONE',  ( -1.000000000000000000, -0.000000000000000000, -0.000000000000000000 ) ) ;
#230 = PRESENTATION_LAYER_ASSIGNMENT (  '', '', ( #337 ) ) ;
#231 = CARTESIAN_POINT ( 'NONE',  ( 67.50000000000002842, 0.000000000000000000, 0.000000000000000000 ) ) ;
#232 = CIRCLE ( 'NONE', #176, 3.000000000000000000 ) ;
#233 = CARTESIAN_POINT ( 'NONE',  ( -9.499999999999998224, 0.000000000000000000, 0.000000000000000000 ) ) ;
#234 = CARTESIAN_POINT ( 'NONE',  ( 67.50000000000002842, 0.000000000000000000, 3.999999999999995559 ) ) ;
#235 = CONICAL_SURFACE ( 'NONE', #69, 2.749999999999988454, 0.7853981633974415066 ) ;
#236 = LINE ( 'NONE', #295, #159 ) ;
#237 = PRESENTATION_STYLE_ASSIGNMENT (( #54 ) ) ;
#238 = ADVANCED_FACE ( 'NONE', ( #6 ), #2, .T. ) ;
#239 = EDGE_LOOP ( 'NONE', ( #119, #1, #37, #107 ) ) ;
#240 = DIRECTION ( 'NONE',  ( 0.7071067811865524577, 0.000000000000000000, -0.7071067811865426878 ) ) ;
#241 = CARTESIAN_POINT ( 'NONE',  ( 1.387320352978662274E-16, 0.000000000000000000, 0.000000000000000000 ) ) ;
#242 = DIRECTION ( 'NONE',  ( 1.000000000000000000, 0.000000000000000000, 0.000000000000000000 ) ) ;
#243 = ADVANCED_FACE ( 'NONE', ( #258 ), #271, .T. ) ;
#244 = DIRECTION ( 'NONE',  ( -1.000000000000000000, -0.000000000000000000, -0.000000000000000000 ) ) ;
#245 = EDGE_LOOP ( 'NONE', ( #89, #338, #342, #28 ) ) ;
#246 = EDGE_LOOP ( 'NONE', ( #194, #348, #360, #249 ) ) ;
#247 = EDGE_LOOP ( 'NONE', ( #124, #219 ) ) ;
#248 = UNCERTAINTY_MEASURE_WITH_UNIT (LENGTH_MEASURE( 1.000000000000000082E-05 ), #272, 'distance_accuracy_value', 'NONE');
#249 = ORIENTED_EDGE ( 'NONE', *, *, #225, .F. ) ;
#250 = VERTEX_POINT ( 'NONE', #284 ) ;
#251 = ORIENTED_EDGE ( 'NONE', *, *, #340, .T. ) ;
#252 = CARTESIAN_POINT ( 'NONE',  ( -9.499999999999998224, 2.999999999999998668, 0.000000000000000000 ) ) ;
#253 = CIRCLE ( 'NONE', #68, 3.500000000000003109 ) ;
#254 = FACE_OUTER_BOUND ( 'NONE', #116, .T. ) ;
#255 = DIRECTION ( 'NONE',  ( -1.000000000000000000, -0.000000000000000000, -0.000000000000000000 ) ) ;
#256 = DIRECTION ( 'NONE',  ( 0.000000000000000000, 0.000000000000000000, 1.000000000000000000 ) ) ;
#257 = DIRECTION ( 'NONE',  ( 0.000000000000000000, 0.000000000000000000, 1.000000000000000000 ) ) ;
#258 = FACE_OUTER_BOUND ( 'NONE', #148, .T. ) ;
#259 = CARTESIAN_POINT ( 'NONE',  ( -11.92099589627834533, 0.000000000000000000, 0.000000000000000000 ) ) ;
#260 = ADVANCED_FACE ( 'NONE', ( #38 ), #235, .T. ) ;
#261 = CARTESIAN_POINT ( 'NONE',  ( 67.50000000000002842, 0.000000000000000000, 0.000000000000000000 ) ) ;
#262 = EDGE_CURVE ( 'NONE', #341, #166, #101, .T. ) ;
#263 = DIRECTION ( 'NONE',  ( -1.000000000000000000, -0.000000000000000000, -0.000000000000000000 ) ) ;
#264 = AXIS2_PLACEMENT_3D ( 'NONE', #5, #182, #215 ) ;
#265 = SURFACE_STYLE_USAGE ( .BOTH. , #161 ) ;
#266 = FILL_AREA_STYLE ('',( #43 ) ) ;
#267 = CARTESIAN_POINT ( 'NONE',  ( 0.5000000000000004441, 4.898587196589407898E-16, -3.999999999999995559 ) ) ;
#268 = DIRECTION ( 'NONE',  ( -1.000000000000000000, -0.000000000000000000, -0.000000000000000000 ) ) ;
#269 = CYLINDRICAL_SURFACE ( 'NONE', #39, 2.999999999999999112 ) ;
#270 = CARTESIAN_POINT ( 'NONE',  ( 68.00000000000000000, 4.592425496802586791E-16, -3.500000000000023981 ) ) ;
#271 = CONICAL_SURFACE ( 'NONE', #44, 2.749999999999988454, 0.7853981633974415066 ) ;
#272 =( LENGTH_UNIT ( ) NAMED_UNIT ( * ) SI_UNIT ( .MILLI., .METRE. ) );
#273 = ORIENTED_EDGE ( 'NONE', *, *, #104, .T. ) ;
#274 = AXIS2_PLACEMENT_3D ( 'NONE', #77, #80, #110 ) ;
#275 = ORIENTED_EDGE ( 'NONE', *, *, #4, .T. ) ;
#276 = AXIS2_PLACEMENT_3D ( 'NONE', #125, #334, #163 ) ;
#277 = ORIENTED_EDGE ( 'NONE', *, *, #340, .F. ) ;
#278 = ORIENTED_EDGE ( 'NONE', *, *, #146, .F. ) ;
#279 = ORIENTED_EDGE ( 'NONE', *, *, #7, .F. ) ;
#280 = EDGE_CURVE ( 'NONE', #199, #123, #181, .T. ) ;
#281 =( GEOMETRIC_REPRESENTATION_CONTEXT ( 3 ) GLOBAL_UNCERTAINTY_ASSIGNED_CONTEXT ( ( #248 ) ) GLOBAL_UNIT_ASSIGNED_CONTEXT ( ( #272, #22, #47 ) ) REPRESENTATION_CONTEXT ( 'NONE', 'WORKASPACE' ) );
#282 = CARTESIAN_POINT ( 'NONE',  ( -11.92099589627834533, 3.673940397442058882E-16, -2.999999999999999112 ) ) ;
#283 = AXIS2_PLACEMENT_3D ( 'NONE', #328, #160, #157 ) ;
#284 = CARTESIAN_POINT ( 'NONE',  ( 1.387320352978662274E-16, 4.592425496802573972E-16, 3.500000000000003109 ) ) ;
#285 = DIRECTION ( 'NONE',  ( -1.000000000000000000, -0.000000000000000000, -0.000000000000000000 ) ) ;
#286 = VECTOR ( 'NONE', #150, 1000.000000000000000 ) ;
#287 = CARTESIAN_POINT ( 'NONE',  ( 1.387320352978662274E-16, 0.000000000000000000, -3.500000000000003109 ) ) ;
#288 = LINE ( 'NONE', #154, #169 ) ;
#289 = DIRECTION ( 'NONE',  ( 1.000000000000000000, 0.000000000000000000, 0.000000000000000000 ) ) ;
#290 = DIRECTION ( 'NONE',  ( 0.000000000000000000, 0.000000000000000000, -1.000000000000000000 ) ) ;
#291 = STYLED_ITEM ( 'NONE', ( #226 ), #99 ) ;
#292 = PLANE ( 'NONE',  #118 ) ;
#293 = CIRCLE ( 'NONE', #138, 3.999999999999995559 ) ;
#294 = EDGE_CURVE ( 'NONE', #341, #198, #236, .T. ) ;
#295 = CARTESIAN_POINT ( 'NONE',  ( 67.50000000000002842, 4.898587196589407898E-16, -3.999999999999995559 ) ) ;
#296 = FACE_OUTER_BOUND ( 'NONE', #245, .T. ) ;
#297 = CARTESIAN_POINT ( 'NONE',  ( 1.387320352978662274E-16, 3.999999999999991562, 0.000000000000000000 ) ) ;
#298 = AXIS2_PLACEMENT_3D ( 'NONE', #66, #155, #257 ) ;
#299 = DIRECTION ( 'NONE',  ( 1.000000000000000000, 0.000000000000000000, 0.000000000000000000 ) ) ;
#300 = PRODUCT_RELATED_PRODUCT_CATEGORY ( 'part', '', ( #94 ) ) ;
#301 = CARTESIAN_POINT ( 'NONE',  ( 0.5000000000000004441, 0.000000000000000000, 0.000000000000000000 ) ) ;
#302 = FACE_OUTER_BOUND ( 'NONE', #307, .T. ) ;
#303 = VECTOR ( 'NONE', #76, 1000.000000000000000 ) ;
#304 = AXIS2_PLACEMENT_3D ( 'NONE', #297, #175, #330 ) ;
#305 = VERTEX_POINT ( 'NONE', #210 ) ;
#306 = ADVANCED_FACE ( 'NONE', ( #296 ), #81, .T. ) ;
#307 = EDGE_LOOP ( 'NONE', ( #86, #316, #355, #171 ) ) ;
#308 = COLOUR_RGB ( '',0.7529411764705882248, 0.7529411764705882248, 0.7529411764705882248 ) ;
#309 = VERTEX_POINT ( 'NONE', #106 ) ;
#310 = PRODUCT_DEFINITION_FORMATION_WITH_SPECIFIED_SOURCE ( 'ANY', '', #94, .NOT_KNOWN. ) ;
#311 = ADVANCED_FACE ( 'NONE', ( #185 ), #42, .F. ) ;
#312 = ORIENTED_EDGE ( 'NONE', *, *, #165, .T. ) ;
#313 = ADVANCED_BREP_SHAPE_REPRESENTATION ( 'AXE BALANCIER REP 4', ( #99, #13 ), #75 ) ;
#314 = VERTEX_POINT ( 'NONE', #130 ) ;
#315 = DIRECTION ( 'NONE',  ( 0.000000000000000000, 0.000000000000000000, -1.000000000000000000 ) ) ;
#316 = ORIENTED_EDGE ( 'NONE', *, *, #344, .T. ) ;
#317 = COLOUR_RGB ( '',0.7529411764705882248, 0.7529411764705882248, 0.7529411764705882248 ) ;
#318 = DIRECTION ( 'NONE',  ( 0.000000000000000000, 0.000000000000000000, -1.000000000000000000 ) ) ;
#319 = FACE_OUTER_BOUND ( 'NONE', #246, .T. ) ;
#320 = FACE_OUTER_BOUND ( 'NONE', #147, .T. ) ;
#321 = CARTESIAN_POINT ( 'NONE',  ( -9.499999999999998224, 3.367778697655207207E-16, 2.749999999999988454 ) ) ;
#322 = DIRECTION ( 'NONE',  ( 0.000000000000000000, 0.000000000000000000, -1.000000000000000000 ) ) ;
#323 = FILL_AREA_STYLE ('',( #207 ) ) ;
#324 = CIRCLE ( 'NONE', #127, 2.749999999999988454 ) ;
#325 = CARTESIAN_POINT ( 'NONE',  ( -9.249999999999984013, 0.000000000000000000, 0.000000000000000000 ) ) ;
#326 = AXIS2_PLACEMENT_3D ( 'NONE', #71, #299, #357 ) ;
#327 = ADVANCED_FACE ( 'NONE', ( #103 ), #73, .T. ) ;
#328 = CARTESIAN_POINT ( 'NONE',  ( 68.00000000000000000, 0.000000000000000000, 0.000000000000000000 ) ) ;
#329 = CARTESIAN_POINT ( 'NONE',  ( -11.92099589627834533, 4.898587196589407898E-16, -3.999999999999995559 ) ) ;
#330 = DIRECTION ( 'NONE',  ( 0.000000000000000000, 0.000000000000000000, -1.000000000000000000 ) ) ;
#331 =( LENGTH_UNIT ( ) NAMED_UNIT ( * ) SI_UNIT ( .MILLI., .METRE. ) );
#332 = EDGE_CURVE ( 'NONE', #309, #199, #212, .T. ) ;
#333 = DIRECTION ( 'NONE',  ( 1.000000000000000000, 0.000000000000000000, 0.000000000000000000 ) ) ;
#334 = DIRECTION ( 'NONE',  ( 1.000000000000000000, 0.000000000000000000, 0.000000000000000000 ) ) ;
#335 = DIRECTION ( 'NONE',  ( 0.000000000000000000, 0.000000000000000000, 1.000000000000000000 ) ) ;
#336 = MECHANICAL_DESIGN_GEOMETRIC_PRESENTATION_REPRESENTATION (  '', ( #291 ), #281 ) ;
#337 = STYLED_ITEM ( 'NONE', ( #237 ), #313 ) ;
#338 = ORIENTED_EDGE ( 'NONE', *, *, #104, .F. ) ;
#339 = EDGE_CURVE ( 'NONE', #198, #115, #186, .T. ) ;
#340 = EDGE_CURVE ( 'NONE', #56, #123, #187, .T. ) ;
#341 = VERTEX_POINT ( 'NONE', #270 ) ;
#342 = ORIENTED_EDGE ( 'NONE', *, *, #225, .T. ) ;
#343 = UNCERTAINTY_MEASURE_WITH_UNIT (LENGTH_MEASURE( 1.000000000000000082E-05 ), #331, 'distance_accuracy_value', 'NONE');
#344 = EDGE_CURVE ( 'NONE', #198, #91, #222, .T. ) ;
#345 = CONICAL_SURFACE ( 'NONE', #8, 3.500000000000003109, 0.7853981633974405074 ) ;
#346 = ORIENTED_EDGE ( 'NONE', *, *, #97, .T. ) ;
#347 = VECTOR ( 'NONE', #132, 1000.000000000000000 ) ;
#348 = ORIENTED_EDGE ( 'NONE', *, *, #294, .T. ) ;
#349 = AXIS2_PLACEMENT_3D ( 'NONE', #325, #95, #318 ) ;
#350 = DIRECTION ( 'NONE',  ( 0.000000000000000000, 0.000000000000000000, 1.000000000000000000 ) ) ;
#351 = LINE ( 'NONE', #321, #286 ) ;
#352 = APPLICATION_CONTEXT ( 'automotive_design' ) ;
#353 = DIRECTION ( 'NONE',  ( 1.000000000000000000, 0.000000000000000000, 0.000000000000000000 ) ) ;
#354 = CIRCLE ( 'NONE', #189, 3.999999999999995559 ) ;
#355 = ORIENTED_EDGE ( 'NONE', *, *, #356, .T. ) ;
#356 = EDGE_CURVE ( 'NONE', #91, #24, #188, .T. ) ;
#357 = DIRECTION ( 'NONE',  ( 0.000000000000000000, 0.000000000000000000, -1.000000000000000000 ) ) ;
#358 = DIRECTION ( 'NONE',  ( 0.000000000000000000, 0.000000000000000000, 1.000000000000000000 ) ) ;
#359 = DIRECTION ( 'NONE',  ( -0.7071067811865482389, 8.659560562354926695E-17, -0.7071067811865469066 ) ) ;
#360 = ORIENTED_EDGE ( 'NONE', *, *, #34, .F. ) ;
#361 = AXIS2_PLACEMENT_3D ( 'NONE', #64, #30, #100 ) ;
#362 = DIRECTION ( 'NONE',  ( -1.000000000000000000, -0.000000000000000000, -0.000000000000000000 ) ) ;
#363 = PRODUCT_CONTEXT ( 'NONE', #352, 'mechanical' ) ;
#364 = DIRECTION ( 'NONE',  ( -1.000000000000000000, -0.000000000000000000, -0.000000000000000000 ) ) ;
#365 = DIRECTION ( 'NONE',  ( 0.000000000000000000, 0.000000000000000000, 1.000000000000000000 ) ) ;
#366 =( LENGTH_UNIT ( ) NAMED_UNIT ( * ) SI_UNIT ( .MILLI., .METRE. ) );
#367 = ORIENTED_EDGE ( 'NONE', *, *, #34, .T. ) ;
#368 = ORIENTED_EDGE ( 'NONE', *, *, #114, .F. ) ;
#369 = ORIENTED_EDGE ( 'NONE', *, *, #117, .F. ) ;
#370 = ORIENTED_EDGE ( 'NONE', *, *, #41, .F. ) ;
ENDSEC;
END-ISO-10303-21;
