ISO-10303-21;
HEADER;
FILE_DESCRIPTION( ( 'Unknown' ), '1' );
FILE_NAME( 'Z:/buggy/remorque/Pièce4.stp', 'Unknown', ( 'Unknown' ), ( 'Unknown' ), 'PSStep 10.0', 'Unknown', '  ' );
FILE_SCHEMA( ( 'automotive_design' ) );
ENDSEC;
DATA;
#1 = MECHANICAL_DESIGN_GEOMETRIC_PRESENTATION_REPRESENTATION( ' ', ( #10, #11, #12, #13, #14, #15, #16, #17, #18, #19 ), #6 );
#2 = PRODUCT_DEFINITION_CONTEXT( '', #20, 'design' );
#3 = APPLICATION_PROTOCOL_DEFINITION( 'INTERNATIONAL STANDARD', 'automotive_design', 1994, #20 );
#4 = PRODUCT_CATEGORY_RELATIONSHIP( 'NONE', 'NONE', #21, #22 );
#5 = SHAPE_DEFINITION_REPRESENTATION( #23, #24 );
#6 =  ( GEOMETRIC_REPRESENTATION_CONTEXT( 3 )GLOBAL_UNCERTAINTY_ASSIGNED_CONTEXT( ( #27 ) )GLOBAL_UNIT_ASSIGNED_CONTEXT( ( #29, #30, #31 ) )REPRESENTATION_CONTEXT( 'NONE', 'WORKSPACE' ) );
#10 = STYLED_ITEM( '', ( #33 ), #34 );
#11 = STYLED_ITEM( '', ( #35 ), #36 );
#12 = STYLED_ITEM( '', ( #37 ), #38 );
#13 = STYLED_ITEM( '', ( #39 ), #40 );
#14 = STYLED_ITEM( '', ( #41 ), #42 );
#15 = STYLED_ITEM( '', ( #43 ), #44 );
#16 = STYLED_ITEM( '', ( #45 ), #46 );
#17 = STYLED_ITEM( '', ( #47 ), #48 );
#18 = STYLED_ITEM( '', ( #49 ), #50 );
#19 = STYLED_ITEM( '', ( #51 ), #52 );
#20 = APPLICATION_CONTEXT( ' ' );
#21 = PRODUCT_CATEGORY( 'part', 'NONE' );
#22 = PRODUCT_RELATED_PRODUCT_CATEGORY( 'detail', ' ', ( #53 ) );
#23 = PRODUCT_DEFINITION_SHAPE( 'NONE', 'NONE', #54 );
#24 = ADVANCED_BREP_SHAPE_REPRESENTATION( '1', ( #55, #56 ), #6 );
#27 = UNCERTAINTY_MEASURE_WITH_UNIT( LENGTH_MEASURE( 0.00100000000000000 ), #29, '', '' );
#29 =  ( CONVERSION_BASED_UNIT( 'MILLIMETRE', #59 )LENGTH_UNIT(  )NAMED_UNIT( #62 ) );
#30 =  ( NAMED_UNIT( #64 )PLANE_ANGLE_UNIT(  )SI_UNIT( $, .RADIAN. ) );
#31 =  ( NAMED_UNIT( #64 )SI_UNIT( $, .STERADIAN. )SOLID_ANGLE_UNIT(  ) );
#33 = PRESENTATION_STYLE_ASSIGNMENT( ( #70 ) );
#34 = ADVANCED_FACE( '', ( #71, #72, #73 ), #74, .F. );
#35 = PRESENTATION_STYLE_ASSIGNMENT( ( #75 ) );
#36 = ADVANCED_FACE( '', ( #76 ), #77, .T. );
#37 = PRESENTATION_STYLE_ASSIGNMENT( ( #78 ) );
#38 = ADVANCED_FACE( '', ( #79 ), #80, .F. );
#39 = PRESENTATION_STYLE_ASSIGNMENT( ( #81 ) );
#40 = ADVANCED_FACE( '', ( #82 ), #83, .F. );
#41 = PRESENTATION_STYLE_ASSIGNMENT( ( #84 ) );
#42 = ADVANCED_FACE( '', ( #85, #86 ), #87, .F. );
#43 = PRESENTATION_STYLE_ASSIGNMENT( ( #88 ) );
#44 = ADVANCED_FACE( '', ( #89, #90, #91 ), #92, .T. );
#45 = PRESENTATION_STYLE_ASSIGNMENT( ( #93 ) );
#46 = ADVANCED_FACE( '', ( #94 ), #95, .F. );
#47 = PRESENTATION_STYLE_ASSIGNMENT( ( #96 ) );
#48 = ADVANCED_FACE( '', ( #97, #98 ), #99, .F. );
#49 = PRESENTATION_STYLE_ASSIGNMENT( ( #100 ) );
#50 = ADVANCED_FACE( '', ( #101 ), #102, .F. );
#51 = PRESENTATION_STYLE_ASSIGNMENT( ( #103 ) );
#52 = ADVANCED_FACE( '', ( #104 ), #105, .F. );
#53 = PRODUCT( '1', '1', 'PART-1-DESC', ( #106 ) );
#54 = PRODUCT_DEFINITION( 'NONE', 'NONE', #107, #2 );
#55 = MANIFOLD_SOLID_BREP( '1', #108 );
#56 = AXIS2_PLACEMENT_3D( '', #109, #110, #111 );
#59 = LENGTH_MEASURE_WITH_UNIT( LENGTH_MEASURE( 1.00000000000000 ), #112 );
#62 = DIMENSIONAL_EXPONENTS( 1.00000000000000, 0.000000000000000, 0.000000000000000, 0.000000000000000, 0.000000000000000, 0.000000000000000, 0.000000000000000 );
#64 = DIMENSIONAL_EXPONENTS( 0.000000000000000, 0.000000000000000, 0.000000000000000, 0.000000000000000, 0.000000000000000, 0.000000000000000, 0.000000000000000 );
#70 = SURFACE_STYLE_USAGE( .BOTH., #113 );
#71 = FACE_BOUND( '', #114, .T. );
#72 = FACE_BOUND( '', #115, .T. );
#73 = FACE_OUTER_BOUND( '', #116, .T. );
#74 = PLANE( '', #117 );
#75 = SURFACE_STYLE_USAGE( .BOTH., #118 );
#76 = FACE_OUTER_BOUND( '', #119, .T. );
#77 = PLANE( '', #120 );
#78 = SURFACE_STYLE_USAGE( .BOTH., #121 );
#79 = FACE_OUTER_BOUND( '', #122, .T. );
#80 = CYLINDRICAL_SURFACE( '', #123, 33.0000000000000 );
#81 = SURFACE_STYLE_USAGE( .BOTH., #124 );
#82 = FACE_OUTER_BOUND( '', #125, .T. );
#83 = PLANE( '', #126 );
#84 = SURFACE_STYLE_USAGE( .BOTH., #127 );
#85 = FACE_OUTER_BOUND( '', #128, .T. );
#86 = FACE_OUTER_BOUND( '', #129, .T. );
#87 = CYLINDRICAL_SURFACE( '', #130, 5.50000000000000 );
#88 = SURFACE_STYLE_USAGE( .BOTH., #131 );
#89 = FACE_BOUND( '', #132, .T. );
#90 = FACE_BOUND( '', #133, .T. );
#91 = FACE_OUTER_BOUND( '', #134, .T. );
#92 = PLANE( '', #135 );
#93 = SURFACE_STYLE_USAGE( .BOTH., #136 );
#94 = FACE_OUTER_BOUND( '', #137, .T. );
#95 = PLANE( '', #138 );
#96 = SURFACE_STYLE_USAGE( .BOTH., #139 );
#97 = FACE_OUTER_BOUND( '', #140, .T. );
#98 = FACE_OUTER_BOUND( '', #141, .T. );
#99 = CYLINDRICAL_SURFACE( '', #142, 5.50000000000000 );
#100 = SURFACE_STYLE_USAGE( .BOTH., #143 );
#101 = FACE_OUTER_BOUND( '', #144, .T. );
#102 = PLANE( '', #145 );
#103 = SURFACE_STYLE_USAGE( .BOTH., #146 );
#104 = FACE_OUTER_BOUND( '', #147, .T. );
#105 = PLANE( '', #148 );
#106 = PRODUCT_CONTEXT( '', #20, 'mechanical' );
#107 = PRODUCT_DEFINITION_FORMATION_WITH_SPECIFIED_SOURCE( ' ', 'NONE', #53, .NOT_KNOWN. );
#108 = CLOSED_SHELL( '', ( #44, #40, #36, #46, #38, #34, #50, #52, #48, #42 ) );
#109 = CARTESIAN_POINT( '', ( 0.000000000000000, 0.000000000000000, 0.000000000000000 ) );
#110 = DIRECTION( '', ( 0.000000000000000, 0.000000000000000, 1.00000000000000 ) );
#111 = DIRECTION( '', ( 1.00000000000000, 0.000000000000000, 0.000000000000000 ) );
#112 =  ( LENGTH_UNIT(  )NAMED_UNIT( #62 )SI_UNIT( .MILLI., .METRE. ) );
#113 = SURFACE_SIDE_STYLE( '', ( #150 ) );
#114 = EDGE_LOOP( '', ( #151 ) );
#115 = EDGE_LOOP( '', ( #152 ) );
#116 = EDGE_LOOP( '', ( #153, #154, #155, #156, #157, #158 ) );
#117 = AXIS2_PLACEMENT_3D( '', #159, #160, #161 );
#118 = SURFACE_SIDE_STYLE( '', ( #162 ) );
#119 = EDGE_LOOP( '', ( #163, #164, #165, #166 ) );
#120 = AXIS2_PLACEMENT_3D( '', #167, #168, #169 );
#121 = SURFACE_SIDE_STYLE( '', ( #170 ) );
#122 = EDGE_LOOP( '', ( #171, #172, #173, #174 ) );
#123 = AXIS2_PLACEMENT_3D( '', #175, #176, #177 );
#124 = SURFACE_SIDE_STYLE( '', ( #178 ) );
#125 = EDGE_LOOP( '', ( #179, #180, #181, #182 ) );
#126 = AXIS2_PLACEMENT_3D( '', #183, #184, #185 );
#127 = SURFACE_SIDE_STYLE( '', ( #186 ) );
#128 = EDGE_LOOP( '', ( #187 ) );
#129 = EDGE_LOOP( '', ( #188 ) );
#130 = AXIS2_PLACEMENT_3D( '', #189, #190, #191 );
#131 = SURFACE_SIDE_STYLE( '', ( #192 ) );
#132 = EDGE_LOOP( '', ( #193 ) );
#133 = EDGE_LOOP( '', ( #194 ) );
#134 = EDGE_LOOP( '', ( #195, #196, #197, #198, #199, #200 ) );
#135 = AXIS2_PLACEMENT_3D( '', #201, #202, #203 );
#136 = SURFACE_SIDE_STYLE( '', ( #204 ) );
#137 = EDGE_LOOP( '', ( #205, #206, #207, #208 ) );
#138 = AXIS2_PLACEMENT_3D( '', #209, #210, #211 );
#139 = SURFACE_SIDE_STYLE( '', ( #212 ) );
#140 = EDGE_LOOP( '', ( #213 ) );
#141 = EDGE_LOOP( '', ( #214 ) );
#142 = AXIS2_PLACEMENT_3D( '', #215, #216, #217 );
#143 = SURFACE_SIDE_STYLE( '', ( #218 ) );
#144 = EDGE_LOOP( '', ( #219, #220, #221, #222 ) );
#145 = AXIS2_PLACEMENT_3D( '', #223, #224, #225 );
#146 = SURFACE_SIDE_STYLE( '', ( #226 ) );
#147 = EDGE_LOOP( '', ( #227, #228, #229, #230 ) );
#148 = AXIS2_PLACEMENT_3D( '', #231, #232, #233 );
#150 = SURFACE_STYLE_FILL_AREA( #234 );
#151 = ORIENTED_EDGE( '', *, *, #235, .F. );
#152 = ORIENTED_EDGE( '', *, *, #236, .F. );
#153 = ORIENTED_EDGE( '', *, *, #237, .F. );
#154 = ORIENTED_EDGE( '', *, *, #238, .F. );
#155 = ORIENTED_EDGE( '', *, *, #239, .F. );
#156 = ORIENTED_EDGE( '', *, *, #240, .T. );
#157 = ORIENTED_EDGE( '', *, *, #241, .T. );
#158 = ORIENTED_EDGE( '', *, *, #242, .T. );
#159 = CARTESIAN_POINT( '', ( -100.000000000000, 0.000000000000000, -55.0000000000000 ) );
#160 = DIRECTION( '', ( 0.000000000000000, -1.00000000000000, 0.000000000000000 ) );
#161 = DIRECTION( '', ( 0.000000000000000, 0.000000000000000, -1.00000000000000 ) );
#162 = SURFACE_STYLE_FILL_AREA( #243 );
#163 = ORIENTED_EDGE( '', *, *, #238, .T. );
#164 = ORIENTED_EDGE( '', *, *, #244, .T. );
#165 = ORIENTED_EDGE( '', *, *, #245, .F. );
#166 = ORIENTED_EDGE( '', *, *, #246, .F. );
#167 = CARTESIAN_POINT( '', ( -75.0000000000000, 127.616175596090, -53.5374301675978 ) );
#168 = DIRECTION( '', ( -1.00000000000000, 0.000000000000000, -1.27861768851401E-016 ) );
#169 = DIRECTION( '', ( -1.27861768851401E-016, 0.000000000000000, 1.00000000000000 ) );
#170 = SURFACE_STYLE_FILL_AREA( #247 );
#171 = ORIENTED_EDGE( '', *, *, #248, .T. );
#172 = ORIENTED_EDGE( '', *, *, #249, .T. );
#173 = ORIENTED_EDGE( '', *, *, #241, .F. );
#174 = ORIENTED_EDGE( '', *, *, #250, .T. );
#175 = CARTESIAN_POINT( '', ( 0.000000000000000, 207.312014512978, 15.0000000000000 ) );
#176 = DIRECTION( '', ( -0.000000000000000, 1.00000000000000, -0.000000000000000 ) );
#177 = DIRECTION( '', ( 0.000000000000000, 0.000000000000000, -1.00000000000000 ) );
#178 = SURFACE_STYLE_FILL_AREA( #251 );
#179 = ORIENTED_EDGE( '', *, *, #244, .F. );
#180 = ORIENTED_EDGE( '', *, *, #237, .T. );
#181 = ORIENTED_EDGE( '', *, *, #252, .T. );
#182 = ORIENTED_EDGE( '', *, *, #253, .F. );
#183 = CARTESIAN_POINT( '', ( -100.000000000000, -22.0000000000000, -55.0000000000000 ) );
#184 = DIRECTION( '', ( 6.93889390390723E-017, 0.000000000000000, 1.00000000000000 ) );
#185 = DIRECTION( '', ( 1.00000000000000, 0.000000000000000, -6.93889390390723E-017 ) );
#186 = SURFACE_STYLE_FILL_AREA( #254 );
#187 = ORIENTED_EDGE( '', *, *, #235, .T. );
#188 = ORIENTED_EDGE( '', *, *, #255, .F. );
#189 = CARTESIAN_POINT( '', ( -38.7479371686083, 127.616175596090, -17.5133797870597 ) );
#190 = DIRECTION( '', ( -0.000000000000000, 1.00000000000000, -0.000000000000000 ) );
#191 = DIRECTION( '', ( 0.000000000000000, 0.000000000000000, -1.00000000000000 ) );
#192 = SURFACE_STYLE_FILL_AREA( #256 );
#193 = ORIENTED_EDGE( '', *, *, #255, .T. );
#194 = ORIENTED_EDGE( '', *, *, #257, .T. );
#195 = ORIENTED_EDGE( '', *, *, #258, .T. );
#196 = ORIENTED_EDGE( '', *, *, #245, .T. );
#197 = ORIENTED_EDGE( '', *, *, #253, .T. );
#198 = ORIENTED_EDGE( '', *, *, #259, .F. );
#199 = ORIENTED_EDGE( '', *, *, #248, .F. );
#200 = ORIENTED_EDGE( '', *, *, #260, .F. );
#201 = CARTESIAN_POINT( '', ( -100.000000000000, -22.0000000000000, -55.0000000000000 ) );
#202 = DIRECTION( '', ( 0.000000000000000, -1.00000000000000, 0.000000000000000 ) );
#203 = DIRECTION( '', ( 0.000000000000000, 0.000000000000000, -1.00000000000000 ) );
#204 = SURFACE_STYLE_FILL_AREA( #261 );
#205 = ORIENTED_EDGE( '', *, *, #239, .T. );
#206 = ORIENTED_EDGE( '', *, *, #246, .T. );
#207 = ORIENTED_EDGE( '', *, *, #258, .F. );
#208 = ORIENTED_EDGE( '', *, *, #262, .F. );
#209 = CARTESIAN_POINT( '', ( 100.000000000000, -22.0000000000000, 55.0000000000000 ) );
#210 = DIRECTION( '', ( 6.93889390390723E-017, 0.000000000000000, -1.00000000000000 ) );
#211 = DIRECTION( '', ( -1.00000000000000, 0.000000000000000, -6.93889390390723E-017 ) );
#212 = SURFACE_STYLE_FILL_AREA( #263 );
#213 = ORIENTED_EDGE( '', *, *, #236, .T. );
#214 = ORIENTED_EDGE( '', *, *, #257, .F. );
#215 = CARTESIAN_POINT( '', ( -50.0000000000000, 127.616175596090, 22.6500000000000 ) );
#216 = DIRECTION( '', ( -0.000000000000000, 1.00000000000000, -0.000000000000000 ) );
#217 = DIRECTION( '', ( 0.000000000000000, 0.000000000000000, -1.00000000000000 ) );
#218 = SURFACE_STYLE_FILL_AREA( #264 );
#219 = ORIENTED_EDGE( '', *, *, #262, .T. );
#220 = ORIENTED_EDGE( '', *, *, #260, .T. );
#221 = ORIENTED_EDGE( '', *, *, #250, .F. );
#222 = ORIENTED_EDGE( '', *, *, #240, .F. );
#223 = CARTESIAN_POINT( '', ( -33.0000000000000, 207.312014512978, 15.0000000000000 ) );
#224 = DIRECTION( '', ( -1.00000000000000, 0.000000000000000, 0.000000000000000 ) );
#225 = DIRECTION( '', ( 0.000000000000000, 0.000000000000000, 1.00000000000000 ) );
#226 = SURFACE_STYLE_FILL_AREA( #265 );
#227 = ORIENTED_EDGE( '', *, *, #242, .F. );
#228 = ORIENTED_EDGE( '', *, *, #249, .F. );
#229 = ORIENTED_EDGE( '', *, *, #259, .T. );
#230 = ORIENTED_EDGE( '', *, *, #252, .F. );
#231 = CARTESIAN_POINT( '', ( -1.00000000000000, 212.519363910843, 15.8877551020408 ) );
#232 = DIRECTION( '', ( -1.00000000000000, 0.000000000000000, -1.22587995825549E-016 ) );
#233 = DIRECTION( '', ( -1.22587995825549E-016, 0.000000000000000, 1.00000000000000 ) );
#234 = FILL_AREA_STYLE( '', ( #266 ) );
#235 = EDGE_CURVE( '', #267, #267, #268, .F. );
#236 = EDGE_CURVE( '', #269, #269, #270, .F. );
#237 = EDGE_CURVE( '', #271, #272, #273, .T. );
#238 = EDGE_CURVE( '', #274, #271, #275, .T. );
#239 = EDGE_CURVE( '', #276, #274, #277, .T. );
#240 = EDGE_CURVE( '', #276, #278, #279, .T. );
#241 = EDGE_CURVE( '', #278, #280, #281, .T. );
#242 = EDGE_CURVE( '', #280, #272, #282, .T. );
#243 = FILL_AREA_STYLE( '', ( #283 ) );
#244 = EDGE_CURVE( '', #271, #284, #285, .T. );
#245 = EDGE_CURVE( '', #286, #284, #287, .T. );
#246 = EDGE_CURVE( '', #274, #286, #288, .T. );
#247 = FILL_AREA_STYLE( '', ( #289 ) );
#248 = EDGE_CURVE( '', #290, #291, #292, .T. );
#249 = EDGE_CURVE( '', #291, #280, #293, .F. );
#250 = EDGE_CURVE( '', #278, #290, #294, .T. );
#251 = FILL_AREA_STYLE( '', ( #295 ) );
#252 = EDGE_CURVE( '', #272, #296, #297, .T. );
#253 = EDGE_CURVE( '', #284, #296, #298, .T. );
#254 = FILL_AREA_STYLE( '', ( #299 ) );
#255 = EDGE_CURVE( '', #300, #300, #301, .T. );
#256 = FILL_AREA_STYLE( '', ( #302 ) );
#257 = EDGE_CURVE( '', #303, #303, #304, .T. );
#258 = EDGE_CURVE( '', #305, #286, #306, .T. );
#259 = EDGE_CURVE( '', #291, #296, #307, .T. );
#260 = EDGE_CURVE( '', #305, #290, #308, .T. );
#261 = FILL_AREA_STYLE( '', ( #309 ) );
#262 = EDGE_CURVE( '', #276, #305, #310, .T. );
#263 = FILL_AREA_STYLE( '', ( #311 ) );
#264 = FILL_AREA_STYLE( '', ( #312 ) );
#265 = FILL_AREA_STYLE( '', ( #313 ) );
#266 = FILL_AREA_STYLE_COLOUR( '', #314 );
#267 = VERTEX_POINT( '', #315 );
#268 = CIRCLE( '', #316, 5.50000000000000 );
#269 = VERTEX_POINT( '', #317 );
#270 = CIRCLE( '', #318, 5.50000000000000 );
#271 = VERTEX_POINT( '', #319 );
#272 = VERTEX_POINT( '', #320 );
#273 = LINE( '', #321, #322 );
#274 = VERTEX_POINT( '', #323 );
#275 = LINE( '', #324, #325 );
#276 = VERTEX_POINT( '', #326 );
#277 = LINE( '', #327, #328 );
#278 = VERTEX_POINT( '', #329 );
#279 = LINE( '', #330, #331 );
#280 = VERTEX_POINT( '', #332 );
#281 = CIRCLE( '', #333, 33.0000000000000 );
#282 = LINE( '', #334, #335 );
#283 = FILL_AREA_STYLE_COLOUR( '', #336 );
#284 = VERTEX_POINT( '', #337 );
#285 = LINE( '', #338, #339 );
#286 = VERTEX_POINT( '', #340 );
#287 = LINE( '', #341, #342 );
#288 = LINE( '', #343, #344 );
#289 = FILL_AREA_STYLE_COLOUR( '', #345 );
#290 = VERTEX_POINT( '', #346 );
#291 = VERTEX_POINT( '', #347 );
#292 = CIRCLE( '', #348, 33.0000000000000 );
#293 = LINE( '', #349, #350 );
#294 = LINE( '', #351, #352 );
#295 = FILL_AREA_STYLE_COLOUR( '', #353 );
#296 = VERTEX_POINT( '', #354 );
#297 = LINE( '', #355, #356 );
#298 = LINE( '', #357, #358 );
#299 = FILL_AREA_STYLE_COLOUR( '', #359 );
#300 = VERTEX_POINT( '', #360 );
#301 = CIRCLE( '', #361, 5.50000000000000 );
#302 = FILL_AREA_STYLE_COLOUR( '', #362 );
#303 = VERTEX_POINT( '', #363 );
#304 = CIRCLE( '', #364, 5.50000000000000 );
#305 = VERTEX_POINT( '', #365 );
#306 = LINE( '', #366, #367 );
#307 = LINE( '', #368, #369 );
#308 = LINE( '', #370, #371 );
#309 = FILL_AREA_STYLE_COLOUR( '', #372 );
#310 = LINE( '', #373, #374 );
#311 = FILL_AREA_STYLE_COLOUR( '', #375 );
#312 = FILL_AREA_STYLE_COLOUR( '', #376 );
#313 = FILL_AREA_STYLE_COLOUR( '', #377 );
#314 = COLOUR_RGB( '', 0.800000011920929, 0.800000011920929, 0.800000011920929 );
#315 = CARTESIAN_POINT( '', ( -38.7479371686083, 0.000000000000000, -23.0133797870597 ) );
#316 = AXIS2_PLACEMENT_3D( '', #378, #379, #380 );
#317 = CARTESIAN_POINT( '', ( -50.0000000000000, 0.000000000000000, 17.1500000000000 ) );
#318 = AXIS2_PLACEMENT_3D( '', #381, #382, #383 );
#319 = CARTESIAN_POINT( '', ( -75.0000000000000, 0.000000000000000, -55.0000000000000 ) );
#320 = CARTESIAN_POINT( '', ( -1.00000000000000, 0.000000000000000, -55.0000000000000 ) );
#321 = CARTESIAN_POINT( '', ( -100.000000000000, 0.000000000000000, -55.0000000000000 ) );
#322 = VECTOR( '', #384, 1000.00000000000 );
#323 = CARTESIAN_POINT( '', ( -75.0000000000000, 0.000000000000000, 55.0000000000000 ) );
#324 = CARTESIAN_POINT( '', ( -75.0000000000000, 0.000000000000000, -55.0000000000000 ) );
#325 = VECTOR( '', #385, 1000.00000000000 );
#326 = CARTESIAN_POINT( '', ( -33.0000000000000, 0.000000000000000, 55.0000000000000 ) );
#327 = CARTESIAN_POINT( '', ( 100.000000000000, 0.000000000000000, 55.0000000000000 ) );
#328 = VECTOR( '', #386, 1000.00000000000 );
#329 = CARTESIAN_POINT( '', ( -33.0000000000000, 5.55111512312578E-014, 15.0000000000000 ) );
#330 = CARTESIAN_POINT( '', ( -33.0000000000000, 0.000000000000000, -55.0000000000000 ) );
#331 = VECTOR( '', #387, 1000.00000000000 );
#332 = CARTESIAN_POINT( '', ( -1.00000000000000, 2.77555756156289E-014, -17.9848450049413 ) );
#333 = AXIS2_PLACEMENT_3D( '', #388, #389, #390 );
#334 = CARTESIAN_POINT( '', ( -1.00000000000000, 0.000000000000000, -55.0000000000000 ) );
#335 = VECTOR( '', #391, 1000.00000000000 );
#336 = COLOUR_RGB( '', 0.800000011920929, 0.800000011920929, 0.800000011920929 );
#337 = CARTESIAN_POINT( '', ( -75.0000000000000, -22.0000000000000, -55.0000000000000 ) );
#338 = CARTESIAN_POINT( '', ( -75.0000000000000, -22.0000000000000, -55.0000000000000 ) );
#339 = VECTOR( '', #392, 1000.00000000000 );
#340 = CARTESIAN_POINT( '', ( -75.0000000000000, -22.0000000000000, 55.0000000000000 ) );
#341 = CARTESIAN_POINT( '', ( -75.0000000000000, -22.0000000000000, -53.5374301675978 ) );
#342 = VECTOR( '', #393, 1000.00000000000 );
#343 = CARTESIAN_POINT( '', ( -75.0000000000000, -22.0000000000000, 55.0000000000000 ) );
#344 = VECTOR( '', #394, 1000.00000000000 );
#345 = COLOUR_RGB( '', 0.800000011920929, 0.800000011920929, 0.800000011920929 );
#346 = CARTESIAN_POINT( '', ( -33.0000000000000, -22.0000000000000, 15.0000000000000 ) );
#347 = CARTESIAN_POINT( '', ( -1.00000000000000, -22.0000000000000, -17.9848450049413 ) );
#348 = AXIS2_PLACEMENT_3D( '', #395, #396, #397 );
#349 = CARTESIAN_POINT( '', ( -1.00000000000000, 207.312014512978, -17.9848450049413 ) );
#350 = VECTOR( '', #398, 1000.00000000000 );
#351 = CARTESIAN_POINT( '', ( -33.0000000000000, 207.312014512978, 15.0000000000000 ) );
#352 = VECTOR( '', #399, 1000.00000000000 );
#353 = COLOUR_RGB( '', 0.800000011920929, 0.800000011920929, 0.800000011920929 );
#354 = CARTESIAN_POINT( '', ( -1.00000000000000, -22.0000000000000, -55.0000000000000 ) );
#355 = CARTESIAN_POINT( '', ( -1.00000000000000, -22.0000000000000, -55.0000000000000 ) );
#356 = VECTOR( '', #400, 1000.00000000000 );
#357 = CARTESIAN_POINT( '', ( -100.000000000000, -22.0000000000000, -55.0000000000000 ) );
#358 = VECTOR( '', #401, 1000.00000000000 );
#359 = COLOUR_RGB( '', 0.800000011920929, 0.800000011920929, 0.800000011920929 );
#360 = CARTESIAN_POINT( '', ( -33.2479371686083, -22.0000000000000, -17.5133797870597 ) );
#361 = AXIS2_PLACEMENT_3D( '', #402, #403, #404 );
#362 = COLOUR_RGB( '', 0.800000011920929, 0.800000011920929, 0.800000011920929 );
#363 = CARTESIAN_POINT( '', ( -44.5000000000000, -22.0000000000000, 22.6500000000000 ) );
#364 = AXIS2_PLACEMENT_3D( '', #405, #406, #407 );
#365 = CARTESIAN_POINT( '', ( -33.0000000000000, -22.0000000000000, 55.0000000000000 ) );
#366 = CARTESIAN_POINT( '', ( 100.000000000000, -22.0000000000000, 55.0000000000000 ) );
#367 = VECTOR( '', #408, 1000.00000000000 );
#368 = CARTESIAN_POINT( '', ( -1.00000000000000, -22.0000000000000, 15.8877551020408 ) );
#369 = VECTOR( '', #409, 1000.00000000000 );
#370 = CARTESIAN_POINT( '', ( -33.0000000000000, -22.0000000000000, 15.0000000000000 ) );
#371 = VECTOR( '', #410, 1000.00000000000 );
#372 = COLOUR_RGB( '', 0.800000011920929, 0.800000011920929, 0.800000011920929 );
#373 = CARTESIAN_POINT( '', ( -33.0000000000000, 207.312014512978, 55.0000000000000 ) );
#374 = VECTOR( '', #411, 1000.00000000000 );
#375 = COLOUR_RGB( '', 0.800000011920929, 0.800000011920929, 0.800000011920929 );
#376 = COLOUR_RGB( '', 0.800000011920929, 0.800000011920929, 0.800000011920929 );
#377 = COLOUR_RGB( '', 0.800000011920929, 0.800000011920929, 0.800000011920929 );
#378 = CARTESIAN_POINT( '', ( -38.7479371686083, 0.000000000000000, -17.5133797870597 ) );
#379 = DIRECTION( '', ( 0.000000000000000, -1.00000000000000, 0.000000000000000 ) );
#380 = DIRECTION( '', ( 0.000000000000000, 0.000000000000000, -1.00000000000000 ) );
#381 = CARTESIAN_POINT( '', ( -50.0000000000000, 0.000000000000000, 22.6500000000000 ) );
#382 = DIRECTION( '', ( 0.000000000000000, -1.00000000000000, 0.000000000000000 ) );
#383 = DIRECTION( '', ( 0.000000000000000, 0.000000000000000, -1.00000000000000 ) );
#384 = DIRECTION( '', ( 1.00000000000000, 0.000000000000000, -6.93889390390723E-017 ) );
#385 = DIRECTION( '', ( 1.27861768851401E-016, 0.000000000000000, -1.00000000000000 ) );
#386 = DIRECTION( '', ( -1.00000000000000, 0.000000000000000, -6.93889390390723E-017 ) );
#387 = DIRECTION( '', ( 0.000000000000000, 0.000000000000000, -1.00000000000000 ) );
#388 = CARTESIAN_POINT( '', ( 0.000000000000000, 0.000000000000000, 15.0000000000000 ) );
#389 = DIRECTION( '', ( 0.000000000000000, -1.00000000000000, 0.000000000000000 ) );
#390 = DIRECTION( '', ( 0.000000000000000, 0.000000000000000, -1.00000000000000 ) );
#391 = DIRECTION( '', ( 1.22587995825549E-016, 0.000000000000000, -1.00000000000000 ) );
#392 = DIRECTION( '', ( 0.000000000000000, -1.00000000000000, 0.000000000000000 ) );
#393 = DIRECTION( '', ( 1.27861768851401E-016, 0.000000000000000, -1.00000000000000 ) );
#394 = DIRECTION( '', ( 0.000000000000000, -1.00000000000000, 0.000000000000000 ) );
#395 = CARTESIAN_POINT( '', ( 0.000000000000000, -22.0000000000000, 15.0000000000000 ) );
#396 = DIRECTION( '', ( 0.000000000000000, -1.00000000000000, 0.000000000000000 ) );
#397 = DIRECTION( '', ( -1.00000000000000, 0.000000000000000, 0.000000000000000 ) );
#398 = DIRECTION( '', ( 0.000000000000000, -1.00000000000000, 0.000000000000000 ) );
#399 = DIRECTION( '', ( 0.000000000000000, -1.00000000000000, 0.000000000000000 ) );
#400 = DIRECTION( '', ( 0.000000000000000, -1.00000000000000, 0.000000000000000 ) );
#401 = DIRECTION( '', ( 1.00000000000000, 0.000000000000000, -6.93889390390723E-017 ) );
#402 = CARTESIAN_POINT( '', ( -38.7479371686083, -22.0000000000000, -17.5133797870597 ) );
#403 = DIRECTION( '', ( -0.000000000000000, 1.00000000000000, 0.000000000000000 ) );
#404 = DIRECTION( '', ( 1.00000000000000, 0.000000000000000, 0.000000000000000 ) );
#405 = CARTESIAN_POINT( '', ( -50.0000000000000, -22.0000000000000, 22.6500000000000 ) );
#406 = DIRECTION( '', ( -0.000000000000000, 1.00000000000000, 0.000000000000000 ) );
#407 = DIRECTION( '', ( 1.00000000000000, 0.000000000000000, 0.000000000000000 ) );
#408 = DIRECTION( '', ( -1.00000000000000, 0.000000000000000, -6.93889390390723E-017 ) );
#409 = DIRECTION( '', ( 1.22587995825549E-016, 0.000000000000000, -1.00000000000000 ) );
#410 = DIRECTION( '', ( 0.000000000000000, 0.000000000000000, -1.00000000000000 ) );
#411 = DIRECTION( '', ( 0.000000000000000, -1.00000000000000, 0.000000000000000 ) );
ENDSEC;
END-ISO-10303-21;
