ISO-10303-21;
HEADER;
FILE_DESCRIPTION (( 'STEP AP214' ),
    '1' );
FILE_NAME ('Bague bronze REP 8-1.STEP',
    '2021-01-31T12:21:54',
    ( '' ),
    ( '' ),
    'SwSTEP 2.0',
    'SolidWorks 2019',
    '' );
FILE_SCHEMA (( 'AUTOMOTIVE_DESIGN' ));
ENDSEC;

DATA;
#1 = VECTOR ( 'NONE', #147, 1000.000000000000114 ) ;
#2 = SURFACE_STYLE_USAGE ( .BOTH. , #105 ) ;
#3 = EDGE_LOOP ( 'NONE', ( #205, #89 ) ) ;
#4 = CARTESIAN_POINT ( 'NONE',  ( 0.000000000000000000, 0.000000000000000000, 3.799999999999999822 ) ) ;
#5 = PRODUCT_RELATED_PRODUCT_CATEGORY ( 'part', '', ( #74 ) ) ;
#6 = DIRECTION ( 'NONE',  ( -1.000000000000000000, 0.000000000000000000, 0.000000000000000000 ) ) ;
#7 = DIRECTION ( 'NONE',  ( 0.000000000000000000, 0.000000000000000000, 1.000000000000000000 ) ) ;
#8 = CARTESIAN_POINT ( 'NONE',  ( 0.000000000000000000, 0.000000000000000000, -3.799999999999999822 ) ) ;
#9 = CARTESIAN_POINT ( 'NONE',  ( 0.000000000000000000, 0.000000000000000000, -3.549999999999991829 ) ) ;
#10 = CARTESIAN_POINT ( 'NONE',  ( 4.000000000000000000, 4.898587196589411843E-16, -3.799999999999999822 ) ) ;
#11 = DIRECTION ( 'NONE',  ( 0.7071067811865462405, 8.659560562354918067E-17, -0.7071067811865489050 ) ) ;
#12 = CYLINDRICAL_SURFACE ( 'NONE', #296, 4.000000000000000000 ) ;
#13 = ORIENTED_EDGE ( 'NONE', *, *, #24, .F. ) ;
#14 = CARTESIAN_POINT ( 'NONE',  ( 0.000000000000000000, 0.000000000000000000, 3.799999999999999822 ) ) ;
#15 = COLOUR_RGB ( '',0.9098039215686274384, 0.4431372549019607643, 0.03137254901960784270 ) ;
#16 = ORIENTED_EDGE ( 'NONE', *, *, #110, .T. ) ;
#17 = CIRCLE ( 'NONE', #288, 4.000000000000000000 ) ;
#18 = EDGE_CURVE ( 'NONE', #155, #306, #93, .T. ) ;
#19 = LINE ( 'NONE', #174, #45 ) ;
#20 = DIRECTION ( 'NONE',  ( -0.000000000000000000, -0.000000000000000000, 1.000000000000000000 ) ) ;
#21 = DIRECTION ( 'NONE',  ( 1.000000000000000000, 0.000000000000000000, 0.000000000000000000 ) ) ;
#22 = DIRECTION ( 'NONE',  ( 1.000000000000000000, 0.000000000000000000, 0.000000000000000000 ) ) ;
#23 = AXIS2_PLACEMENT_3D ( 'NONE', #282, #158, #21 ) ;
#24 = EDGE_CURVE ( 'NONE', #300, #162, #197, .T. ) ;
#25 = DIRECTION ( 'NONE',  ( -0.000000000000000000, -0.000000000000000000, -1.000000000000000000 ) ) ;
#26 = ORIENTED_EDGE ( 'NONE', *, *, #173, .F. ) ;
#27 = FACE_OUTER_BOUND ( 'NONE', #88, .T. ) ;
#28 = PLANE ( 'NONE',  #243 ) ;
#29 = ORIENTED_EDGE ( 'NONE', *, *, #297, .F. ) ;
#30 =( GEOMETRIC_REPRESENTATION_CONTEXT ( 3 ) GLOBAL_UNCERTAINTY_ASSIGNED_CONTEXT ( ( #170 ) ) GLOBAL_UNIT_ASSIGNED_CONTEXT ( ( #44, #292, #145 ) ) REPRESENTATION_CONTEXT ( 'NONE', 'WORKASPACE' ) );
#31 = ORIENTED_EDGE ( 'NONE', *, *, #245, .F. ) ;
#32 = ORIENTED_EDGE ( 'NONE', *, *, #150, .F. ) ;
#33 = EDGE_LOOP ( 'NONE', ( #118, #179, #215, #122 ) ) ;
#34 = ORIENTED_EDGE ( 'NONE', *, *, #126, .F. ) ;
#35 = EDGE_LOOP ( 'NONE', ( #82, #208 ) ) ;
#36 = DIRECTION ( 'NONE',  ( 0.000000000000000000, 0.000000000000000000, 1.000000000000000000 ) ) ;
#37 = EDGE_CURVE ( 'NONE', #153, #278, #119, .T. ) ;
#38 = STYLED_ITEM ( 'NONE', ( #233 ), #115 ) ;
#39 = EDGE_LOOP ( 'NONE', ( #213, #16, #50, #34 ) ) ;
#40 = CYLINDRICAL_SURFACE ( 'NONE', #137, 6.000000000000000888 ) ;
#41 = FACE_OUTER_BOUND ( 'NONE', #33, .T. ) ;
#42 = UNCERTAINTY_MEASURE_WITH_UNIT (LENGTH_MEASURE( 1.000000000000000082E-05 ), #127, 'distance_accuracy_value', 'NONE');
#43 =( NAMED_UNIT ( * ) SI_UNIT ( $, .STERADIAN. ) SOLID_ANGLE_UNIT ( ) );
#44 =( LENGTH_UNIT ( ) NAMED_UNIT ( * ) SI_UNIT ( .MILLI., .METRE. ) );
#45 = VECTOR ( 'NONE', #273, 999.9999999999998863 ) ;
#46 = PRODUCT_DEFINITION_CONTEXT ( 'detailed design', #271, 'design' ) ;
#47 = AXIS2_PLACEMENT_3D ( 'NONE', #309, #25, #181 ) ;
#48 = DIRECTION ( 'NONE',  ( 0.000000000000000000, 0.000000000000000000, -1.000000000000000000 ) ) ;
#49 = AXIS2_PLACEMENT_3D ( 'NONE', #107, #36, #164 ) ;
#50 = ORIENTED_EDGE ( 'NONE', *, *, #262, .F. ) ;
#51 = EDGE_CURVE ( 'NONE', #251, #70, #60, .T. ) ;
#52 = CARTESIAN_POINT ( 'NONE',  ( -4.000000000000000000, 0.000000000000000000, -3.799999999999999822 ) ) ;
#53 = AXIS2_PLACEMENT_3D ( 'NONE', #246, #293, #98 ) ;
#54 = VERTEX_POINT ( 'NONE', #303 ) ;
#55 = EDGE_CURVE ( 'NONE', #162, #300, #272, .T. ) ;
#56 = APPLICATION_PROTOCOL_DEFINITION ( 'draft international standard', 'automotive_design', 1998, #280 ) ;
#57 = ORIENTED_EDGE ( 'NONE', *, *, #51, .F. ) ;
#58 = FACE_OUTER_BOUND ( 'NONE', #238, .T. ) ;
#59 = ORIENTED_EDGE ( 'NONE', *, *, #37, .F. ) ;
#60 = CIRCLE ( 'NONE', #312, 6.000000000000000888 ) ;
#61 = FILL_AREA_STYLE ('',( #281 ) ) ;
#62 = DIRECTION ( 'NONE',  ( 1.000000000000000000, 0.000000000000000000, 0.000000000000000000 ) ) ;
#63 = VECTOR ( 'NONE', #223, 1000.000000000000000 ) ;
#64 = EDGE_LOOP ( 'NONE', ( #186, #183, #264, #138 ) ) ;
#65 = EDGE_LOOP ( 'NONE', ( #109, #141, #305, #168 ) ) ;
#66 = CARTESIAN_POINT ( 'NONE',  ( 0.000000000000000000, 0.000000000000000000, 3.799999999999999822 ) ) ;
#67 = VERTEX_POINT ( 'NONE', #302 ) ;
#68 = ORIENTED_EDGE ( 'NONE', *, *, #55, .T. ) ;
#69 = DIRECTION ( 'NONE',  ( -1.000000000000000000, 0.000000000000000000, 0.000000000000000000 ) ) ;
#70 = VERTEX_POINT ( 'NONE', #165 ) ;
#71 = CONICAL_SURFACE ( 'NONE', #247, 6.000000000000000888, 0.7853981633974517207 ) ;
#72 = DIRECTION ( 'NONE',  ( -1.000000000000000000, 0.000000000000000000, 0.000000000000000000 ) ) ;
#73 = ADVANCED_FACE ( 'NONE', ( #41 ), #40, .T. ) ;
#74 = PRODUCT ( 'Bague bronze REP 8-1', 'Bague bronze REP 8-1', '', ( #178 ) ) ;
#75 = LINE ( 'NONE', #291, #314 ) ;
#76 = STYLED_ITEM ( 'NONE', ( #204 ), #103 ) ;
#77 = CARTESIAN_POINT ( 'NONE',  ( 6.000000000000000888, 7.347880794884119736E-16, 3.550000000000007372 ) ) ;
#78 = CARTESIAN_POINT ( 'NONE',  ( 6.000000000000000888, 7.347880794884119736E-16, -3.549999999999991829 ) ) ;
#79 = DIRECTION ( 'NONE',  ( -0.000000000000000000, -0.000000000000000000, -1.000000000000000000 ) ) ;
#80 = PRESENTATION_LAYER_ASSIGNMENT (  '', '', ( #38 ) ) ;
#81 = DIRECTION ( 'NONE',  ( 1.000000000000000000, 0.000000000000000000, 0.000000000000000000 ) ) ;
#82 = ORIENTED_EDGE ( 'NONE', *, *, #154, .T. ) ;
#83 = CYLINDRICAL_SURFACE ( 'NONE', #196, 4.000000000000000000 ) ;
#84 = CARTESIAN_POINT ( 'NONE',  ( -6.000000000000000888, 7.347880794884120722E-16, -3.549999999999991829 ) ) ;
#85 = AXIS2_PLACEMENT_3D ( 'NONE', #4, #206, #143 ) ;
#86 = FACE_OUTER_BOUND ( 'NONE', #276, .T. ) ;
#87 = ADVANCED_FACE ( 'NONE', ( #86 ), #258, .T. ) ;
#88 = EDGE_LOOP ( 'NONE', ( #286, #209, #284, #13 ) ) ;
#89 = ORIENTED_EDGE ( 'NONE', *, *, #148, .F. ) ;
#90 = CARTESIAN_POINT ( 'NONE',  ( -6.000000000000000888, 0.000000000000000000, -3.549999999999991829 ) ) ;
#91 = DIRECTION ( 'NONE',  ( 0.000000000000000000, 0.000000000000000000, 1.000000000000000000 ) ) ;
#92 = ORIENTED_EDGE ( 'NONE', *, *, #126, .T. ) ;
#93 = CIRCLE ( 'NONE', #202, 5.749999999999991118 ) ;
#94 = CIRCLE ( 'NONE', #218, 5.750000000000009770 ) ;
#95 = DIRECTION ( 'NONE',  ( 1.000000000000000000, 0.000000000000000000, 0.000000000000000000 ) ) ;
#96 = PRODUCT_DEFINITION_FORMATION_WITH_SPECIFIED_SOURCE ( 'ANY', '', #74, .NOT_KNOWN. ) ;
#97 = DIRECTION ( 'NONE',  ( 1.000000000000000000, 0.000000000000000000, 0.000000000000000000 ) ) ;
#98 = DIRECTION ( 'NONE',  ( 1.000000000000000000, 0.000000000000000000, 0.000000000000000000 ) ) ;
#99 = FACE_OUTER_BOUND ( 'NONE', #232, .T. ) ;
#100 = EDGE_CURVE ( 'NONE', #54, #162, #142, .T. ) ;
#101 = VECTOR ( 'NONE', #192, 1000.000000000000000 ) ;
#102 = CIRCLE ( 'NONE', #23, 6.000000000000000888 ) ;
#103 = ADVANCED_BREP_SHAPE_REPRESENTATION ( 'Bague bronze REP 8-1', ( #115, #295 ), #152 ) ;
#104 = ADVANCED_FACE ( 'NONE', ( #268 ), #12, .F. ) ;
#105 = SURFACE_SIDE_STYLE ('',( #231 ) ) ;
#106 = CARTESIAN_POINT ( 'NONE',  ( 6.000000000000000888, 7.347880794884119736E-16, 3.799999999999999822 ) ) ;
#107 = CARTESIAN_POINT ( 'NONE',  ( 0.000000000000000000, 0.000000000000000000, 3.799999999999999822 ) ) ;
#108 = CARTESIAN_POINT ( 'NONE',  ( 0.000000000000000000, 0.000000000000000000, 3.799999999999999822 ) ) ;
#109 = ORIENTED_EDGE ( 'NONE', *, *, #245, .T. ) ;
#110 = EDGE_CURVE ( 'NONE', #155, #239, #234, .T. ) ;
#111 = CARTESIAN_POINT ( 'NONE',  ( -5.750000000000009770, 0.000000000000000000, 3.799999999999999822 ) ) ;
#112 = SURFACE_STYLE_FILL_AREA ( #61 ) ;
#113 = CARTESIAN_POINT ( 'NONE',  ( 5.749999999999991118, 0.000000000000000000, -3.799999999999999822 ) ) ;
#114 = DIRECTION ( 'NONE',  ( -0.000000000000000000, -0.000000000000000000, -1.000000000000000000 ) ) ;
#115 = MANIFOLD_SOLID_BREP ( 'Chanfrein1', #176 ) ;
#116 = ORIENTED_EDGE ( 'NONE', *, *, #225, .F. ) ;
#117 = ADVANCED_FACE ( 'NONE', ( #99 ), #71, .T. ) ;
#118 = ORIENTED_EDGE ( 'NONE', *, *, #194, .F. ) ;
#119 = CIRCLE ( 'NONE', #49, 5.750000000000009770 ) ;
#120 = UNCERTAINTY_MEASURE_WITH_UNIT (LENGTH_MEASURE( 1.000000000000000082E-05 ), #139, 'distance_accuracy_value', 'NONE');
#121 = DIRECTION ( 'NONE',  ( -1.000000000000000000, 0.000000000000000000, 0.000000000000000000 ) ) ;
#122 = ORIENTED_EDGE ( 'NONE', *, *, #297, .T. ) ;
#123 = CARTESIAN_POINT ( 'NONE',  ( 0.000000000000000000, 0.000000000000000000, 3.799999999999999822 ) ) ;
#124 = CYLINDRICAL_SURFACE ( 'NONE', #169, 6.000000000000000888 ) ;
#125 = VERTEX_POINT ( 'NONE', #78 ) ;
#126 = EDGE_CURVE ( 'NONE', #306, #125, #270, .T. ) ;
#127 =( LENGTH_UNIT ( ) NAMED_UNIT ( * ) SI_UNIT ( .MILLI., .METRE. ) );
#128 = SHAPE_DEFINITION_REPRESENTATION ( #166, #103 ) ;
#129 = CONICAL_SURFACE ( 'NONE', #53, 6.000000000000000888, 0.7853981633974517207 ) ;
#130 = CARTESIAN_POINT ( 'NONE',  ( 0.000000000000000000, 0.000000000000000000, 3.799999999999999822 ) ) ;
#131 = DIRECTION ( 'NONE',  ( 0.000000000000000000, 0.000000000000000000, 1.000000000000000000 ) ) ;
#132 = ADVANCED_FACE ( 'NONE', ( #189 ), #124, .T. ) ;
#133 = FILL_AREA_STYLE_COLOUR ( '', #175 ) ;
#134 = CONICAL_SURFACE ( 'NONE', #85, 5.750000000000009770, 0.7853981633974465026 ) ;
#135 = ORIENTED_EDGE ( 'NONE', *, *, #173, .T. ) ;
#136 = DIRECTION ( 'NONE',  ( 0.000000000000000000, 0.000000000000000000, 1.000000000000000000 ) ) ;
#137 = AXIS2_PLACEMENT_3D ( 'NONE', #66, #263, #72 ) ;
#138 = ORIENTED_EDGE ( 'NONE', *, *, #100, .F. ) ;
#139 =( LENGTH_UNIT ( ) NAMED_UNIT ( * ) SI_UNIT ( .MILLI., .METRE. ) );
#140 =( NAMED_UNIT ( * ) SI_UNIT ( $, .STERADIAN. ) SOLID_ANGLE_UNIT ( ) );
#141 = ORIENTED_EDGE ( 'NONE', *, *, #194, .T. ) ;
#142 = LINE ( 'NONE', #210, #216 ) ;
#143 = DIRECTION ( 'NONE',  ( -1.000000000000000000, 0.000000000000000000, 0.000000000000000000 ) ) ;
#144 = DIRECTION ( 'NONE',  ( -0.000000000000000000, -0.000000000000000000, -1.000000000000000000 ) ) ;
#145 =( NAMED_UNIT ( * ) SI_UNIT ( $, .STERADIAN. ) SOLID_ANGLE_UNIT ( ) );
#146 = EDGE_CURVE ( 'NONE', #70, #239, #75, .T. ) ;
#147 = DIRECTION ( 'NONE',  ( 0.7071067811865500152, 0.000000000000000000, 0.7071067811865451302 ) ) ;
#148 = EDGE_CURVE ( 'NONE', #67, #54, #307, .T. ) ;
#149 = MECHANICAL_DESIGN_GEOMETRIC_PRESENTATION_REPRESENTATION (  '', ( #38 ), #299 ) ;
#150 = EDGE_CURVE ( 'NONE', #278, #70, #19, .T. ) ;
#151 = DIRECTION ( 'NONE',  ( 1.000000000000000000, 0.000000000000000000, -0.000000000000000000 ) ) ;
#152 =( GEOMETRIC_REPRESENTATION_CONTEXT ( 3 ) GLOBAL_UNCERTAINTY_ASSIGNED_CONTEXT ( ( #42 ) ) GLOBAL_UNIT_ASSIGNED_CONTEXT ( ( #127, #177, #140 ) ) REPRESENTATION_CONTEXT ( 'NONE', 'WORKASPACE' ) );
#153 = VERTEX_POINT ( 'NONE', #240 ) ;
#154 = EDGE_CURVE ( 'NONE', #306, #155, #224, .T. ) ;
#155 = VERTEX_POINT ( 'NONE', #250 ) ;
#156 = VECTOR ( 'NONE', #187, 1000.000000000000114 ) ;
#157 = SURFACE_SIDE_STYLE ('',( #112 ) ) ;
#158 = DIRECTION ( 'NONE',  ( -0.000000000000000000, -0.000000000000000000, 1.000000000000000000 ) ) ;
#159 = ORIENTED_EDGE ( 'NONE', *, *, #110, .F. ) ;
#160 = CARTESIAN_POINT ( 'NONE',  ( 0.000000000000000000, 0.000000000000000000, -3.799999999999999822 ) ) ;
#161 = CARTESIAN_POINT ( 'NONE',  ( 0.000000000000000000, 0.000000000000000000, -3.799999999999999822 ) ) ;
#162 = VERTEX_POINT ( 'NONE', #52 ) ;
#163 = DIRECTION ( 'NONE',  ( 1.000000000000000000, 0.000000000000000000, 0.000000000000000000 ) ) ;
#164 = DIRECTION ( 'NONE',  ( 1.000000000000000000, 0.000000000000000000, 0.000000000000000000 ) ) ;
#165 = CARTESIAN_POINT ( 'NONE',  ( -6.000000000000000888, 0.000000000000000000, 3.550000000000007372 ) ) ;
#166 = PRODUCT_DEFINITION_SHAPE ( 'NONE', 'NONE',  #235 ) ;
#167 = ADVANCED_FACE ( 'NONE', ( #27 ), #83, .F. ) ;
#168 = ORIENTED_EDGE ( 'NONE', *, *, #146, .F. ) ;
#169 = AXIS2_PLACEMENT_3D ( 'NONE', #123, #79, #121 ) ;
#170 = UNCERTAINTY_MEASURE_WITH_UNIT (LENGTH_MEASURE( 1.000000000000000082E-05 ), #44, 'distance_accuracy_value', 'NONE');
#171 = DIRECTION ( 'NONE',  ( 0.000000000000000000, 0.000000000000000000, 1.000000000000000000 ) ) ;
#172 = CARTESIAN_POINT ( 'NONE',  ( 6.000000000000000888, 0.000000000000000000, -3.549999999999991829 ) ) ;
#173 = EDGE_CURVE ( 'NONE', #278, #153, #94, .T. ) ;
#174 = CARTESIAN_POINT ( 'NONE',  ( -5.750000000000009770, 0.000000000000000000, 3.799999999999999822 ) ) ;
#175 = COLOUR_RGB ( '',0.9098039215686274384, 0.4431372549019607643, 0.03137254901960784270 ) ;
#176 = CLOSED_SHELL ( 'NONE', ( #249, #87, #104, #132, #200, #294, #73, #167, #217, #117 ) ) ;
#177 =( NAMED_UNIT ( * ) PLANE_ANGLE_UNIT ( ) SI_UNIT ( $, .RADIAN. ) );
#178 = PRODUCT_CONTEXT ( 'NONE', #280, 'mechanical' ) ;
#179 = ORIENTED_EDGE ( 'NONE', *, *, #51, .T. ) ;
#180 = PLANE ( 'NONE',  #227 ) ;
#181 = DIRECTION ( 'NONE',  ( 1.000000000000000000, 0.000000000000000000, 0.000000000000000000 ) ) ;
#182 = CARTESIAN_POINT ( 'NONE',  ( 0.000000000000000000, 0.000000000000000000, 3.799999999999999822 ) ) ;
#183 = ORIENTED_EDGE ( 'NONE', *, *, #255, .T. ) ;
#184 = DIRECTION ( 'NONE',  ( 0.000000000000000000, 0.000000000000000000, -1.000000000000000000 ) ) ;
#185 = FACE_BOUND ( 'NONE', #266, .T. ) ;
#186 = ORIENTED_EDGE ( 'NONE', *, *, #310, .T. ) ;
#187 = DIRECTION ( 'NONE',  ( -0.7071067811865500152, 8.659560562354963673E-17, 0.7071067811865451302 ) ) ;
#188 = DIRECTION ( 'NONE',  ( 0.000000000000000000, 0.000000000000000000, -1.000000000000000000 ) ) ;
#189 = FACE_OUTER_BOUND ( 'NONE', #65, .T. ) ;
#190 = FACE_OUTER_BOUND ( 'NONE', #39, .T. ) ;
#191 = AXIS2_PLACEMENT_3D ( 'NONE', #14, #171, #244 ) ;
#192 = DIRECTION ( 'NONE',  ( -0.000000000000000000, -0.000000000000000000, -1.000000000000000000 ) ) ;
#193 = LINE ( 'NONE', #311, #101 ) ;
#194 = EDGE_CURVE ( 'NONE', #251, #125, #201, .T. ) ;
#195 = APPLICATION_PROTOCOL_DEFINITION ( 'draft international standard', 'automotive_design', 1998, #271 ) ;
#196 = AXIS2_PLACEMENT_3D ( 'NONE', #130, #301, #256 ) ;
#197 = CIRCLE ( 'NONE', #219, 4.000000000000000000 ) ;
#198 = FACE_BOUND ( 'NONE', #3, .T. ) ;
#199 = DIRECTION ( 'NONE',  ( 0.000000000000000000, 0.000000000000000000, 1.000000000000000000 ) ) ;
#200 = ADVANCED_FACE ( 'NONE', ( #229, #198 ), #180, .T. ) ;
#201 = LINE ( 'NONE', #106, #63 ) ;
#202 = AXIS2_PLACEMENT_3D ( 'NONE', #8, #285, #259 ) ;
#203 = ORIENTED_EDGE ( 'NONE', *, *, #37, .T. ) ;
#204 = PRESENTATION_STYLE_ASSIGNMENT (( #2 ) ) ;
#205 = ORIENTED_EDGE ( 'NONE', *, *, #310, .F. ) ;
#206 = DIRECTION ( 'NONE',  ( 0.000000000000000000, 0.000000000000000000, -1.000000000000000000 ) ) ;
#207 = DIRECTION ( 'NONE',  ( 1.000000000000000000, 0.000000000000000000, 0.000000000000000000 ) ) ;
#208 = ORIENTED_EDGE ( 'NONE', *, *, #18, .T. ) ;
#209 = ORIENTED_EDGE ( 'NONE', *, *, #148, .T. ) ;
#210 = CARTESIAN_POINT ( 'NONE',  ( -4.000000000000000000, 0.000000000000000000, 3.799999999999999822 ) ) ;
#211 = SURFACE_STYLE_USAGE ( .BOTH. , #157 ) ;
#212 = CARTESIAN_POINT ( 'NONE',  ( 0.000000000000000000, 0.000000000000000000, -3.549999999999991829 ) ) ;
#213 = ORIENTED_EDGE ( 'NONE', *, *, #18, .F. ) ;
#214 = CARTESIAN_POINT ( 'NONE',  ( 5.750000000000009770, 7.041719095097292713E-16, 3.799999999999999822 ) ) ;
#215 = ORIENTED_EDGE ( 'NONE', *, *, #146, .T. ) ;
#216 = VECTOR ( 'NONE', #144, 1000.000000000000000 ) ;
#217 = ADVANCED_FACE ( 'NONE', ( #58 ), #134, .T. ) ;
#218 = AXIS2_PLACEMENT_3D ( 'NONE', #313, #136, #253 ) ;
#219 = AXIS2_PLACEMENT_3D ( 'NONE', #160, #283, #207 ) ;
#220 =( NAMED_UNIT ( * ) PLANE_ANGLE_UNIT ( ) SI_UNIT ( $, .RADIAN. ) );
#221 = CARTESIAN_POINT ( 'NONE',  ( 0.000000000000000000, 0.000000000000000000, 3.550000000000007372 ) ) ;
#222 = CARTESIAN_POINT ( 'NONE',  ( 0.000000000000000000, 0.000000000000000000, 0.000000000000000000 ) ) ;
#223 = DIRECTION ( 'NONE',  ( -0.000000000000000000, -0.000000000000000000, -1.000000000000000000 ) ) ;
#224 = CIRCLE ( 'NONE', #47, 5.749999999999991118 ) ;
#225 = EDGE_CURVE ( 'NONE', #153, #251, #261, .T. ) ;
#226 = FILL_AREA_STYLE ('',( #133 ) ) ;
#227 = AXIS2_PLACEMENT_3D ( 'NONE', #279, #131, #298 ) ;
#228 = ORIENTED_EDGE ( 'NONE', *, *, #24, .T. ) ;
#229 = FACE_OUTER_BOUND ( 'NONE', #287, .T. ) ;
#230 = CARTESIAN_POINT ( 'NONE',  ( 0.000000000000000000, 0.000000000000000000, 3.799999999999999822 ) ) ;
#231 = SURFACE_STYLE_FILL_AREA ( #226 ) ;
#232 = EDGE_LOOP ( 'NONE', ( #159, #275, #92, #29 ) ) ;
#233 = PRESENTATION_STYLE_ASSIGNMENT (( #211 ) ) ;
#234 = LINE ( 'NONE', #84, #156 ) ;
#235 = PRODUCT_DEFINITION ( 'UNKNOWN', '', #96, #46 ) ;
#236 = PRESENTATION_LAYER_ASSIGNMENT (  '', '', ( #76 ) ) ;
#237 = ORIENTED_EDGE ( 'NONE', *, *, #225, .T. ) ;
#238 = EDGE_LOOP ( 'NONE', ( #116, #26, #254, #57 ) ) ;
#239 = VERTEX_POINT ( 'NONE', #90 ) ;
#240 = CARTESIAN_POINT ( 'NONE',  ( 5.750000000000009770, 7.194799944990706717E-16, 3.799999999999999822 ) ) ;
#241 = CIRCLE ( 'NONE', #257, 6.000000000000000888 ) ;
#242 = DIRECTION ( 'NONE',  ( -0.000000000000000000, -0.000000000000000000, -1.000000000000000000 ) ) ;
#243 = AXIS2_PLACEMENT_3D ( 'NONE', #161, #7, #151 ) ;
#244 = DIRECTION ( 'NONE',  ( 1.000000000000000000, 0.000000000000000000, 0.000000000000000000 ) ) ;
#245 = EDGE_CURVE ( 'NONE', #70, #251, #241, .T. ) ;
#246 = CARTESIAN_POINT ( 'NONE',  ( 0.000000000000000000, 0.000000000000000000, -3.549999999999991829 ) ) ;
#247 = AXIS2_PLACEMENT_3D ( 'NONE', #212, #20, #97 ) ;
#248 = FACE_OUTER_BOUND ( 'NONE', #35, .T. ) ;
#249 = ADVANCED_FACE ( 'NONE', ( #190 ), #129, .T. ) ;
#250 = CARTESIAN_POINT ( 'NONE',  ( -5.749999999999991118, 7.194799944990695871E-16, -3.799999999999999822 ) ) ;
#251 = VERTEX_POINT ( 'NONE', #77 ) ;
#252 = CIRCLE ( 'NONE', #304, 6.000000000000000888 ) ;
#253 = DIRECTION ( 'NONE',  ( 1.000000000000000000, 0.000000000000000000, 0.000000000000000000 ) ) ;
#254 = ORIENTED_EDGE ( 'NONE', *, *, #150, .T. ) ;
#255 = EDGE_CURVE ( 'NONE', #67, #300, #193, .T. ) ;
#256 = DIRECTION ( 'NONE',  ( -1.000000000000000000, 0.000000000000000000, 0.000000000000000000 ) ) ;
#257 = AXIS2_PLACEMENT_3D ( 'NONE', #221, #48, #95 ) ;
#258 = CONICAL_SURFACE ( 'NONE', #308, 5.750000000000009770, 0.7853981633974465026 ) ;
#259 = DIRECTION ( 'NONE',  ( 1.000000000000000000, 0.000000000000000000, 0.000000000000000000 ) ) ;
#260 = DIRECTION ( 'NONE',  ( 0.000000000000000000, 0.000000000000000000, 1.000000000000000000 ) ) ;
#261 = LINE ( 'NONE', #214, #269 ) ;
#262 = EDGE_CURVE ( 'NONE', #125, #239, #252, .T. ) ;
#263 = DIRECTION ( 'NONE',  ( -0.000000000000000000, -0.000000000000000000, -1.000000000000000000 ) ) ;
#264 = ORIENTED_EDGE ( 'NONE', *, *, #55, .F. ) ;
#265 = CARTESIAN_POINT ( 'NONE',  ( 0.000000000000000000, 0.000000000000000000, 3.550000000000007372 ) ) ;
#266 = EDGE_LOOP ( 'NONE', ( #68, #228 ) ) ;
#267 = CARTESIAN_POINT ( 'NONE',  ( 0.000000000000000000, 0.000000000000000000, -3.799999999999999822 ) ) ;
#268 = FACE_OUTER_BOUND ( 'NONE', #64, .T. ) ;
#269 = VECTOR ( 'NONE', #11, 999.9999999999998863 ) ;
#270 = LINE ( 'NONE', #172, #1 ) ;
#271 = APPLICATION_CONTEXT ( 'automotive_design' ) ;
#272 = CIRCLE ( 'NONE', #289, 4.000000000000000000 ) ;
#273 = DIRECTION ( 'NONE',  ( -0.7071067811865462405, 0.000000000000000000, -0.7071067811865489050 ) ) ;
#274 = DIRECTION ( 'NONE',  ( -0.000000000000000000, -0.000000000000000000, 1.000000000000000000 ) ) ;
#275 = ORIENTED_EDGE ( 'NONE', *, *, #154, .F. ) ;
#276 = EDGE_LOOP ( 'NONE', ( #59, #237, #31, #32 ) ) ;
#277 = MECHANICAL_DESIGN_GEOMETRIC_PRESENTATION_REPRESENTATION (  '', ( #76 ), #30 ) ;
#278 = VERTEX_POINT ( 'NONE', #111 ) ;
#279 = CARTESIAN_POINT ( 'NONE',  ( 0.000000000000000000, 0.000000000000000000, 3.799999999999999822 ) ) ;
#280 = APPLICATION_CONTEXT ( 'automotive_design' ) ;
#281 = FILL_AREA_STYLE_COLOUR ( '', #15 ) ;
#282 = CARTESIAN_POINT ( 'NONE',  ( 0.000000000000000000, 0.000000000000000000, -3.549999999999991829 ) ) ;
#283 = DIRECTION ( 'NONE',  ( 0.000000000000000000, 0.000000000000000000, 1.000000000000000000 ) ) ;
#284 = ORIENTED_EDGE ( 'NONE', *, *, #100, .T. ) ;
#285 = DIRECTION ( 'NONE',  ( -0.000000000000000000, -0.000000000000000000, -1.000000000000000000 ) ) ;
#286 = ORIENTED_EDGE ( 'NONE', *, *, #255, .F. ) ;
#287 = EDGE_LOOP ( 'NONE', ( #135, #203 ) ) ;
#288 = AXIS2_PLACEMENT_3D ( 'NONE', #108, #260, #81 ) ;
#289 = AXIS2_PLACEMENT_3D ( 'NONE', #267, #91, #163 ) ;
#290 = DIRECTION ( 'NONE',  ( 1.000000000000000000, 0.000000000000000000, 0.000000000000000000 ) ) ;
#291 = CARTESIAN_POINT ( 'NONE',  ( -6.000000000000000888, 0.000000000000000000, 3.799999999999999822 ) ) ;
#292 =( NAMED_UNIT ( * ) PLANE_ANGLE_UNIT ( ) SI_UNIT ( $, .RADIAN. ) );
#293 = DIRECTION ( 'NONE',  ( -0.000000000000000000, -0.000000000000000000, 1.000000000000000000 ) ) ;
#294 = ADVANCED_FACE ( 'NONE', ( #248, #185 ), #28, .F. ) ;
#295 = AXIS2_PLACEMENT_3D ( 'NONE', #222, #199, #22 ) ;
#296 = AXIS2_PLACEMENT_3D ( 'NONE', #230, #114, #6 ) ;
#297 = EDGE_CURVE ( 'NONE', #239, #125, #102, .T. ) ;
#298 = DIRECTION ( 'NONE',  ( 1.000000000000000000, 0.000000000000000000, -0.000000000000000000 ) ) ;
#299 =( GEOMETRIC_REPRESENTATION_CONTEXT ( 3 ) GLOBAL_UNCERTAINTY_ASSIGNED_CONTEXT ( ( #120 ) ) GLOBAL_UNIT_ASSIGNED_CONTEXT ( ( #139, #220, #43 ) ) REPRESENTATION_CONTEXT ( 'NONE', 'WORKASPACE' ) );
#300 = VERTEX_POINT ( 'NONE', #10 ) ;
#301 = DIRECTION ( 'NONE',  ( -0.000000000000000000, -0.000000000000000000, -1.000000000000000000 ) ) ;
#302 = CARTESIAN_POINT ( 'NONE',  ( 4.000000000000000000, 4.898587196589411843E-16, 3.799999999999999822 ) ) ;
#303 = CARTESIAN_POINT ( 'NONE',  ( -4.000000000000000000, 0.000000000000000000, 3.799999999999999822 ) ) ;
#304 = AXIS2_PLACEMENT_3D ( 'NONE', #9, #274, #62 ) ;
#305 = ORIENTED_EDGE ( 'NONE', *, *, #262, .T. ) ;
#306 = VERTEX_POINT ( 'NONE', #113 ) ;
#307 = CIRCLE ( 'NONE', #191, 4.000000000000000000 ) ;
#308 = AXIS2_PLACEMENT_3D ( 'NONE', #182, #184, #69 ) ;
#309 = CARTESIAN_POINT ( 'NONE',  ( 0.000000000000000000, 0.000000000000000000, -3.799999999999999822 ) ) ;
#310 = EDGE_CURVE ( 'NONE', #54, #67, #17, .T. ) ;
#311 = CARTESIAN_POINT ( 'NONE',  ( 4.000000000000000000, 4.898587196589411843E-16, 3.799999999999999822 ) ) ;
#312 = AXIS2_PLACEMENT_3D ( 'NONE', #265, #188, #290 ) ;
#313 = CARTESIAN_POINT ( 'NONE',  ( 0.000000000000000000, 0.000000000000000000, 3.799999999999999822 ) ) ;
#314 = VECTOR ( 'NONE', #242, 1000.000000000000000 ) ;
ENDSEC;
END-ISO-10303-21;
