ISO-10303-21;
HEADER;
/* Generated by software containing ST-Developer
 * from STEP Tools, Inc. (www.steptools.com) 
 */

FILE_DESCRIPTION(
/* description */ (''),
/* implementation_level */ '2;1');

FILE_NAME(
/* name */ 'C:/Users/julie/Downloads/tuyere v9.step',
/* time_stamp */ '2021-01-31T22:11:33+01:00',
/* author */ (''),
/* organization */ (''),
/* preprocessor_version */ 'ST-DEVELOPER v18.1',
/* originating_system */ 'Autodesk Translation Framework v9.7.1.1290',
/* authorisation */ '');

FILE_SCHEMA (('AUTOMOTIVE_DESIGN { 1 0 10303 214 3 1 1 }'));
ENDSEC;

DATA;
#10=MECHANICAL_DESIGN_GEOMETRIC_PRESENTATION_REPRESENTATION('',(#13),#360);
#11=SHAPE_REPRESENTATION_RELATIONSHIP('SRR','None',#367,#12);
#12=ADVANCED_BREP_SHAPE_REPRESENTATION('',(#14),#359);
#13=STYLED_ITEM('',(#376),#14);
#14=MANIFOLD_SOLID_BREP('Corps2',#164);
#15=PLANE('',#196);
#16=CYLINDRICAL_SURFACE('',#191,5.);
#17=CYLINDRICAL_SURFACE('',#197,10.375);
#18=CYLINDRICAL_SURFACE('',#198,12.375);
#19=B_SPLINE_CURVE_WITH_KNOTS('',3,(#273,#274,#275,#276),.UNSPECIFIED.,
 .F.,.F.,(4,4),(1.50161472994719,1.50435013729779),.UNSPECIFIED.);
#20=B_SPLINE_CURVE_WITH_KNOTS('',3,(#278,#279,#280,#281,#282,#283,#284,
#285,#286,#287,#288,#289,#290,#291,#292,#293,#294,#295),.UNSPECIFIED.,.F.,
 .F.,(4,2,2,2,2,2,2,2,4),(1.50435013729779,1.69212946623681,1.88264420252644,
2.07274358580099,2.26284296907554,2.45151819129969,2.64019341352383,2.82720900492523,
3.01422459632662),.UNSPECIFIED.);
#21=B_SPLINE_CURVE_WITH_KNOTS('',3,(#296,#297,#298,#299,#300,#301,#302,
#303,#304,#305,#306,#307,#308,#309,#310,#311,#312,#313),.UNSPECIFIED.,.F.,
 .F.,(4,2,2,2,2,2,2,2,4),(0.,0.186167771381934,0.372335542763868,0.559023826946582,
0.745712111129297,0.933910531026456,1.12210895092362,1.3118618404354,1.50161472994719),
 .UNSPECIFIED.);
#22=B_SPLINE_CURVE_WITH_KNOTS('',3,(#317,#318,#319,#320,#321,#322,#323,
#324,#325,#326,#327,#328,#329,#330),.UNSPECIFIED.,.F.,.F.,(4,2,2,2,2,2,
4),(0.513471196016627,0.562706405026937,0.751381627251082,0.941481010525633,
1.13158039380018,1.32209513008981,1.50987445902884),.UNSPECIFIED.);
#23=B_SPLINE_CURVE_WITH_KNOTS('',3,(#334,#335,#336,#337,#338,#339,#340,
#341),.UNSPECIFIED.,.F.,.F.,(4,2,2,4),(1.51260986637943,1.70236275589122,
1.89211564540301,2.02658577573897),.UNSPECIFIED.);
#24=B_SPLINE_CURVE_WITH_KNOTS('',3,(#342,#343,#344,#345),.UNSPECIFIED.,
 .F.,.F.,(4,4),(1.50987445902884,1.51260986637943),.UNSPECIFIED.);
#25=LINE('',#271,#30);
#26=LINE('',#346,#31);
#27=LINE('',#349,#32);
#28=LINE('',#354,#33);
#29=LINE('',#356,#34);
#30=VECTOR('',#227,12.375);
#31=VECTOR('',#232,5.);
#32=VECTOR('',#235,12.375);
#33=VECTOR('',#244,10.375);
#34=VECTOR('',#247,12.375);
#35=CONICAL_SURFACE('',#190,10.4985140798427,0.35327999106237);
#36=CONICAL_SURFACE('',#193,12.375,0.35327999106237);
#37=FACE_OUTER_BOUND('',#45,.T.);
#38=FACE_OUTER_BOUND('',#46,.T.);
#39=FACE_OUTER_BOUND('',#47,.T.);
#40=FACE_OUTER_BOUND('',#48,.T.);
#41=FACE_OUTER_BOUND('',#49,.T.);
#42=FACE_OUTER_BOUND('',#50,.T.);
#43=FACE_OUTER_BOUND('',#51,.T.);
#44=FACE_OUTER_BOUND('',#52,.T.);
#45=EDGE_LOOP('',(#106,#107,#108,#109,#110,#111));
#46=EDGE_LOOP('',(#112,#113,#114,#115,#116,#117));
#47=EDGE_LOOP('',(#118,#119,#120,#121,#122,#123,#124));
#48=EDGE_LOOP('',(#125,#126,#127,#128,#129,#130,#131,#132,#133));
#49=EDGE_LOOP('',(#134,#135,#136,#137,#138,#139,#140));
#50=EDGE_LOOP('',(#141,#142));
#51=EDGE_LOOP('',(#143,#144,#145,#146,#147,#148));
#52=EDGE_LOOP('',(#149,#150,#151,#152,#153));
#53=CIRCLE('',#179,10.375);
#54=CIRCLE('',#180,10.375);
#55=CIRCLE('',#181,26.75);
#56=CIRCLE('',#182,12.375);
#57=CIRCLE('',#183,12.375);
#58=CIRCLE('',#185,9.99060464979585);
#59=CIRCLE('',#186,9.99060464979585);
#60=CIRCLE('',#187,2.5);
#61=CIRCLE('',#188,10.375);
#62=CIRCLE('',#189,10.375);
#63=CIRCLE('',#192,5.);
#64=CIRCLE('',#194,12.375);
#65=CIRCLE('',#195,5.);
#66=VERTEX_POINT('',#250);
#67=VERTEX_POINT('',#251);
#68=VERTEX_POINT('',#254);
#69=VERTEX_POINT('',#256);
#70=VERTEX_POINT('',#260);
#71=VERTEX_POINT('',#261);
#72=VERTEX_POINT('',#264);
#73=VERTEX_POINT('',#266);
#74=VERTEX_POINT('',#270);
#75=VERTEX_POINT('',#272);
#76=VERTEX_POINT('',#277);
#77=VERTEX_POINT('',#315);
#78=VERTEX_POINT('',#316);
#79=VERTEX_POINT('',#331);
#80=VERTEX_POINT('',#333);
#81=VERTEX_POINT('',#348);
#82=EDGE_CURVE('',#66,#67,#53,.T.);
#83=EDGE_CURVE('',#67,#66,#54,.T.);
#84=EDGE_CURVE('',#67,#68,#55,.T.);
#85=EDGE_CURVE('',#68,#69,#56,.T.);
#86=EDGE_CURVE('',#69,#68,#57,.T.);
#87=EDGE_CURVE('',#70,#71,#58,.T.);
#88=EDGE_CURVE('',#71,#70,#59,.T.);
#89=EDGE_CURVE('',#70,#72,#60,.T.);
#90=EDGE_CURVE('',#72,#73,#61,.T.);
#91=EDGE_CURVE('',#73,#72,#62,.T.);
#92=EDGE_CURVE('',#71,#74,#25,.T.);
#93=EDGE_CURVE('',#74,#75,#19,.T.);
#94=EDGE_CURVE('',#75,#76,#20,.T.);
#95=EDGE_CURVE('',#76,#74,#21,.T.);
#96=EDGE_CURVE('',#77,#78,#22,.T.);
#97=EDGE_CURVE('',#79,#77,#63,.T.);
#98=EDGE_CURVE('',#80,#79,#23,.T.);
#99=EDGE_CURVE('',#78,#80,#24,.T.);
#100=EDGE_CURVE('',#78,#75,#26,.T.);
#101=EDGE_CURVE('',#80,#81,#27,.T.);
#102=EDGE_CURVE('',#81,#81,#64,.T.);
#103=EDGE_CURVE('',#79,#77,#65,.T.);
#104=EDGE_CURVE('',#66,#73,#28,.T.);
#105=EDGE_CURVE('',#69,#81,#29,.T.);
#106=ORIENTED_EDGE('',*,*,#82,.F.);
#107=ORIENTED_EDGE('',*,*,#83,.F.);
#108=ORIENTED_EDGE('',*,*,#84,.T.);
#109=ORIENTED_EDGE('',*,*,#85,.T.);
#110=ORIENTED_EDGE('',*,*,#86,.T.);
#111=ORIENTED_EDGE('',*,*,#84,.F.);
#112=ORIENTED_EDGE('',*,*,#87,.T.);
#113=ORIENTED_EDGE('',*,*,#88,.T.);
#114=ORIENTED_EDGE('',*,*,#89,.T.);
#115=ORIENTED_EDGE('',*,*,#90,.T.);
#116=ORIENTED_EDGE('',*,*,#91,.T.);
#117=ORIENTED_EDGE('',*,*,#89,.F.);
#118=ORIENTED_EDGE('',*,*,#87,.F.);
#119=ORIENTED_EDGE('',*,*,#88,.F.);
#120=ORIENTED_EDGE('',*,*,#92,.T.);
#121=ORIENTED_EDGE('',*,*,#93,.T.);
#122=ORIENTED_EDGE('',*,*,#94,.T.);
#123=ORIENTED_EDGE('',*,*,#95,.T.);
#124=ORIENTED_EDGE('',*,*,#92,.F.);
#125=ORIENTED_EDGE('',*,*,#96,.F.);
#126=ORIENTED_EDGE('',*,*,#97,.F.);
#127=ORIENTED_EDGE('',*,*,#98,.F.);
#128=ORIENTED_EDGE('',*,*,#99,.F.);
#129=ORIENTED_EDGE('',*,*,#100,.T.);
#130=ORIENTED_EDGE('',*,*,#93,.F.);
#131=ORIENTED_EDGE('',*,*,#95,.F.);
#132=ORIENTED_EDGE('',*,*,#94,.F.);
#133=ORIENTED_EDGE('',*,*,#100,.F.);
#134=ORIENTED_EDGE('',*,*,#96,.T.);
#135=ORIENTED_EDGE('',*,*,#99,.T.);
#136=ORIENTED_EDGE('',*,*,#101,.T.);
#137=ORIENTED_EDGE('',*,*,#102,.T.);
#138=ORIENTED_EDGE('',*,*,#101,.F.);
#139=ORIENTED_EDGE('',*,*,#98,.T.);
#140=ORIENTED_EDGE('',*,*,#103,.T.);
#141=ORIENTED_EDGE('',*,*,#97,.T.);
#142=ORIENTED_EDGE('',*,*,#103,.F.);
#143=ORIENTED_EDGE('',*,*,#82,.T.);
#144=ORIENTED_EDGE('',*,*,#83,.T.);
#145=ORIENTED_EDGE('',*,*,#104,.T.);
#146=ORIENTED_EDGE('',*,*,#90,.F.);
#147=ORIENTED_EDGE('',*,*,#91,.F.);
#148=ORIENTED_EDGE('',*,*,#104,.F.);
#149=ORIENTED_EDGE('',*,*,#85,.F.);
#150=ORIENTED_EDGE('',*,*,#86,.F.);
#151=ORIENTED_EDGE('',*,*,#105,.T.);
#152=ORIENTED_EDGE('',*,*,#102,.F.);
#153=ORIENTED_EDGE('',*,*,#105,.F.);
#154=TOROIDAL_SURFACE('',#178,36.7001487804912,26.75);
#155=TOROIDAL_SURFACE('',#184,12.3362120499925,2.5);
#156=ADVANCED_FACE('',(#37),#154,.T.);
#157=ADVANCED_FACE('',(#38),#155,.T.);
#158=ADVANCED_FACE('',(#39),#35,.F.);
#159=ADVANCED_FACE('',(#40),#16,.F.);
#160=ADVANCED_FACE('',(#41),#36,.T.);
#161=ADVANCED_FACE('',(#42),#15,.F.);
#162=ADVANCED_FACE('',(#43),#17,.F.);
#163=ADVANCED_FACE('',(#44),#18,.T.);
#164=CLOSED_SHELL('',(#156,#157,#158,#159,#160,#161,#162,#163));
#165=DERIVED_UNIT_ELEMENT(#167,1.);
#166=DERIVED_UNIT_ELEMENT(#362,-3.);
#167=(
MASS_UNIT()
NAMED_UNIT(*)
SI_UNIT(.KILO.,.GRAM.)
);
#168=DERIVED_UNIT((#165,#166));
#169=MEASURE_REPRESENTATION_ITEM('density measure',
POSITIVE_RATIO_MEASURE(3400.),#168);
#170=PROPERTY_DEFINITION_REPRESENTATION(#175,#172);
#171=PROPERTY_DEFINITION_REPRESENTATION(#176,#173);
#172=REPRESENTATION('material name',(#174),#359);
#173=REPRESENTATION('density',(#169),#359);
#174=DESCRIPTIVE_REPRESENTATION_ITEM('Porcelaine','Porcelaine');
#175=PROPERTY_DEFINITION('material property','material name',#369);
#176=PROPERTY_DEFINITION('material property','density of part',#369);
#177=AXIS2_PLACEMENT_3D('placement',#248,#199,#200);
#178=AXIS2_PLACEMENT_3D('',#249,#201,#202);
#179=AXIS2_PLACEMENT_3D('',#252,#203,#204);
#180=AXIS2_PLACEMENT_3D('',#253,#205,#206);
#181=AXIS2_PLACEMENT_3D('',#255,#207,#208);
#182=AXIS2_PLACEMENT_3D('',#257,#209,#210);
#183=AXIS2_PLACEMENT_3D('',#258,#211,#212);
#184=AXIS2_PLACEMENT_3D('',#259,#213,#214);
#185=AXIS2_PLACEMENT_3D('',#262,#215,#216);
#186=AXIS2_PLACEMENT_3D('',#263,#217,#218);
#187=AXIS2_PLACEMENT_3D('',#265,#219,#220);
#188=AXIS2_PLACEMENT_3D('',#267,#221,#222);
#189=AXIS2_PLACEMENT_3D('',#268,#223,#224);
#190=AXIS2_PLACEMENT_3D('',#269,#225,#226);
#191=AXIS2_PLACEMENT_3D('',#314,#228,#229);
#192=AXIS2_PLACEMENT_3D('',#332,#230,#231);
#193=AXIS2_PLACEMENT_3D('',#347,#233,#234);
#194=AXIS2_PLACEMENT_3D('',#350,#236,#237);
#195=AXIS2_PLACEMENT_3D('',#351,#238,#239);
#196=AXIS2_PLACEMENT_3D('',#352,#240,#241);
#197=AXIS2_PLACEMENT_3D('',#353,#242,#243);
#198=AXIS2_PLACEMENT_3D('',#355,#245,#246);
#199=DIRECTION('axis',(0.,0.,1.));
#200=DIRECTION('refdir',(1.,0.,0.));
#201=DIRECTION('center_axis',(1.7597356609777E-48,1.38917872912129E-32,
-1.));
#202=DIRECTION('ref_axis',(-1.,1.26674532519715E-16,0.));
#203=DIRECTION('center_axis',(0.,0.,-1.));
#204=DIRECTION('ref_axis',(1.,0.,0.));
#205=DIRECTION('center_axis',(0.,0.,-1.));
#206=DIRECTION('ref_axis',(1.,0.,0.));
#207=DIRECTION('center_axis',(-4.20985260497949E-18,-1.,-1.38917872912129E-32));
#208=DIRECTION('ref_axis',(1.,-4.20985260497949E-18,0.));
#209=DIRECTION('center_axis',(0.,0.,-1.));
#210=DIRECTION('ref_axis',(1.,0.,0.));
#211=DIRECTION('center_axis',(0.,0.,-1.));
#212=DIRECTION('ref_axis',(1.,0.,0.));
#213=DIRECTION('center_axis',(0.,0.,-1.));
#214=DIRECTION('ref_axis',(-1.,0.,0.));
#215=DIRECTION('center_axis',(0.,0.,1.));
#216=DIRECTION('ref_axis',(-1.,0.,0.));
#217=DIRECTION('center_axis',(0.,0.,1.));
#218=DIRECTION('ref_axis',(-1.,0.,0.));
#219=DIRECTION('center_axis',(1.22464679914735E-16,-1.,0.));
#220=DIRECTION('ref_axis',(1.,1.22464679914735E-16,0.));
#221=DIRECTION('center_axis',(0.,0.,-1.));
#222=DIRECTION('ref_axis',(1.,0.,0.));
#223=DIRECTION('center_axis',(0.,0.,-1.));
#224=DIRECTION('ref_axis',(1.,0.,0.));
#225=DIRECTION('center_axis',(0.,0.,-1.));
#226=DIRECTION('ref_axis',(1.,0.,0.));
#227=DIRECTION('',(0.345977091529,4.236997377193E-17,0.938242960078643));
#228=DIRECTION('center_axis',(0.,0.,-1.));
#229=DIRECTION('ref_axis',(1.,0.,0.));
#230=DIRECTION('center_axis',(0.,0.,-1.));
#231=DIRECTION('ref_axis',(1.,0.,0.));
#232=DIRECTION('',(0.,0.,-1.));
#233=DIRECTION('center_axis',(0.,0.,-1.));
#234=DIRECTION('ref_axis',(1.,0.,0.));
#235=DIRECTION('',(-0.345977091529,-4.236997377193E-17,-0.938242960078643));
#236=DIRECTION('center_axis',(0.,0.,1.));
#237=DIRECTION('ref_axis',(1.,0.,0.));
#238=DIRECTION('center_axis',(0.,0.,-1.));
#239=DIRECTION('ref_axis',(1.,0.,0.));
#240=DIRECTION('center_axis',(0.,0.,-1.));
#241=DIRECTION('ref_axis',(-1.,0.,0.));
#242=DIRECTION('center_axis',(0.,0.,-1.));
#243=DIRECTION('ref_axis',(1.,0.,0.));
#244=DIRECTION('',(0.,0.,1.));
#245=DIRECTION('center_axis',(0.,0.,-1.));
#246=DIRECTION('ref_axis',(1.,0.,0.));
#247=DIRECTION('',(0.,0.,1.));
#248=CARTESIAN_POINT('',(0.,0.,0.));
#249=CARTESIAN_POINT('Origin',(0.,0.,-13.8712248289865));
#250=CARTESIAN_POINT('',(-10.375,1.27057105411538E-15,-18.6198079529301));
#251=CARTESIAN_POINT('',(10.375,-4.36772207766621E-17,-18.6198079529301));
#252=CARTESIAN_POINT('Origin',(0.,0.,-18.6198079529301));
#253=CARTESIAN_POINT('Origin',(0.,0.,-18.6198079529301));
#254=CARTESIAN_POINT('',(12.375,-5.20969259866209E-17,-25.));
#255=CARTESIAN_POINT('Origin',(36.7001487804912,-1.54502216946686E-16,-13.8712248289865));
#256=CARTESIAN_POINT('',(-12.375,1.51550041394485E-15,-25.));
#257=CARTESIAN_POINT('Origin',(0.,0.,-25.));
#258=CARTESIAN_POINT('Origin',(0.,0.,-25.));
#259=CARTESIAN_POINT('Origin',(0.,0.,1.55037005097635));
#260=CARTESIAN_POINT('',(9.99060464979585,1.22349620059191E-15,0.68542732215385));
#261=CARTESIAN_POINT('',(-9.99060464979585,-1.22349620059191E-15,0.685427322153849));
#262=CARTESIAN_POINT('Origin',(0.,0.,0.68542732215385));
#263=CARTESIAN_POINT('Origin',(0.,0.,0.68542732215385));
#264=CARTESIAN_POINT('',(10.375,1.27057105411538E-15,0.));
#265=CARTESIAN_POINT('Origin',(12.3362120499925,1.51075026006263E-15,1.55037005097635));
#266=CARTESIAN_POINT('',(-10.375,1.27057105411538E-15,0.));
#267=CARTESIAN_POINT('Origin',(0.,0.,0.));
#268=CARTESIAN_POINT('Origin',(0.,0.,0.));
#269=CARTESIAN_POINT('Origin',(0.,0.,-0.691954183057999));
#270=CARTESIAN_POINT('',(-5.04981170805829,-1.01044970111304E-16,14.0841878421201));
#271=CARTESIAN_POINT('',(-10.4985140798427,-1.28569716636828E-15,-0.691954183057999));
#272=CARTESIAN_POINT('',(-5.04988665692508,-0.027376687215908,14.0837833506752));
#273=CARTESIAN_POINT('Ctrl Pts',(-5.0498117080583,4.72759450964858E-16,
14.0841878421201));
#274=CARTESIAN_POINT('Ctrl Pts',(-5.04986162681825,-0.00911688286159749,
14.0840524692117));
#275=CARTESIAN_POINT('Ctrl Pts',(-5.0498866569219,-0.0182425413973285,14.0839176360655));
#276=CARTESIAN_POINT('Ctrl Pts',(-5.04988665692508,-0.0273766863463202,
14.0837833506752));
#277=CARTESIAN_POINT('',(4.95003839420813,0.,14.3547595406968));
#278=CARTESIAN_POINT('Ctrl Pts',(-5.04988665692508,-0.0273766863463203,
14.0837833506752));
#279=CARTESIAN_POINT('Ctrl Pts',(-5.04988665714319,-0.654414413863539,14.0745649721134));
#280=CARTESIAN_POINT('Ctrl Pts',(-4.92497474606239,-1.32144932907664,14.0681136843234));
#281=CARTESIAN_POINT('Ctrl Pts',(-4.41440295035319,-2.55819678512401,14.0636155098598));
#282=CARTESIAN_POINT('Ctrl Pts',(-4.02476053537632,-3.12634990399751,14.0656973242237));
#283=CARTESIAN_POINT('Ctrl Pts',(-3.12487134483122,-4.02061723876871,14.0766477654783));
#284=CARTESIAN_POINT('Ctrl Pts',(-2.55570565887675,-4.40606932474366,14.086222007807));
#285=CARTESIAN_POINT('Ctrl Pts',(-1.30997010420434,-4.91248342009225,14.1121788090725));
#286=CARTESIAN_POINT('Ctrl Pts',(-0.633401259295221,-5.03344778287667,14.1285645883753));
#287=CARTESIAN_POINT('Ctrl Pts',(0.628656028736193,-5.02085519229331,14.1627139865675));
#288=CARTESIAN_POINT('Ctrl Pts',(1.29786073701603,-4.88835984637023,14.1827146472247));
#289=CARTESIAN_POINT('Ctrl Pts',(2.52584919901348,-4.36456069440012,14.2236695415009));
#290=CARTESIAN_POINT('Ctrl Pts',(3.0846331917449,-3.97325750764682,14.2446245290972));
#291=CARTESIAN_POINT('Ctrl Pts',(3.95998715774377,-3.07847162670409,14.2817155545802));
#292=CARTESIAN_POINT('Ctrl Pts',(4.33667116678331,-2.51666084666387,14.3003513564015));
#293=CARTESIAN_POINT('Ctrl Pts',(4.83340444058696,-1.2890791967386,14.3322473877263));
#294=CARTESIAN_POINT('Ctrl Pts',(4.95345126301274,-0.623307252473993,14.3455043032606));
#295=CARTESIAN_POINT('Ctrl Pts',(4.95003839420813,0.,14.3547595406968));
#296=CARTESIAN_POINT('Ctrl Pts',(4.95003839420813,-2.77555756156289E-16,
14.3547595406968));
#297=CARTESIAN_POINT('Ctrl Pts',(4.94664099736751,0.620481539585759,14.3639728202646));
#298=CARTESIAN_POINT('Ctrl Pts',(4.82043010481099,1.28217991814968,14.3704567488691));
#299=CARTESIAN_POINT('Ctrl Pts',(4.31432294366649,2.50019100174738,14.3748986593973));
#300=CARTESIAN_POINT('Ctrl Pts',(3.93442610969639,3.05650347458155,14.3728558933334));
#301=CARTESIAN_POINT('Ctrl Pts',(3.05847516545176,3.93813817185233,14.3621287122307));
#302=CARTESIAN_POINT('Ctrl Pts',(2.50297293002968,4.32233313762735,14.3527020662549));
#303=CARTESIAN_POINT('Ctrl Pts',(1.28475267846877,4.83634672950127,14.3271453312535));
#304=CARTESIAN_POINT('Ctrl Pts',(0.622035654509277,4.96616787307784,14.3110185810501));
#305=CARTESIAN_POINT('Ctrl Pts',(-0.627067348177924,4.9786312080298,14.2772197066042));
#306=CARTESIAN_POINT('Ctrl Pts',(-1.2971899755485,4.86012952193536,14.2572531164976));
#307=CARTESIAN_POINT('Ctrl Pts',(-2.53293986227876,4.36328719108804,14.216387029181));
#308=CARTESIAN_POINT('Ctrl Pts',(-3.09856732963809,3.98494700630595,14.1954882294383));
#309=CARTESIAN_POINT('Ctrl Pts',(-3.99864862549226,3.10423573895226,14.1581740258849));
#310=CARTESIAN_POINT('Ctrl Pts',(-4.39150014285457,2.54183738349972,14.1392954077405));
#311=CARTESIAN_POINT('Ctrl Pts',(-4.91535148605974,1.30593520440377,14.1069992859061));
#312=CARTESIAN_POINT('Ctrl Pts',(-5.04634888598904,0.632430437079106,14.0935785460367));
#313=CARTESIAN_POINT('Ctrl Pts',(-5.0498117080583,4.16333634234434E-16,
14.0841878421201));
#314=CARTESIAN_POINT('Origin',(-0.0498866569250817,-0.0273766880854964,
14.));
#315=CARTESIAN_POINT('',(2.38049718927625,-4.39695725836036,20.));
#316=CARTESIAN_POINT('',(-5.04988665692508,-0.0273766872159087,19.864512910431));
#317=CARTESIAN_POINT('Ctrl Pts',(2.38049718927625,-4.39695725836036,20.));
#318=CARTESIAN_POINT('Ctrl Pts',(2.22876100574206,-4.48135372694923,19.9946412980463));
#319=CARTESIAN_POINT('Ctrl Pts',(2.0720780960863,-4.55811700722995,19.9892652884228));
#320=CARTESIAN_POINT('Ctrl Pts',(1.29786073701603,-4.88835984637023,19.9634442069804));
#321=CARTESIAN_POINT('Ctrl Pts',(0.628656028736192,-5.02085519229331,19.9434435463232));
#322=CARTESIAN_POINT('Ctrl Pts',(-0.63340125929522,-5.03344778287667,19.9092941481311));
#323=CARTESIAN_POINT('Ctrl Pts',(-1.30997010420434,-4.91248342009225,19.8929083688282));
#324=CARTESIAN_POINT('Ctrl Pts',(-2.55570565887675,-4.40606932474366,19.8669515675627));
#325=CARTESIAN_POINT('Ctrl Pts',(-3.12487134483122,-4.02061723876871,19.8573773252341));
#326=CARTESIAN_POINT('Ctrl Pts',(-4.02476053537632,-3.12634990399751,19.8464268839795));
#327=CARTESIAN_POINT('Ctrl Pts',(-4.41440295035319,-2.55819678512401,19.8443450696155));
#328=CARTESIAN_POINT('Ctrl Pts',(-4.92497474606239,-1.32144932907664,19.8488432440791));
#329=CARTESIAN_POINT('Ctrl Pts',(-5.04988665714319,-0.654414413863539,19.8552945318691));
#330=CARTESIAN_POINT('Ctrl Pts',(-5.04988665692508,-0.0273766863463212,
19.864512910431));
#331=CARTESIAN_POINT('',(-2.43038384620133,4.36958057027487,20.));
#332=CARTESIAN_POINT('Origin',(-0.0498866569250817,-0.0273766880854964,
20.));
#333=CARTESIAN_POINT('',(-5.04981170805829,-3.78600726267593E-16,19.8649174018758));
#334=CARTESIAN_POINT('Ctrl Pts',(-5.04981170805829,-4.16333634234434E-16,
19.8649174018758));
#335=CARTESIAN_POINT('Ctrl Pts',(-5.04634888598904,0.632430437079106,19.8743081057924));
#336=CARTESIAN_POINT('Ctrl Pts',(-4.91535148605974,1.30593520440377,19.8877288456618));
#337=CARTESIAN_POINT('Ctrl Pts',(-4.39150014285457,2.54183738349973,19.9200249674963));
#338=CARTESIAN_POINT('Ctrl Pts',(-3.99864862549226,3.10423573895226,19.9389035856406));
#339=CARTESIAN_POINT('Ctrl Pts',(-3.22651986555574,3.85974804862489,19.9709133272611));
#340=CARTESIAN_POINT('Ctrl Pts',(-2.84718063339543,4.1439282561596,19.9853720887596));
#341=CARTESIAN_POINT('Ctrl Pts',(-2.43038384620133,4.36958057027487,20.));
#342=CARTESIAN_POINT('Ctrl Pts',(-5.04988665692508,-0.0273766863463211,
19.864512910431));
#343=CARTESIAN_POINT('Ctrl Pts',(-5.0498866569219,-0.0182425413973294,19.8646471958213));
#344=CARTESIAN_POINT('Ctrl Pts',(-5.04986162681825,-0.00911688286159844,
19.8647820289675));
#345=CARTESIAN_POINT('Ctrl Pts',(-5.0498117080583,-5.07677125890507E-16,
19.8649174018758));
#346=CARTESIAN_POINT('',(-5.04988665692508,-0.0273766880854958,14.));
#347=CARTESIAN_POINT('Origin',(0.,0.,0.));
#348=CARTESIAN_POINT('',(-12.375,-1.51550041394485E-15,-6.18199402883201E-16));
#349=CARTESIAN_POINT('',(-12.375,-1.51550041394485E-15,0.));
#350=CARTESIAN_POINT('Origin',(0.,0.,0.));
#351=CARTESIAN_POINT('Origin',(0.,0.,20.));
#352=CARTESIAN_POINT('Origin',(0.,0.,20.));
#353=CARTESIAN_POINT('Origin',(0.,0.,0.));
#354=CARTESIAN_POINT('',(-10.375,1.27057105411538E-15,0.));
#355=CARTESIAN_POINT('Origin',(0.,0.,0.));
#356=CARTESIAN_POINT('',(-12.375,1.51550041394485E-15,0.));
#357=UNCERTAINTY_MEASURE_WITH_UNIT(LENGTH_MEASURE(0.01),#361,
'DISTANCE_ACCURACY_VALUE',
'Maximum model space distance between geometric entities at asserted c
onnectivities');
#358=UNCERTAINTY_MEASURE_WITH_UNIT(LENGTH_MEASURE(0.01),#361,
'DISTANCE_ACCURACY_VALUE',
'Maximum model space distance between geometric entities at asserted c
onnectivities');
#359=(
GEOMETRIC_REPRESENTATION_CONTEXT(3)
GLOBAL_UNCERTAINTY_ASSIGNED_CONTEXT((#357))
GLOBAL_UNIT_ASSIGNED_CONTEXT((#361,#363,#364))
REPRESENTATION_CONTEXT('','3D')
);
#360=(
GEOMETRIC_REPRESENTATION_CONTEXT(3)
GLOBAL_UNCERTAINTY_ASSIGNED_CONTEXT((#358))
GLOBAL_UNIT_ASSIGNED_CONTEXT((#361,#363,#364))
REPRESENTATION_CONTEXT('','3D')
);
#361=(
LENGTH_UNIT()
NAMED_UNIT(*)
SI_UNIT(.MILLI.,.METRE.)
);
#362=(
LENGTH_UNIT()
NAMED_UNIT(*)
SI_UNIT($,.METRE.)
);
#363=(
NAMED_UNIT(*)
PLANE_ANGLE_UNIT()
SI_UNIT($,.RADIAN.)
);
#364=(
NAMED_UNIT(*)
SI_UNIT($,.STERADIAN.)
SOLID_ANGLE_UNIT()
);
#365=SHAPE_DEFINITION_REPRESENTATION(#366,#367);
#366=PRODUCT_DEFINITION_SHAPE('',$,#369);
#367=SHAPE_REPRESENTATION('',(#177),#359);
#368=PRODUCT_DEFINITION_CONTEXT('part definition',#373,'design');
#369=PRODUCT_DEFINITION('tuyere','tuyere v9',#370,#368);
#370=PRODUCT_DEFINITION_FORMATION('',$,#375);
#371=PRODUCT_RELATED_PRODUCT_CATEGORY('tuyere v9','tuyere v9',(#375));
#372=APPLICATION_PROTOCOL_DEFINITION('international standard',
'automotive_design',2009,#373);
#373=APPLICATION_CONTEXT(
'Core Data for Automotive Mechanical Design Process');
#374=PRODUCT_CONTEXT('part definition',#373,'mechanical');
#375=PRODUCT('tuyere','tuyere v9',$,(#374));
#376=PRESENTATION_STYLE_ASSIGNMENT((#377));
#377=SURFACE_STYLE_USAGE(.BOTH.,#378);
#378=SURFACE_SIDE_STYLE('',(#379));
#379=SURFACE_STYLE_FILL_AREA(#380);
#380=FILL_AREA_STYLE('Plastique - Mat (blanc)',(#381));
#381=FILL_AREA_STYLE_COLOUR('Plastique - Mat (blanc)',#382);
#382=COLOUR_RGB('Plastique - Mat (blanc)',0.964705882352941,0.964705882352941,
0.952941176470588);
ENDSEC;
END-ISO-10303-21;
