ISO-10303-21;
HEADER;
FILE_DESCRIPTION((''),'2;1');
FILE_NAME('PLAQUE_SUPPORT_POT','2021-01-24T',('jf'),(''),
'PRO/ENGINEER BY PARAMETRIC TECHNOLOGY CORPORATION, 2008230',
'PRO/ENGINEER BY PARAMETRIC TECHNOLOGY CORPORATION, 2008230','');
FILE_SCHEMA(('CONFIG_CONTROL_DESIGN'));
ENDSEC;
DATA;
#1=CARTESIAN_POINT('',(0.E0,0.E0,0.E0));
#2=DIRECTION('',(0.E0,0.E0,-1.E0));
#3=DIRECTION('',(1.E0,0.E0,0.E0));
#4=AXIS2_PLACEMENT_3D('',#1,#2,#3);
#6=CARTESIAN_POINT('',(0.E0,0.E0,0.E0));
#7=DIRECTION('',(0.E0,0.E0,-1.E0));
#8=DIRECTION('',(-1.E0,0.E0,0.E0));
#9=AXIS2_PLACEMENT_3D('',#6,#7,#8);
#11=CARTESIAN_POINT('',(6.E1,0.E0,0.E0));
#12=DIRECTION('',(0.E0,0.E0,-1.E0));
#13=DIRECTION('',(1.E0,0.E0,0.E0));
#14=AXIS2_PLACEMENT_3D('',#11,#12,#13);
#16=CARTESIAN_POINT('',(6.E1,0.E0,0.E0));
#17=DIRECTION('',(0.E0,0.E0,-1.E0));
#18=DIRECTION('',(-1.E0,0.E0,0.E0));
#19=AXIS2_PLACEMENT_3D('',#16,#17,#18);
#21=CARTESIAN_POINT('',(1.5E1,1.15E2,0.E0));
#22=DIRECTION('',(0.E0,0.E0,-1.E0));
#23=DIRECTION('',(1.E0,0.E0,0.E0));
#24=AXIS2_PLACEMENT_3D('',#21,#22,#23);
#26=CARTESIAN_POINT('',(1.5E1,1.15E2,0.E0));
#27=DIRECTION('',(0.E0,0.E0,-1.E0));
#28=DIRECTION('',(-1.E0,0.E0,0.E0));
#29=AXIS2_PLACEMENT_3D('',#26,#27,#28);
#31=CARTESIAN_POINT('',(0.E0,0.E0,0.E0));
#32=DIRECTION('',(0.E0,0.E0,1.E0));
#33=DIRECTION('',(-9.916004111862E-1,1.293391840678E-1,0.E0));
#34=AXIS2_PLACEMENT_3D('',#31,#32,#33);
#36=DIRECTION('',(1.E0,0.E0,0.E0));
#37=VECTOR('',#36,6.E1);
#38=CARTESIAN_POINT('',(0.E0,-1.E1,0.E0));
#39=LINE('',#38,#37);
#40=CARTESIAN_POINT('',(6.E1,0.E0,0.E0));
#41=DIRECTION('',(0.E0,0.E0,1.E0));
#42=DIRECTION('',(0.E0,-1.E0,0.E0));
#43=AXIS2_PLACEMENT_3D('',#40,#41,#42);
#45=DIRECTION('',(-3.643993485805E-1,9.312427797058E-1,0.E0));
#46=VECTOR('',#45,1.234908903523E2);
#47=CARTESIAN_POINT('',(6.931242779706E1,3.643993485805E0,0.E0));
#48=LINE('',#47,#46);
#49=CARTESIAN_POINT('',(1.5E1,1.15E2,0.E0));
#50=DIRECTION('',(0.E0,0.E0,1.E0));
#51=DIRECTION('',(9.312427797058E-1,3.643993485805E-1,0.E0));
#52=AXIS2_PLACEMENT_3D('',#49,#50,#51);
#54=DIRECTION('',(-1.293391840678E-1,-9.916004111862E-1,0.E0));
#55=VECTOR('',#54,1.159741350474E2);
#56=CARTESIAN_POINT('',(5.083995888138E0,1.162933918407E2,0.E0));
#57=LINE('',#56,#55);
#58=CARTESIAN_POINT('',(1.646641644056E1,1.8E1,0.E0));
#59=DIRECTION('',(0.E0,0.E0,-1.E0));
#60=DIRECTION('',(0.E0,-1.E0,0.E0));
#61=AXIS2_PLACEMENT_3D('',#58,#59,#60);
#63=DIRECTION('',(1.293391840678E-1,9.916004111862E-1,0.E0));
#64=VECTOR('',#63,4.147318510844E1);
#65=CARTESIAN_POINT('',(8.533613151067E0,1.903471347254E1,0.E0));
#66=LINE('',#65,#64);
#67=CARTESIAN_POINT('',(2.183052436317E1,5.912482740673E1,0.E0));
#68=DIRECTION('',(0.E0,0.E0,-1.E0));
#69=DIRECTION('',(-9.916004111862E-1,1.293391840678E-1,0.E0));
#70=AXIS2_PLACEMENT_3D('',#67,#68,#69);
#72=DIRECTION('',(3.643993485805E-1,-9.312427797058E-1,0.E0));
#73=VECTOR('',#72,4.416123088732E1);
#74=CARTESIAN_POINT('',(2.928046660082E1,6.204002219538E1,0.E0));
#75=LINE('',#74,#73);
#76=CARTESIAN_POINT('',(3.792284813103E1,1.8E1,0.E0));
#77=DIRECTION('',(0.E0,0.E0,-1.E0));
#78=DIRECTION('',(9.312427797058E-1,3.643993485805E-1,0.E0));
#79=AXIS2_PLACEMENT_3D('',#76,#77,#78);
#81=DIRECTION('',(-1.E0,0.E0,0.E0));
#82=VECTOR('',#81,2.145643169047E1);
#83=CARTESIAN_POINT('',(3.792284813103E1,1.E1,0.E0));
#84=LINE('',#83,#82);
#85=DIRECTION('',(0.E0,0.E0,1.E0));
#86=VECTOR('',#85,4.E0);
#87=CARTESIAN_POINT('',(3.5E0,0.E0,0.E0));
#88=LINE('',#87,#86);
#89=DIRECTION('',(0.E0,0.E0,1.E0));
#90=VECTOR('',#89,4.E0);
#91=CARTESIAN_POINT('',(-3.5E0,0.E0,0.E0));
#92=LINE('',#91,#90);
#93=CARTESIAN_POINT('',(0.E0,0.E0,4.E0));
#94=DIRECTION('',(0.E0,0.E0,-1.E0));
#95=DIRECTION('',(1.E0,0.E0,0.E0));
#96=AXIS2_PLACEMENT_3D('',#93,#94,#95);
#98=CARTESIAN_POINT('',(0.E0,0.E0,4.E0));
#99=DIRECTION('',(0.E0,0.E0,-1.E0));
#100=DIRECTION('',(-1.E0,0.E0,0.E0));
#101=AXIS2_PLACEMENT_3D('',#98,#99,#100);
#103=CARTESIAN_POINT('',(6.E1,0.E0,4.E0));
#104=DIRECTION('',(0.E0,0.E0,-1.E0));
#105=DIRECTION('',(1.E0,0.E0,0.E0));
#106=AXIS2_PLACEMENT_3D('',#103,#104,#105);
#108=CARTESIAN_POINT('',(6.E1,0.E0,4.E0));
#109=DIRECTION('',(0.E0,0.E0,-1.E0));
#110=DIRECTION('',(-1.E0,0.E0,0.E0));
#111=AXIS2_PLACEMENT_3D('',#108,#109,#110);
#113=CARTESIAN_POINT('',(1.5E1,1.15E2,4.E0));
#114=DIRECTION('',(0.E0,0.E0,-1.E0));
#115=DIRECTION('',(1.E0,0.E0,0.E0));
#116=AXIS2_PLACEMENT_3D('',#113,#114,#115);
#118=CARTESIAN_POINT('',(1.5E1,1.15E2,4.E0));
#119=DIRECTION('',(0.E0,0.E0,-1.E0));
#120=DIRECTION('',(-1.E0,0.E0,0.E0));
#121=AXIS2_PLACEMENT_3D('',#118,#119,#120);
#123=CARTESIAN_POINT('',(0.E0,0.E0,4.E0));
#124=DIRECTION('',(0.E0,0.E0,1.E0));
#125=DIRECTION('',(-9.916004111862E-1,1.293391840678E-1,0.E0));
#126=AXIS2_PLACEMENT_3D('',#123,#124,#125);
#128=DIRECTION('',(-1.293391840678E-1,-9.916004111862E-1,0.E0));
#129=VECTOR('',#128,1.159741350474E2);
#130=CARTESIAN_POINT('',(5.083995888138E0,1.162933918407E2,4.E0));
#131=LINE('',#130,#129);
#132=CARTESIAN_POINT('',(1.5E1,1.15E2,4.E0));
#133=DIRECTION('',(0.E0,0.E0,1.E0));
#134=DIRECTION('',(9.312427797058E-1,3.643993485805E-1,0.E0));
#135=AXIS2_PLACEMENT_3D('',#132,#133,#134);
#137=DIRECTION('',(-3.643993485805E-1,9.312427797058E-1,0.E0));
#138=VECTOR('',#137,1.234908903523E2);
#139=CARTESIAN_POINT('',(6.931242779706E1,3.643993485805E0,4.E0));
#140=LINE('',#139,#138);
#141=CARTESIAN_POINT('',(6.E1,0.E0,4.E0));
#142=DIRECTION('',(0.E0,0.E0,1.E0));
#143=DIRECTION('',(0.E0,-1.E0,0.E0));
#144=AXIS2_PLACEMENT_3D('',#141,#142,#143);
#146=DIRECTION('',(1.E0,0.E0,0.E0));
#147=VECTOR('',#146,6.E1);
#148=CARTESIAN_POINT('',(0.E0,-1.E1,4.E0));
#149=LINE('',#148,#147);
#150=CARTESIAN_POINT('',(1.646641644056E1,1.8E1,4.E0));
#151=DIRECTION('',(0.E0,0.E0,-1.E0));
#152=DIRECTION('',(0.E0,-1.E0,0.E0));
#153=AXIS2_PLACEMENT_3D('',#150,#151,#152);
#155=DIRECTION('',(-1.E0,0.E0,0.E0));
#156=VECTOR('',#155,2.145643169047E1);
#157=CARTESIAN_POINT('',(3.792284813103E1,1.E1,4.E0));
#158=LINE('',#157,#156);
#159=CARTESIAN_POINT('',(3.792284813103E1,1.8E1,4.E0));
#160=DIRECTION('',(0.E0,0.E0,-1.E0));
#161=DIRECTION('',(9.312427797058E-1,3.643993485805E-1,0.E0));
#162=AXIS2_PLACEMENT_3D('',#159,#160,#161);
#164=DIRECTION('',(3.643993485805E-1,-9.312427797058E-1,0.E0));
#165=VECTOR('',#164,4.416123088732E1);
#166=CARTESIAN_POINT('',(2.928046660082E1,6.204002219538E1,4.E0));
#167=LINE('',#166,#165);
#168=CARTESIAN_POINT('',(2.183052436317E1,5.912482740673E1,4.E0));
#169=DIRECTION('',(0.E0,0.E0,-1.E0));
#170=DIRECTION('',(-9.916004111862E-1,1.293391840678E-1,0.E0));
#171=AXIS2_PLACEMENT_3D('',#168,#169,#170);
#173=DIRECTION('',(1.293391840678E-1,9.916004111862E-1,0.E0));
#174=VECTOR('',#173,4.147318510844E1);
#175=CARTESIAN_POINT('',(8.533613151067E0,1.903471347254E1,4.E0));
#176=LINE('',#175,#174);
#177=DIRECTION('',(0.E0,0.E0,1.E0));
#178=VECTOR('',#177,4.E0);
#179=CARTESIAN_POINT('',(6.35E1,0.E0,0.E0));
#180=LINE('',#179,#178);
#181=DIRECTION('',(0.E0,0.E0,1.E0));
#182=VECTOR('',#181,4.E0);
#183=CARTESIAN_POINT('',(5.65E1,0.E0,0.E0));
#184=LINE('',#183,#182);
#185=DIRECTION('',(0.E0,0.E0,1.E0));
#186=VECTOR('',#185,4.E0);
#187=CARTESIAN_POINT('',(1.85E1,1.15E2,0.E0));
#188=LINE('',#187,#186);
#189=DIRECTION('',(0.E0,0.E0,1.E0));
#190=VECTOR('',#189,4.E0);
#191=CARTESIAN_POINT('',(1.15E1,1.15E2,0.E0));
#192=LINE('',#191,#190);
#193=DIRECTION('',(0.E0,0.E0,1.E0));
#194=VECTOR('',#193,4.E0);
#195=CARTESIAN_POINT('',(-9.916004111862E0,1.293391840678E0,0.E0));
#196=LINE('',#195,#194);
#197=DIRECTION('',(0.E0,0.E0,1.E0));
#198=VECTOR('',#197,4.E0);
#199=CARTESIAN_POINT('',(5.083995888138E0,1.162933918407E2,0.E0));
#200=LINE('',#199,#198);
#201=DIRECTION('',(0.E0,0.E0,1.E0));
#202=VECTOR('',#201,4.E0);
#203=CARTESIAN_POINT('',(2.431242779706E1,1.186439934858E2,0.E0));
#204=LINE('',#203,#202);
#205=DIRECTION('',(0.E0,0.E0,1.E0));
#206=VECTOR('',#205,4.E0);
#207=CARTESIAN_POINT('',(6.931242779706E1,3.643993485805E0,0.E0));
#208=LINE('',#207,#206);
#209=DIRECTION('',(0.E0,0.E0,1.E0));
#210=VECTOR('',#209,4.E0);
#211=CARTESIAN_POINT('',(6.E1,-1.E1,0.E0));
#212=LINE('',#211,#210);
#213=DIRECTION('',(0.E0,0.E0,1.E0));
#214=VECTOR('',#213,4.E0);
#215=CARTESIAN_POINT('',(0.E0,-1.E1,0.E0));
#216=LINE('',#215,#214);
#217=DIRECTION('',(0.E0,0.E0,1.E0));
#218=VECTOR('',#217,4.E0);
#219=CARTESIAN_POINT('',(1.646641644056E1,1.E1,0.E0));
#220=LINE('',#219,#218);
#221=DIRECTION('',(0.E0,0.E0,1.E0));
#222=VECTOR('',#221,4.E0);
#223=CARTESIAN_POINT('',(3.792284813103E1,1.E1,0.E0));
#224=LINE('',#223,#222);
#225=DIRECTION('',(0.E0,0.E0,1.E0));
#226=VECTOR('',#225,4.E0);
#227=CARTESIAN_POINT('',(4.537279036867E1,2.091519478864E1,0.E0));
#228=LINE('',#227,#226);
#229=DIRECTION('',(0.E0,0.E0,1.E0));
#230=VECTOR('',#229,4.E0);
#231=CARTESIAN_POINT('',(2.928046660082E1,6.204002219538E1,0.E0));
#232=LINE('',#231,#230);
#233=DIRECTION('',(0.E0,0.E0,1.E0));
#234=VECTOR('',#233,4.E0);
#235=CARTESIAN_POINT('',(1.389772107368E1,6.015954087928E1,0.E0));
#236=LINE('',#235,#234);
#237=DIRECTION('',(0.E0,0.E0,1.E0));
#238=VECTOR('',#237,4.E0);
#239=CARTESIAN_POINT('',(8.533613151067E0,1.903471347254E1,0.E0));
#240=LINE('',#239,#238);
#241=CARTESIAN_POINT('',(3.5E0,0.E0,0.E0));
#242=CARTESIAN_POINT('',(-3.5E0,0.E0,0.E0));
#243=VERTEX_POINT('',#241);
#244=VERTEX_POINT('',#242);
#245=CARTESIAN_POINT('',(6.35E1,0.E0,0.E0));
#246=CARTESIAN_POINT('',(5.65E1,0.E0,0.E0));
#247=VERTEX_POINT('',#245);
#248=VERTEX_POINT('',#246);
#249=CARTESIAN_POINT('',(1.85E1,1.15E2,0.E0));
#250=CARTESIAN_POINT('',(1.15E1,1.15E2,0.E0));
#251=VERTEX_POINT('',#249);
#252=VERTEX_POINT('',#250);
#253=CARTESIAN_POINT('',(-9.916004111862E0,1.293391840678E0,0.E0));
#254=CARTESIAN_POINT('',(0.E0,-1.E1,0.E0));
#255=VERTEX_POINT('',#253);
#256=VERTEX_POINT('',#254);
#257=CARTESIAN_POINT('',(6.E1,-1.E1,0.E0));
#258=VERTEX_POINT('',#257);
#259=CARTESIAN_POINT('',(6.931242779706E1,3.643993485805E0,0.E0));
#260=VERTEX_POINT('',#259);
#261=CARTESIAN_POINT('',(2.431242779706E1,1.186439934858E2,0.E0));
#262=VERTEX_POINT('',#261);
#263=CARTESIAN_POINT('',(5.083995888138E0,1.162933918407E2,0.E0));
#264=VERTEX_POINT('',#263);
#265=CARTESIAN_POINT('',(1.646641644056E1,1.E1,0.E0));
#266=CARTESIAN_POINT('',(8.533613151067E0,1.903471347254E1,0.E0));
#267=VERTEX_POINT('',#265);
#268=VERTEX_POINT('',#266);
#269=CARTESIAN_POINT('',(1.389772107368E1,6.015954087928E1,0.E0));
#270=VERTEX_POINT('',#269);
#271=CARTESIAN_POINT('',(2.928046660082E1,6.204002219538E1,0.E0));
#272=VERTEX_POINT('',#271);
#273=CARTESIAN_POINT('',(4.537279036867E1,2.091519478864E1,0.E0));
#274=VERTEX_POINT('',#273);
#275=CARTESIAN_POINT('',(3.792284813103E1,1.E1,0.E0));
#276=VERTEX_POINT('',#275);
#277=CARTESIAN_POINT('',(3.5E0,0.E0,4.E0));
#278=CARTESIAN_POINT('',(-3.5E0,0.E0,4.E0));
#279=VERTEX_POINT('',#277);
#280=VERTEX_POINT('',#278);
#281=CARTESIAN_POINT('',(6.35E1,0.E0,4.E0));
#282=CARTESIAN_POINT('',(5.65E1,0.E0,4.E0));
#283=VERTEX_POINT('',#281);
#284=VERTEX_POINT('',#282);
#285=CARTESIAN_POINT('',(1.85E1,1.15E2,4.E0));
#286=CARTESIAN_POINT('',(1.15E1,1.15E2,4.E0));
#287=VERTEX_POINT('',#285);
#288=VERTEX_POINT('',#286);
#289=CARTESIAN_POINT('',(-9.916004111862E0,1.293391840678E0,4.E0));
#290=CARTESIAN_POINT('',(0.E0,-1.E1,4.E0));
#291=VERTEX_POINT('',#289);
#292=VERTEX_POINT('',#290);
#293=CARTESIAN_POINT('',(6.E1,-1.E1,4.E0));
#294=VERTEX_POINT('',#293);
#295=CARTESIAN_POINT('',(6.931242779706E1,3.643993485805E0,4.E0));
#296=VERTEX_POINT('',#295);
#297=CARTESIAN_POINT('',(2.431242779706E1,1.186439934858E2,4.E0));
#298=VERTEX_POINT('',#297);
#299=CARTESIAN_POINT('',(5.083995888138E0,1.162933918407E2,4.E0));
#300=VERTEX_POINT('',#299);
#301=CARTESIAN_POINT('',(1.646641644056E1,1.E1,4.E0));
#302=CARTESIAN_POINT('',(8.533613151067E0,1.903471347254E1,4.E0));
#303=VERTEX_POINT('',#301);
#304=VERTEX_POINT('',#302);
#305=CARTESIAN_POINT('',(1.389772107368E1,6.015954087928E1,4.E0));
#306=VERTEX_POINT('',#305);
#307=CARTESIAN_POINT('',(2.928046660082E1,6.204002219538E1,4.E0));
#308=VERTEX_POINT('',#307);
#309=CARTESIAN_POINT('',(4.537279036867E1,2.091519478864E1,4.E0));
#310=VERTEX_POINT('',#309);
#311=CARTESIAN_POINT('',(3.792284813103E1,1.E1,4.E0));
#312=VERTEX_POINT('',#311);
#313=CARTESIAN_POINT('',(0.E0,0.E0,0.E0));
#314=DIRECTION('',(0.E0,0.E0,1.E0));
#315=DIRECTION('',(1.E0,0.E0,0.E0));
#316=AXIS2_PLACEMENT_3D('',#313,#314,#315);
#317=PLANE('',#316);
#319=ORIENTED_EDGE('',*,*,#318,.T.);
#321=ORIENTED_EDGE('',*,*,#320,.T.);
#323=ORIENTED_EDGE('',*,*,#322,.T.);
#325=ORIENTED_EDGE('',*,*,#324,.T.);
#327=ORIENTED_EDGE('',*,*,#326,.T.);
#329=ORIENTED_EDGE('',*,*,#328,.T.);
#330=EDGE_LOOP('',(#319,#321,#323,#325,#327,#329));
#331=FACE_OUTER_BOUND('',#330,.F.);
#333=ORIENTED_EDGE('',*,*,#332,.T.);
#335=ORIENTED_EDGE('',*,*,#334,.T.);
#336=EDGE_LOOP('',(#333,#335));
#337=FACE_BOUND('',#336,.F.);
#339=ORIENTED_EDGE('',*,*,#338,.T.);
#341=ORIENTED_EDGE('',*,*,#340,.T.);
#342=EDGE_LOOP('',(#339,#341));
#343=FACE_BOUND('',#342,.F.);
#345=ORIENTED_EDGE('',*,*,#344,.T.);
#347=ORIENTED_EDGE('',*,*,#346,.T.);
#348=EDGE_LOOP('',(#345,#347));
#349=FACE_BOUND('',#348,.F.);
#351=ORIENTED_EDGE('',*,*,#350,.T.);
#353=ORIENTED_EDGE('',*,*,#352,.T.);
#355=ORIENTED_EDGE('',*,*,#354,.T.);
#357=ORIENTED_EDGE('',*,*,#356,.T.);
#359=ORIENTED_EDGE('',*,*,#358,.T.);
#361=ORIENTED_EDGE('',*,*,#360,.T.);
#362=EDGE_LOOP('',(#351,#353,#355,#357,#359,#361));
#363=FACE_BOUND('',#362,.F.);
#364=ADVANCED_FACE('',(#331,#337,#343,#349,#363),#317,.F.);
#365=CARTESIAN_POINT('',(0.E0,0.E0,0.E0));
#366=DIRECTION('',(0.E0,0.E0,1.E0));
#367=DIRECTION('',(1.E0,0.E0,0.E0));
#368=AXIS2_PLACEMENT_3D('',#365,#366,#367);
#369=CYLINDRICAL_SURFACE('',#368,3.5E0);
#370=ORIENTED_EDGE('',*,*,#332,.F.);
#372=ORIENTED_EDGE('',*,*,#371,.T.);
#374=ORIENTED_EDGE('',*,*,#373,.T.);
#376=ORIENTED_EDGE('',*,*,#375,.F.);
#377=EDGE_LOOP('',(#370,#372,#374,#376));
#378=FACE_OUTER_BOUND('',#377,.F.);
#379=ADVANCED_FACE('',(#378),#369,.F.);
#380=CARTESIAN_POINT('',(0.E0,0.E0,0.E0));
#381=DIRECTION('',(0.E0,0.E0,1.E0));
#382=DIRECTION('',(1.E0,0.E0,0.E0));
#383=AXIS2_PLACEMENT_3D('',#380,#381,#382);
#384=CYLINDRICAL_SURFACE('',#383,3.5E0);
#385=ORIENTED_EDGE('',*,*,#334,.F.);
#386=ORIENTED_EDGE('',*,*,#375,.T.);
#388=ORIENTED_EDGE('',*,*,#387,.T.);
#389=ORIENTED_EDGE('',*,*,#371,.F.);
#390=EDGE_LOOP('',(#385,#386,#388,#389));
#391=FACE_OUTER_BOUND('',#390,.F.);
#392=ADVANCED_FACE('',(#391),#384,.F.);
#393=CARTESIAN_POINT('',(0.E0,0.E0,4.E0));
#394=DIRECTION('',(0.E0,0.E0,1.E0));
#395=DIRECTION('',(1.E0,0.E0,0.E0));
#396=AXIS2_PLACEMENT_3D('',#393,#394,#395);
#397=PLANE('',#396);
#399=ORIENTED_EDGE('',*,*,#398,.F.);
#401=ORIENTED_EDGE('',*,*,#400,.F.);
#403=ORIENTED_EDGE('',*,*,#402,.F.);
#405=ORIENTED_EDGE('',*,*,#404,.F.);
#407=ORIENTED_EDGE('',*,*,#406,.F.);
#409=ORIENTED_EDGE('',*,*,#408,.F.);
#410=EDGE_LOOP('',(#399,#401,#403,#405,#407,#409));
#411=FACE_OUTER_BOUND('',#410,.F.);
#412=ORIENTED_EDGE('',*,*,#373,.F.);
#413=ORIENTED_EDGE('',*,*,#387,.F.);
#414=EDGE_LOOP('',(#412,#413));
#415=FACE_BOUND('',#414,.F.);
#417=ORIENTED_EDGE('',*,*,#416,.F.);
#419=ORIENTED_EDGE('',*,*,#418,.F.);
#420=EDGE_LOOP('',(#417,#419));
#421=FACE_BOUND('',#420,.F.);
#423=ORIENTED_EDGE('',*,*,#422,.F.);
#425=ORIENTED_EDGE('',*,*,#424,.F.);
#426=EDGE_LOOP('',(#423,#425));
#427=FACE_BOUND('',#426,.F.);
#429=ORIENTED_EDGE('',*,*,#428,.F.);
#431=ORIENTED_EDGE('',*,*,#430,.F.);
#433=ORIENTED_EDGE('',*,*,#432,.F.);
#435=ORIENTED_EDGE('',*,*,#434,.F.);
#437=ORIENTED_EDGE('',*,*,#436,.F.);
#439=ORIENTED_EDGE('',*,*,#438,.F.);
#440=EDGE_LOOP('',(#429,#431,#433,#435,#437,#439));
#441=FACE_BOUND('',#440,.F.);
#442=ADVANCED_FACE('',(#411,#415,#421,#427,#441),#397,.T.);
#443=CARTESIAN_POINT('',(6.E1,0.E0,0.E0));
#444=DIRECTION('',(0.E0,0.E0,1.E0));
#445=DIRECTION('',(1.E0,0.E0,0.E0));
#446=AXIS2_PLACEMENT_3D('',#443,#444,#445);
#447=CYLINDRICAL_SURFACE('',#446,3.5E0);
#448=ORIENTED_EDGE('',*,*,#338,.F.);
#450=ORIENTED_EDGE('',*,*,#449,.T.);
#451=ORIENTED_EDGE('',*,*,#416,.T.);
#453=ORIENTED_EDGE('',*,*,#452,.F.);
#454=EDGE_LOOP('',(#448,#450,#451,#453));
#455=FACE_OUTER_BOUND('',#454,.F.);
#456=ADVANCED_FACE('',(#455),#447,.F.);
#457=CARTESIAN_POINT('',(6.E1,0.E0,0.E0));
#458=DIRECTION('',(0.E0,0.E0,1.E0));
#459=DIRECTION('',(1.E0,0.E0,0.E0));
#460=AXIS2_PLACEMENT_3D('',#457,#458,#459);
#461=CYLINDRICAL_SURFACE('',#460,3.5E0);
#462=ORIENTED_EDGE('',*,*,#340,.F.);
#463=ORIENTED_EDGE('',*,*,#452,.T.);
#464=ORIENTED_EDGE('',*,*,#418,.T.);
#465=ORIENTED_EDGE('',*,*,#449,.F.);
#466=EDGE_LOOP('',(#462,#463,#464,#465));
#467=FACE_OUTER_BOUND('',#466,.F.);
#468=ADVANCED_FACE('',(#467),#461,.F.);
#469=CARTESIAN_POINT('',(1.5E1,1.15E2,0.E0));
#470=DIRECTION('',(0.E0,0.E0,1.E0));
#471=DIRECTION('',(1.E0,0.E0,0.E0));
#472=AXIS2_PLACEMENT_3D('',#469,#470,#471);
#473=CYLINDRICAL_SURFACE('',#472,3.5E0);
#474=ORIENTED_EDGE('',*,*,#344,.F.);
#476=ORIENTED_EDGE('',*,*,#475,.T.);
#477=ORIENTED_EDGE('',*,*,#422,.T.);
#479=ORIENTED_EDGE('',*,*,#478,.F.);
#480=EDGE_LOOP('',(#474,#476,#477,#479));
#481=FACE_OUTER_BOUND('',#480,.F.);
#482=ADVANCED_FACE('',(#481),#473,.F.);
#483=CARTESIAN_POINT('',(1.5E1,1.15E2,0.E0));
#484=DIRECTION('',(0.E0,0.E0,1.E0));
#485=DIRECTION('',(1.E0,0.E0,0.E0));
#486=AXIS2_PLACEMENT_3D('',#483,#484,#485);
#487=CYLINDRICAL_SURFACE('',#486,3.5E0);
#488=ORIENTED_EDGE('',*,*,#346,.F.);
#489=ORIENTED_EDGE('',*,*,#478,.T.);
#490=ORIENTED_EDGE('',*,*,#424,.T.);
#491=ORIENTED_EDGE('',*,*,#475,.F.);
#492=EDGE_LOOP('',(#488,#489,#490,#491));
#493=FACE_OUTER_BOUND('',#492,.F.);
#494=ADVANCED_FACE('',(#493),#487,.F.);
#495=CARTESIAN_POINT('',(0.E0,0.E0,0.E0));
#496=DIRECTION('',(0.E0,0.E0,1.E0));
#497=DIRECTION('',(1.E0,0.E0,0.E0));
#498=AXIS2_PLACEMENT_3D('',#495,#496,#497);
#499=CYLINDRICAL_SURFACE('',#498,1.E1);
#500=ORIENTED_EDGE('',*,*,#318,.F.);
#502=ORIENTED_EDGE('',*,*,#501,.T.);
#503=ORIENTED_EDGE('',*,*,#398,.T.);
#505=ORIENTED_EDGE('',*,*,#504,.F.);
#506=EDGE_LOOP('',(#500,#502,#503,#505));
#507=FACE_OUTER_BOUND('',#506,.F.);
#508=ADVANCED_FACE('',(#507),#499,.T.);
#509=CARTESIAN_POINT('',(5.083995888138E0,1.162933918407E2,0.E0));
#510=DIRECTION('',(-9.916004111862E-1,1.293391840678E-1,0.E0));
#511=DIRECTION('',(-1.293391840678E-1,-9.916004111862E-1,0.E0));
#512=AXIS2_PLACEMENT_3D('',#509,#510,#511);
#513=PLANE('',#512);
#514=ORIENTED_EDGE('',*,*,#328,.F.);
#516=ORIENTED_EDGE('',*,*,#515,.T.);
#517=ORIENTED_EDGE('',*,*,#400,.T.);
#518=ORIENTED_EDGE('',*,*,#501,.F.);
#519=EDGE_LOOP('',(#514,#516,#517,#518));
#520=FACE_OUTER_BOUND('',#519,.F.);
#521=ADVANCED_FACE('',(#520),#513,.T.);
#522=CARTESIAN_POINT('',(1.5E1,1.15E2,0.E0));
#523=DIRECTION('',(0.E0,0.E0,1.E0));
#524=DIRECTION('',(1.E0,0.E0,0.E0));
#525=AXIS2_PLACEMENT_3D('',#522,#523,#524);
#526=CYLINDRICAL_SURFACE('',#525,1.E1);
#527=ORIENTED_EDGE('',*,*,#326,.F.);
#529=ORIENTED_EDGE('',*,*,#528,.T.);
#530=ORIENTED_EDGE('',*,*,#402,.T.);
#531=ORIENTED_EDGE('',*,*,#515,.F.);
#532=EDGE_LOOP('',(#527,#529,#530,#531));
#533=FACE_OUTER_BOUND('',#532,.F.);
#534=ADVANCED_FACE('',(#533),#526,.T.);
#535=CARTESIAN_POINT('',(6.931242779706E1,3.643993485805E0,0.E0));
#536=DIRECTION('',(9.312427797058E-1,3.643993485805E-1,0.E0));
#537=DIRECTION('',(-3.643993485805E-1,9.312427797058E-1,0.E0));
#538=AXIS2_PLACEMENT_3D('',#535,#536,#537);
#539=PLANE('',#538);
#540=ORIENTED_EDGE('',*,*,#324,.F.);
#542=ORIENTED_EDGE('',*,*,#541,.T.);
#543=ORIENTED_EDGE('',*,*,#404,.T.);
#544=ORIENTED_EDGE('',*,*,#528,.F.);
#545=EDGE_LOOP('',(#540,#542,#543,#544));
#546=FACE_OUTER_BOUND('',#545,.F.);
#547=ADVANCED_FACE('',(#546),#539,.T.);
#548=CARTESIAN_POINT('',(6.E1,0.E0,0.E0));
#549=DIRECTION('',(0.E0,0.E0,1.E0));
#550=DIRECTION('',(1.E0,0.E0,0.E0));
#551=AXIS2_PLACEMENT_3D('',#548,#549,#550);
#552=CYLINDRICAL_SURFACE('',#551,1.E1);
#553=ORIENTED_EDGE('',*,*,#322,.F.);
#555=ORIENTED_EDGE('',*,*,#554,.T.);
#556=ORIENTED_EDGE('',*,*,#406,.T.);
#557=ORIENTED_EDGE('',*,*,#541,.F.);
#558=EDGE_LOOP('',(#553,#555,#556,#557));
#559=FACE_OUTER_BOUND('',#558,.F.);
#560=ADVANCED_FACE('',(#559),#552,.T.);
#561=CARTESIAN_POINT('',(0.E0,-1.E1,0.E0));
#562=DIRECTION('',(0.E0,-1.E0,0.E0));
#563=DIRECTION('',(1.E0,0.E0,0.E0));
#564=AXIS2_PLACEMENT_3D('',#561,#562,#563);
#565=PLANE('',#564);
#566=ORIENTED_EDGE('',*,*,#320,.F.);
#567=ORIENTED_EDGE('',*,*,#504,.T.);
#568=ORIENTED_EDGE('',*,*,#408,.T.);
#569=ORIENTED_EDGE('',*,*,#554,.F.);
#570=EDGE_LOOP('',(#566,#567,#568,#569));
#571=FACE_OUTER_BOUND('',#570,.F.);
#572=ADVANCED_FACE('',(#571),#565,.T.);
#573=CARTESIAN_POINT('',(1.646641644056E1,1.8E1,0.E0));
#574=DIRECTION('',(0.E0,0.E0,1.E0));
#575=DIRECTION('',(1.E0,0.E0,0.E0));
#576=AXIS2_PLACEMENT_3D('',#573,#574,#575);
#577=CYLINDRICAL_SURFACE('',#576,8.E0);
#578=ORIENTED_EDGE('',*,*,#350,.F.);
#580=ORIENTED_EDGE('',*,*,#579,.T.);
#581=ORIENTED_EDGE('',*,*,#428,.T.);
#583=ORIENTED_EDGE('',*,*,#582,.F.);
#584=EDGE_LOOP('',(#578,#580,#581,#583));
#585=FACE_OUTER_BOUND('',#584,.F.);
#586=ADVANCED_FACE('',(#585),#577,.F.);
#587=CARTESIAN_POINT('',(3.792284813103E1,1.E1,0.E0));
#588=DIRECTION('',(0.E0,1.E0,0.E0));
#589=DIRECTION('',(-1.E0,0.E0,0.E0));
#590=AXIS2_PLACEMENT_3D('',#587,#588,#589);
#591=PLANE('',#590);
#592=ORIENTED_EDGE('',*,*,#360,.F.);
#594=ORIENTED_EDGE('',*,*,#593,.T.);
#595=ORIENTED_EDGE('',*,*,#430,.T.);
#596=ORIENTED_EDGE('',*,*,#579,.F.);
#597=EDGE_LOOP('',(#592,#594,#595,#596));
#598=FACE_OUTER_BOUND('',#597,.F.);
#599=ADVANCED_FACE('',(#598),#591,.T.);
#600=CARTESIAN_POINT('',(3.792284813103E1,1.8E1,0.E0));
#601=DIRECTION('',(0.E0,0.E0,1.E0));
#602=DIRECTION('',(1.E0,0.E0,0.E0));
#603=AXIS2_PLACEMENT_3D('',#600,#601,#602);
#604=CYLINDRICAL_SURFACE('',#603,8.E0);
#605=ORIENTED_EDGE('',*,*,#358,.F.);
#607=ORIENTED_EDGE('',*,*,#606,.T.);
#608=ORIENTED_EDGE('',*,*,#432,.T.);
#609=ORIENTED_EDGE('',*,*,#593,.F.);
#610=EDGE_LOOP('',(#605,#607,#608,#609));
#611=FACE_OUTER_BOUND('',#610,.F.);
#612=ADVANCED_FACE('',(#611),#604,.F.);
#613=CARTESIAN_POINT('',(2.928046660082E1,6.204002219538E1,0.E0));
#614=DIRECTION('',(-9.312427797058E-1,-3.643993485805E-1,0.E0));
#615=DIRECTION('',(3.643993485805E-1,-9.312427797058E-1,0.E0));
#616=AXIS2_PLACEMENT_3D('',#613,#614,#615);
#617=PLANE('',#616);
#618=ORIENTED_EDGE('',*,*,#356,.F.);
#620=ORIENTED_EDGE('',*,*,#619,.T.);
#621=ORIENTED_EDGE('',*,*,#434,.T.);
#622=ORIENTED_EDGE('',*,*,#606,.F.);
#623=EDGE_LOOP('',(#618,#620,#621,#622));
#624=FACE_OUTER_BOUND('',#623,.F.);
#625=ADVANCED_FACE('',(#624),#617,.T.);
#626=CARTESIAN_POINT('',(2.183052436317E1,5.912482740673E1,0.E0));
#627=DIRECTION('',(0.E0,0.E0,1.E0));
#628=DIRECTION('',(1.E0,0.E0,0.E0));
#629=AXIS2_PLACEMENT_3D('',#626,#627,#628);
#630=CYLINDRICAL_SURFACE('',#629,8.E0);
#631=ORIENTED_EDGE('',*,*,#354,.F.);
#633=ORIENTED_EDGE('',*,*,#632,.T.);
#634=ORIENTED_EDGE('',*,*,#436,.T.);
#635=ORIENTED_EDGE('',*,*,#619,.F.);
#636=EDGE_LOOP('',(#631,#633,#634,#635));
#637=FACE_OUTER_BOUND('',#636,.F.);
#638=ADVANCED_FACE('',(#637),#630,.F.);
#639=CARTESIAN_POINT('',(8.533613151067E0,1.903471347254E1,0.E0));
#640=DIRECTION('',(9.916004111862E-1,-1.293391840678E-1,0.E0));
#641=DIRECTION('',(1.293391840678E-1,9.916004111862E-1,0.E0));
#642=AXIS2_PLACEMENT_3D('',#639,#640,#641);
#643=PLANE('',#642);
#644=ORIENTED_EDGE('',*,*,#352,.F.);
#645=ORIENTED_EDGE('',*,*,#582,.T.);
#646=ORIENTED_EDGE('',*,*,#438,.T.);
#647=ORIENTED_EDGE('',*,*,#632,.F.);
#648=EDGE_LOOP('',(#644,#645,#646,#647));
#649=FACE_OUTER_BOUND('',#648,.F.);
#650=ADVANCED_FACE('',(#649),#643,.T.);
#651=CLOSED_SHELL('',(#364,#379,#392,#442,#456,#468,#482,#494,#508,#521,#534,
#547,#560,#572,#586,#599,#612,#625,#638,#650));
#652=MANIFOLD_SOLID_BREP('',#651);
#653=(LENGTH_UNIT()NAMED_UNIT(*)SI_UNIT(.MILLI.,.METRE.));
#654=DIMENSIONAL_EXPONENTS(0.E0,0.E0,0.E0,0.E0,0.E0,0.E0,0.E0);
#655=(NAMED_UNIT(*)PLANE_ANGLE_UNIT()SI_UNIT($,.RADIAN.));
#656=PLANE_ANGLE_MEASURE_WITH_UNIT(PLANE_ANGLE_MEASURE(1.745329251994E-2),#655);
#657=(CONVERSION_BASED_UNIT('DEGREE',#656)NAMED_UNIT(#654)PLANE_ANGLE_UNIT());
#658=(NAMED_UNIT(*)SI_UNIT($,.STERADIAN.)SOLID_ANGLE_UNIT());
#659=UNCERTAINTY_MEASURE_WITH_UNIT(LENGTH_MEASURE(1.569875651726E-2),#653,
'closure',
'Maximum model space distance between geometric entities at asserted connectivities');
#660=(GEOMETRIC_REPRESENTATION_CONTEXT(3)GLOBAL_UNCERTAINTY_ASSIGNED_CONTEXT((
#659))GLOBAL_UNIT_ASSIGNED_CONTEXT((#653,#657,#658))REPRESENTATION_CONTEXT
('ID1','3'));
#662=APPLICATION_CONTEXT(
'CONFIGURATION CONTROLLED 3D DESIGNS OF MECHANICAL PARTS AND ASSEMBLIES');
#663=APPLICATION_PROTOCOL_DEFINITION('international standard',
'config_control_design',1994,#662);
#664=DESIGN_CONTEXT('',#662,'design');
#665=MECHANICAL_CONTEXT('',#662,'mechanical');
#666=PRODUCT('PLAQUE_SUPPORT_POT','PLAQUE_SUPPORT_POT','NOT SPECIFIED',(#665));
#667=PRODUCT_DEFINITION_FORMATION_WITH_SPECIFIED_SOURCE('3','LAST_VERSION',#666,
.MADE.);
#671=PRODUCT_CATEGORY('part','');
#672=PRODUCT_RELATED_PRODUCT_CATEGORY('detail','',(#666));
#673=PRODUCT_CATEGORY_RELATIONSHIP('','',#671,#672);
#674=SECURITY_CLASSIFICATION_LEVEL('unclassified');
#675=SECURITY_CLASSIFICATION('','',#674);
#676=CC_DESIGN_SECURITY_CLASSIFICATION(#675,(#667));
#677=APPROVAL_STATUS('approved');
#678=APPROVAL(#677,'');
#679=CC_DESIGN_APPROVAL(#678,(#675,#667,#668));
#680=CALENDAR_DATE(121,24,1);
#681=COORDINATED_UNIVERSAL_TIME_OFFSET(1,0,.AHEAD.);
#682=LOCAL_TIME(17,28,4.5E1,#681);
#683=DATE_AND_TIME(#680,#682);
#684=APPROVAL_DATE_TIME(#683,#678);
#685=DATE_TIME_ROLE('creation_date');
#686=CC_DESIGN_DATE_AND_TIME_ASSIGNMENT(#683,#685,(#668));
#687=DATE_TIME_ROLE('classification_date');
#688=CC_DESIGN_DATE_AND_TIME_ASSIGNMENT(#683,#687,(#675));
#689=PERSON('UNSPECIFIED','UNSPECIFIED',$,$,$,$);
#690=ORGANIZATION('UNSPECIFIED','UNSPECIFIED','UNSPECIFIED');
#691=PERSON_AND_ORGANIZATION(#689,#690);
#692=APPROVAL_ROLE('approver');
#693=APPROVAL_PERSON_ORGANIZATION(#691,#678,#692);
#694=PERSON_AND_ORGANIZATION_ROLE('creator');
#695=CC_DESIGN_PERSON_AND_ORGANIZATION_ASSIGNMENT(#691,#694,(#667,#668));
#696=PERSON_AND_ORGANIZATION_ROLE('design_supplier');
#697=CC_DESIGN_PERSON_AND_ORGANIZATION_ASSIGNMENT(#691,#696,(#667));
#698=PERSON_AND_ORGANIZATION_ROLE('classification_officer');
#699=CC_DESIGN_PERSON_AND_ORGANIZATION_ASSIGNMENT(#691,#698,(#675));
#700=PERSON_AND_ORGANIZATION_ROLE('design_owner');
#701=CC_DESIGN_PERSON_AND_ORGANIZATION_ASSIGNMENT(#691,#700,(#666));
#5=CIRCLE('',#4,3.5E0);
#10=CIRCLE('',#9,3.5E0);
#15=CIRCLE('',#14,3.5E0);
#20=CIRCLE('',#19,3.5E0);
#25=CIRCLE('',#24,3.5E0);
#30=CIRCLE('',#29,3.5E0);
#35=CIRCLE('',#34,1.E1);
#44=CIRCLE('',#43,1.E1);
#53=CIRCLE('',#52,1.E1);
#62=CIRCLE('',#61,8.E0);
#71=CIRCLE('',#70,8.E0);
#80=CIRCLE('',#79,8.E0);
#97=CIRCLE('',#96,3.5E0);
#102=CIRCLE('',#101,3.5E0);
#107=CIRCLE('',#106,3.5E0);
#112=CIRCLE('',#111,3.5E0);
#117=CIRCLE('',#116,3.5E0);
#122=CIRCLE('',#121,3.5E0);
#127=CIRCLE('',#126,1.E1);
#136=CIRCLE('',#135,1.E1);
#145=CIRCLE('',#144,1.E1);
#154=CIRCLE('',#153,8.E0);
#163=CIRCLE('',#162,8.E0);
#172=CIRCLE('',#171,8.E0);
#318=EDGE_CURVE('',#255,#256,#35,.T.);
#320=EDGE_CURVE('',#256,#258,#39,.T.);
#322=EDGE_CURVE('',#258,#260,#44,.T.);
#324=EDGE_CURVE('',#260,#262,#48,.T.);
#326=EDGE_CURVE('',#262,#264,#53,.T.);
#328=EDGE_CURVE('',#264,#255,#57,.T.);
#332=EDGE_CURVE('',#243,#244,#5,.T.);
#334=EDGE_CURVE('',#244,#243,#10,.T.);
#338=EDGE_CURVE('',#247,#248,#15,.T.);
#340=EDGE_CURVE('',#248,#247,#20,.T.);
#344=EDGE_CURVE('',#251,#252,#25,.T.);
#346=EDGE_CURVE('',#252,#251,#30,.T.);
#350=EDGE_CURVE('',#267,#268,#62,.T.);
#352=EDGE_CURVE('',#268,#270,#66,.T.);
#354=EDGE_CURVE('',#270,#272,#71,.T.);
#356=EDGE_CURVE('',#272,#274,#75,.T.);
#358=EDGE_CURVE('',#274,#276,#80,.T.);
#360=EDGE_CURVE('',#276,#267,#84,.T.);
#371=EDGE_CURVE('',#243,#279,#88,.T.);
#373=EDGE_CURVE('',#279,#280,#97,.T.);
#375=EDGE_CURVE('',#244,#280,#92,.T.);
#387=EDGE_CURVE('',#280,#279,#102,.T.);
#398=EDGE_CURVE('',#291,#292,#127,.T.);
#400=EDGE_CURVE('',#300,#291,#131,.T.);
#402=EDGE_CURVE('',#298,#300,#136,.T.);
#404=EDGE_CURVE('',#296,#298,#140,.T.);
#406=EDGE_CURVE('',#294,#296,#145,.T.);
#408=EDGE_CURVE('',#292,#294,#149,.T.);
#416=EDGE_CURVE('',#283,#284,#107,.T.);
#418=EDGE_CURVE('',#284,#283,#112,.T.);
#422=EDGE_CURVE('',#287,#288,#117,.T.);
#424=EDGE_CURVE('',#288,#287,#122,.T.);
#428=EDGE_CURVE('',#303,#304,#154,.T.);
#430=EDGE_CURVE('',#312,#303,#158,.T.);
#432=EDGE_CURVE('',#310,#312,#163,.T.);
#434=EDGE_CURVE('',#308,#310,#167,.T.);
#436=EDGE_CURVE('',#306,#308,#172,.T.);
#438=EDGE_CURVE('',#304,#306,#176,.T.);
#449=EDGE_CURVE('',#247,#283,#180,.T.);
#452=EDGE_CURVE('',#248,#284,#184,.T.);
#475=EDGE_CURVE('',#251,#287,#188,.T.);
#478=EDGE_CURVE('',#252,#288,#192,.T.);
#501=EDGE_CURVE('',#255,#291,#196,.T.);
#504=EDGE_CURVE('',#256,#292,#216,.T.);
#515=EDGE_CURVE('',#264,#300,#200,.T.);
#528=EDGE_CURVE('',#262,#298,#204,.T.);
#541=EDGE_CURVE('',#260,#296,#208,.T.);
#554=EDGE_CURVE('',#258,#294,#212,.T.);
#579=EDGE_CURVE('',#267,#303,#220,.T.);
#582=EDGE_CURVE('',#268,#304,#240,.T.);
#593=EDGE_CURVE('',#276,#312,#224,.T.);
#606=EDGE_CURVE('',#274,#310,#228,.T.);
#619=EDGE_CURVE('',#272,#308,#232,.T.);
#632=EDGE_CURVE('',#270,#306,#236,.T.);
#661=ADVANCED_BREP_SHAPE_REPRESENTATION('',(#652),#660);
#668=PRODUCT_DEFINITION('design','',#667,#664);
#669=PRODUCT_DEFINITION_SHAPE('','SHAPE FOR PLAQUE_SUPPORT_POT.',#668);
#670=SHAPE_DEFINITION_REPRESENTATION(#669,#661);
ENDSEC;
END-ISO-10303-21;
