ISO-10303-21;
HEADER;
FILE_DESCRIPTION (( 'STEP AP214' ),
    '1' );
FILE_NAME ('Bague bronze REP 8-2.STEP',
    '2021-01-31T12:22:17',
    ( '' ),
    ( '' ),
    'SwSTEP 2.0',
    'SolidWorks 2019',
    '' );
FILE_SCHEMA (( 'AUTOMOTIVE_DESIGN' ));
ENDSEC;

DATA;
#1 = EDGE_LOOP ( 'NONE', ( #225, #195 ) ) ;
#2 = DIRECTION ( 'NONE',  ( 1.000000000000000000, 0.000000000000000000, 0.000000000000000000 ) ) ;
#3 = SURFACE_STYLE_FILL_AREA ( #28 ) ;
#4 = EDGE_CURVE ( 'NONE', #51, #76, #245, .T. ) ;
#5 = ORIENTED_EDGE ( 'NONE', *, *, #160, .T. ) ;
#6 = VECTOR ( 'NONE', #91, 1000.000000000000000 ) ;
#7 = AXIS2_PLACEMENT_3D ( 'NONE', #116, #279, #136 ) ;
#8 = SURFACE_STYLE_USAGE ( .BOTH. , #296 ) ;
#9 = FACE_OUTER_BOUND ( 'NONE', #293, .T. ) ;
#10 = CARTESIAN_POINT ( 'NONE',  ( -5.750000000000000888, 7.194799944990701787E-16, -2.399999999999999911 ) ) ;
#11 = DIRECTION ( 'NONE',  ( -0.000000000000000000, -0.000000000000000000, -1.000000000000000000 ) ) ;
#12 = EDGE_CURVE ( 'NONE', #301, #262, #129, .T. ) ;
#13 = CARTESIAN_POINT ( 'NONE',  ( -6.000000000000000888, 0.000000000000000000, 2.150000000000003020 ) ) ;
#14 = DIRECTION ( 'NONE',  ( -0.7071067811865474617, 8.659560562354932858E-17, 0.7071067811865474617 ) ) ;
#15 = AXIS2_PLACEMENT_3D ( 'NONE', #168, #215, #16 ) ;
#16 = DIRECTION ( 'NONE',  ( 1.000000000000000000, 0.000000000000000000, 0.000000000000000000 ) ) ;
#17 = CONICAL_SURFACE ( 'NONE', #216, 5.750000000000007105, 0.7853981633974431720 ) ;
#18 = CONICAL_SURFACE ( 'NONE', #309, 6.000000000000000888, 0.7853981633974482790 ) ;
#19 = CARTESIAN_POINT ( 'NONE',  ( 0.000000000000000000, 0.000000000000000000, 2.150000000000003020 ) ) ;
#20 = CARTESIAN_POINT ( 'NONE',  ( 0.000000000000000000, 0.000000000000000000, -2.149999999999999467 ) ) ;
#21 = ORIENTED_EDGE ( 'NONE', *, *, #270, .T. ) ;
#22 =( LENGTH_UNIT ( ) NAMED_UNIT ( * ) SI_UNIT ( .MILLI., .METRE. ) );
#23 = DIRECTION ( 'NONE',  ( 0.000000000000000000, 0.000000000000000000, -1.000000000000000000 ) ) ;
#24 =( NAMED_UNIT ( * ) PLANE_ANGLE_UNIT ( ) SI_UNIT ( $, .RADIAN. ) );
#25 = FACE_OUTER_BOUND ( 'NONE', #159, .T. ) ;
#26 = ORIENTED_EDGE ( 'NONE', *, *, #228, .T. ) ;
#27 = PRESENTATION_STYLE_ASSIGNMENT (( #8 ) ) ;
#28 = FILL_AREA_STYLE ('',( #294 ) ) ;
#29 = DIRECTION ( 'NONE',  ( 1.000000000000000000, 0.000000000000000000, 0.000000000000000000 ) ) ;
#30 = VERTEX_POINT ( 'NONE', #132 ) ;
#31 = CIRCLE ( 'NONE', #71, 4.000000000000000888 ) ;
#32 = VERTEX_POINT ( 'NONE', #13 ) ;
#33 = EDGE_CURVE ( 'NONE', #298, #78, #79, .T. ) ;
#34 = CARTESIAN_POINT ( 'NONE',  ( 6.000000000000000888, 7.347880794884120722E-16, 2.399999999999999911 ) ) ;
#35 = ORIENTED_EDGE ( 'NONE', *, *, #98, .T. ) ;
#36 = PRODUCT_RELATED_PRODUCT_CATEGORY ( 'part', '', ( #258 ) ) ;
#37 = CYLINDRICAL_SURFACE ( 'NONE', #53, 4.000000000000000888 ) ;
#38 = DIRECTION ( 'NONE',  ( -0.000000000000000000, -0.000000000000000000, -1.000000000000000000 ) ) ;
#39 = DIRECTION ( 'NONE',  ( 1.000000000000000000, 0.000000000000000000, 0.000000000000000000 ) ) ;
#40 = CYLINDRICAL_SURFACE ( 'NONE', #154, 6.000000000000000888 ) ;
#41 = EDGE_CURVE ( 'NONE', #56, #30, #139, .T. ) ;
#42 = VECTOR ( 'NONE', #14, 1000.000000000000114 ) ;
#43 = DIRECTION ( 'NONE',  ( -1.000000000000000000, 0.000000000000000000, 0.000000000000000000 ) ) ;
#44 = LINE ( 'NONE', #220, #6 ) ;
#45 = DIRECTION ( 'NONE',  ( 0.000000000000000000, 0.000000000000000000, 1.000000000000000000 ) ) ;
#46 = ORIENTED_EDGE ( 'NONE', *, *, #164, .F. ) ;
#47 = CARTESIAN_POINT ( 'NONE',  ( -5.750000000000007105, 0.000000000000000000, 2.399999999999999911 ) ) ;
#48 =( GEOMETRIC_REPRESENTATION_CONTEXT ( 3 ) GLOBAL_UNCERTAINTY_ASSIGNED_CONTEXT ( ( #146 ) ) GLOBAL_UNIT_ASSIGNED_CONTEXT ( ( #22, #24, #117 ) ) REPRESENTATION_CONTEXT ( 'NONE', 'WORKASPACE' ) );
#49 = DIRECTION ( 'NONE',  ( -0.000000000000000000, -0.000000000000000000, 1.000000000000000000 ) ) ;
#50 = ORIENTED_EDGE ( 'NONE', *, *, #126, .T. ) ;
#51 = VERTEX_POINT ( 'NONE', #57 ) ;
#52 = APPLICATION_PROTOCOL_DEFINITION ( 'draft international standard', 'automotive_design', 1998, #62 ) ;
#53 = AXIS2_PLACEMENT_3D ( 'NONE', #218, #133, #232 ) ;
#54 = ORIENTED_EDGE ( 'NONE', *, *, #131, .F. ) ;
#55 = DIRECTION ( 'NONE',  ( -0.000000000000000000, -0.000000000000000000, -1.000000000000000000 ) ) ;
#56 = VERTEX_POINT ( 'NONE', #10 ) ;
#57 = CARTESIAN_POINT ( 'NONE',  ( -4.000000000000000888, 0.000000000000000000, 2.399999999999999911 ) ) ;
#58 = VERTEX_POINT ( 'NONE', #106 ) ;
#59 = AXIS2_PLACEMENT_3D ( 'NONE', #307, #191, #39 ) ;
#60 = ORIENTED_EDGE ( 'NONE', *, *, #289, .F. ) ;
#61 = DIRECTION ( 'NONE',  ( 1.000000000000000000, 0.000000000000000000, -0.000000000000000000 ) ) ;
#62 = APPLICATION_CONTEXT ( 'automotive_design' ) ;
#63 = ADVANCED_FACE ( 'NONE', ( #9 ), #80, .F. ) ;
#64 = DIRECTION ( 'NONE',  ( 0.000000000000000000, 0.000000000000000000, 1.000000000000000000 ) ) ;
#65 = AXIS2_PLACEMENT_3D ( 'NONE', #206, #104, #207 ) ;
#66 = DIRECTION ( 'NONE',  ( 1.000000000000000000, 0.000000000000000000, 0.000000000000000000 ) ) ;
#67 = CARTESIAN_POINT ( 'NONE',  ( 0.000000000000000000, 0.000000000000000000, 2.399999999999999911 ) ) ;
#68 = ORIENTED_EDGE ( 'NONE', *, *, #4, .T. ) ;
#69 = PRODUCT_DEFINITION_CONTEXT ( 'detailed design', #62, 'design' ) ;
#70 = LINE ( 'NONE', #147, #235 ) ;
#71 = AXIS2_PLACEMENT_3D ( 'NONE', #123, #142, #121 ) ;
#72 = ORIENTED_EDGE ( 'NONE', *, *, #41, .F. ) ;
#73 = APPLICATION_PROTOCOL_DEFINITION ( 'draft international standard', 'automotive_design', 1998, #212 ) ;
#74 = PRODUCT_DEFINITION ( 'UNKNOWN', '', #308, #69 ) ;
#75 = PRESENTATION_LAYER_ASSIGNMENT (  '', '', ( #227 ) ) ;
#76 = VERTEX_POINT ( 'NONE', #185 ) ;
#77 = DIRECTION ( 'NONE',  ( 0.7071067811865474617, 0.000000000000000000, 0.7071067811865474617 ) ) ;
#78 = VERTEX_POINT ( 'NONE', #249 ) ;
#79 = CIRCLE ( 'NONE', #210, 5.750000000000007105 ) ;
#80 = CYLINDRICAL_SURFACE ( 'NONE', #65, 4.000000000000000888 ) ;
#81 = CARTESIAN_POINT ( 'NONE',  ( 6.000000000000000888, 0.000000000000000000, -2.149999999999999467 ) ) ;
#82 = COLOUR_RGB ( '',0.9098039215686274384, 0.4431372549019607643, 0.03137254901960784270 ) ;
#83 = SURFACE_STYLE_USAGE ( .BOTH. , #306 ) ;
#84 = FACE_OUTER_BOUND ( 'NONE', #130, .T. ) ;
#85 = AXIS2_PLACEMENT_3D ( 'NONE', #20, #119, #261 ) ;
#86 =( NAMED_UNIT ( * ) SI_UNIT ( $, .STERADIAN. ) SOLID_ANGLE_UNIT ( ) );
#87 = SURFACE_STYLE_FILL_AREA ( #137 ) ;
#88 = DIRECTION ( 'NONE',  ( 0.000000000000000000, 0.000000000000000000, -1.000000000000000000 ) ) ;
#89 = EDGE_CURVE ( 'NONE', #56, #247, #161, .T. ) ;
#90 = CLOSED_SHELL ( 'NONE', ( #234, #242, #63, #217, #112, #173, #135, #124, #198, #254 ) ) ;
#91 = DIRECTION ( 'NONE',  ( -0.000000000000000000, -0.000000000000000000, -1.000000000000000000 ) ) ;
#92 = ORIENTED_EDGE ( 'NONE', *, *, #160, .F. ) ;
#93 = CARTESIAN_POINT ( 'NONE',  ( 0.000000000000000000, 0.000000000000000000, 2.399999999999999911 ) ) ;
#94 = SHAPE_DEFINITION_REPRESENTATION ( #118, #155 ) ;
#95 = EDGE_LOOP ( 'NONE', ( #127, #26, #54, #92 ) ) ;
#96 = DIRECTION ( 'NONE',  ( 0.000000000000000000, 0.000000000000000000, 1.000000000000000000 ) ) ;
#97 = CONICAL_SURFACE ( 'NONE', #183, 5.750000000000007105, 0.7853981633974431720 ) ;
#98 = EDGE_CURVE ( 'NONE', #208, #58, #187, .T. ) ;
#99 = ORIENTED_EDGE ( 'NONE', *, *, #268, .T. ) ;
#100 = AXIS2_PLACEMENT_3D ( 'NONE', #19, #219, #310 ) ;
#101 = ORIENTED_EDGE ( 'NONE', *, *, #103, .F. ) ;
#102 = ORIENTED_EDGE ( 'NONE', *, *, #12, .T. ) ;
#103 = EDGE_CURVE ( 'NONE', #30, #58, #108, .T. ) ;
#104 = DIRECTION ( 'NONE',  ( -0.000000000000000000, -0.000000000000000000, -1.000000000000000000 ) ) ;
#105 = ORIENTED_EDGE ( 'NONE', *, *, #41, .T. ) ;
#106 = CARTESIAN_POINT ( 'NONE',  ( 6.000000000000000888, 7.347880794884120722E-16, -2.149999999999999467 ) ) ;
#107 = CIRCLE ( 'NONE', #125, 5.750000000000000888 ) ;
#108 = LINE ( 'NONE', #81, #244 ) ;
#109 = PLANE ( 'NONE',  #184 ) ;
#110 = CIRCLE ( 'NONE', #59, 6.000000000000000888 ) ;
#111 = FACE_OUTER_BOUND ( 'NONE', #200, .T. ) ;
#112 = ADVANCED_FACE ( 'NONE', ( #180, #272 ), #109, .T. ) ;
#113 = PRESENTATION_STYLE_ASSIGNMENT (( #83 ) ) ;
#114 = AXIS2_PLACEMENT_3D ( 'NONE', #93, #199, #66 ) ;
#115 = CARTESIAN_POINT ( 'NONE',  ( 0.000000000000000000, 0.000000000000000000, 2.399999999999999911 ) ) ;
#116 = CARTESIAN_POINT ( 'NONE',  ( 0.000000000000000000, 0.000000000000000000, -2.399999999999999911 ) ) ;
#117 =( NAMED_UNIT ( * ) SI_UNIT ( $, .STERADIAN. ) SOLID_ANGLE_UNIT ( ) );
#118 = PRODUCT_DEFINITION_SHAPE ( 'NONE', 'NONE',  #74 ) ;
#119 = DIRECTION ( 'NONE',  ( -0.000000000000000000, -0.000000000000000000, 1.000000000000000000 ) ) ;
#120 = ORIENTED_EDGE ( 'NONE', *, *, #268, .F. ) ;
#121 = DIRECTION ( 'NONE',  ( 1.000000000000000000, 0.000000000000000000, 0.000000000000000000 ) ) ;
#122 = ORIENTED_EDGE ( 'NONE', *, *, #131, .T. ) ;
#123 = CARTESIAN_POINT ( 'NONE',  ( 0.000000000000000000, 0.000000000000000000, -2.399999999999999911 ) ) ;
#124 = ADVANCED_FACE ( 'NONE', ( #111 ), #37, .F. ) ;
#125 = AXIS2_PLACEMENT_3D ( 'NONE', #311, #312, #255 ) ;
#126 = EDGE_CURVE ( 'NONE', #30, #56, #107, .T. ) ;
#127 = ORIENTED_EDGE ( 'NONE', *, *, #149, .F. ) ;
#128 = DIRECTION ( 'NONE',  ( -0.000000000000000000, -0.000000000000000000, -1.000000000000000000 ) ) ;
#129 = LINE ( 'NONE', #230, #169 ) ;
#130 = EDGE_LOOP ( 'NONE', ( #148, #226, #274, #231 ) ) ;
#131 = EDGE_CURVE ( 'NONE', #32, #208, #282, .T. ) ;
#132 = CARTESIAN_POINT ( 'NONE',  ( 5.750000000000000888, 0.000000000000000000, -2.399999999999999911 ) ) ;
#133 = DIRECTION ( 'NONE',  ( -0.000000000000000000, -0.000000000000000000, -1.000000000000000000 ) ) ;
#134 =( LENGTH_UNIT ( ) NAMED_UNIT ( * ) SI_UNIT ( .MILLI., .METRE. ) );
#135 = ADVANCED_FACE ( 'NONE', ( #84 ), #40, .T. ) ;
#136 = DIRECTION ( 'NONE',  ( 1.000000000000000000, 0.000000000000000000, -0.000000000000000000 ) ) ;
#137 = FILL_AREA_STYLE ('',( #166 ) ) ;
#138 = AXIS2_PLACEMENT_3D ( 'NONE', #239, #314, #260 ) ;
#139 = CIRCLE ( 'NONE', #313, 5.750000000000000888 ) ;
#140 = CIRCLE ( 'NONE', #100, 6.000000000000000888 ) ;
#141 = FACE_OUTER_BOUND ( 'NONE', #95, .T. ) ;
#142 = DIRECTION ( 'NONE',  ( 0.000000000000000000, 0.000000000000000000, 1.000000000000000000 ) ) ;
#143 = MECHANICAL_DESIGN_GEOMETRIC_PRESENTATION_REPRESENTATION (  '', ( #227 ), #297 ) ;
#144 = ORIENTED_EDGE ( 'NONE', *, *, #289, .T. ) ;
#145 = DIRECTION ( 'NONE',  ( -0.000000000000000000, -0.000000000000000000, 1.000000000000000000 ) ) ;
#146 = UNCERTAINTY_MEASURE_WITH_UNIT (LENGTH_MEASURE( 1.000000000000000082E-05 ), #22, 'distance_accuracy_value', 'NONE');
#147 = CARTESIAN_POINT ( 'NONE',  ( 5.750000000000007105, 7.041719095097289754E-16, 2.399999999999999911 ) ) ;
#148 = ORIENTED_EDGE ( 'NONE', *, *, #98, .F. ) ;
#149 = EDGE_CURVE ( 'NONE', #78, #298, #186, .T. ) ;
#150 = MANIFOLD_SOLID_BREP ( 'Chanfrein1', #90 ) ;
#151 =( NAMED_UNIT ( * ) PLANE_ANGLE_UNIT ( ) SI_UNIT ( $, .RADIAN. ) );
#152 = ORIENTED_EDGE ( 'NONE', *, *, #181, .T. ) ;
#153 =( LENGTH_UNIT ( ) NAMED_UNIT ( * ) SI_UNIT ( .MILLI., .METRE. ) );
#154 = AXIS2_PLACEMENT_3D ( 'NONE', #189, #38, #43 ) ;
#155 = ADVANCED_BREP_SHAPE_REPRESENTATION ( 'Bague bronze REP 8-2', ( #150, #278 ), #48 ) ;
#156 = EDGE_LOOP ( 'NONE', ( #175, #276, #5, #243 ) ) ;
#157 = ORIENTED_EDGE ( 'NONE', *, *, #221, .F. ) ;
#158 = AXIS2_PLACEMENT_3D ( 'NONE', #266, #145, #172 ) ;
#159 = EDGE_LOOP ( 'NONE', ( #72, #178, #211, #101 ) ) ;
#160 = EDGE_CURVE ( 'NONE', #298, #32, #236, .T. ) ;
#161 = LINE ( 'NONE', #250, #42 ) ;
#162 = DIRECTION ( 'NONE',  ( -1.000000000000000000, 0.000000000000000000, 0.000000000000000000 ) ) ;
#163 = COLOUR_RGB ( '',0.9098039215686274384, 0.4431372549019607643, 0.03137254901960784270 ) ;
#164 = EDGE_CURVE ( 'NONE', #247, #58, #110, .T. ) ;
#165 = CARTESIAN_POINT ( 'NONE',  ( 0.000000000000000000, 0.000000000000000000, 2.399999999999999911 ) ) ;
#166 = FILL_AREA_STYLE_COLOUR ( '', #82 ) ;
#167 = DIRECTION ( 'NONE',  ( 0.000000000000000000, 0.000000000000000000, 1.000000000000000000 ) ) ;
#168 = CARTESIAN_POINT ( 'NONE',  ( 0.000000000000000000, 0.000000000000000000, 2.150000000000003020 ) ) ;
#169 = VECTOR ( 'NONE', #11, 1000.000000000000000 ) ;
#170 = CYLINDRICAL_SURFACE ( 'NONE', #138, 6.000000000000000888 ) ;
#171 = FACE_OUTER_BOUND ( 'NONE', #295, .T. ) ;
#172 = DIRECTION ( 'NONE',  ( 1.000000000000000000, 0.000000000000000000, 0.000000000000000000 ) ) ;
#173 = ADVANCED_FACE ( 'NONE', ( #253, #281 ), #257, .F. ) ;
#174 = DIRECTION ( 'NONE',  ( -1.000000000000000000, 0.000000000000000000, 0.000000000000000000 ) ) ;
#175 = ORIENTED_EDGE ( 'NONE', *, *, #228, .F. ) ;
#176 = AXIS2_PLACEMENT_3D ( 'NONE', #241, #45, #2 ) ;
#177 = ORIENTED_EDGE ( 'NONE', *, *, #126, .F. ) ;
#178 = ORIENTED_EDGE ( 'NONE', *, *, #89, .T. ) ;
#179 = ORIENTED_EDGE ( 'NONE', *, *, #181, .F. ) ;
#180 = FACE_OUTER_BOUND ( 'NONE', #1, .T. ) ;
#181 = EDGE_CURVE ( 'NONE', #301, #51, #237, .T. ) ;
#182 = CARTESIAN_POINT ( 'NONE',  ( 0.000000000000000000, 0.000000000000000000, 2.399999999999999911 ) ) ;
#183 = AXIS2_PLACEMENT_3D ( 'NONE', #67, #23, #174 ) ;
#184 = AXIS2_PLACEMENT_3D ( 'NONE', #115, #167, #61 ) ;
#185 = CARTESIAN_POINT ( 'NONE',  ( -4.000000000000000888, 0.000000000000000000, -2.399999999999999911 ) ) ;
#186 = CIRCLE ( 'NONE', #213, 5.750000000000007105 ) ;
#187 = LINE ( 'NONE', #34, #256 ) ;
#188 = DIRECTION ( 'NONE',  ( 0.000000000000000000, 0.000000000000000000, 1.000000000000000000 ) ) ;
#189 = CARTESIAN_POINT ( 'NONE',  ( 0.000000000000000000, 0.000000000000000000, 2.399999999999999911 ) ) ;
#190 = FACE_OUTER_BOUND ( 'NONE', #156, .T. ) ;
#191 = DIRECTION ( 'NONE',  ( -0.000000000000000000, -0.000000000000000000, 1.000000000000000000 ) ) ;
#192 = EDGE_CURVE ( 'NONE', #208, #32, #140, .T. ) ;
#193 = VECTOR ( 'NONE', #55, 1000.000000000000000 ) ;
#194 = CARTESIAN_POINT ( 'NONE',  ( 0.000000000000000000, 0.000000000000000000, -2.149999999999999467 ) ) ;
#195 = ORIENTED_EDGE ( 'NONE', *, *, #149, .T. ) ;
#196 = CARTESIAN_POINT ( 'NONE',  ( 4.000000000000000888, 4.898587196589413815E-16, 2.399999999999999911 ) ) ;
#197 = UNCERTAINTY_MEASURE_WITH_UNIT (LENGTH_MEASURE( 1.000000000000000082E-05 ), #134, 'distance_accuracy_value', 'NONE');
#198 = ADVANCED_FACE ( 'NONE', ( #190 ), #17, .T. ) ;
#199 = DIRECTION ( 'NONE',  ( 0.000000000000000000, 0.000000000000000000, 1.000000000000000000 ) ) ;
#200 = EDGE_LOOP ( 'NONE', ( #203, #152, #68, #120 ) ) ;
#201 = ORIENTED_EDGE ( 'NONE', *, *, #89, .F. ) ;
#202 =( NAMED_UNIT ( * ) SI_UNIT ( $, .STERADIAN. ) SOLID_ANGLE_UNIT ( ) );
#203 = ORIENTED_EDGE ( 'NONE', *, *, #12, .F. ) ;
#204 = VECTOR ( 'NONE', #252, 1000.000000000000000 ) ;
#205 = CARTESIAN_POINT ( 'NONE',  ( 0.000000000000000000, 0.000000000000000000, 0.000000000000000000 ) ) ;
#206 = CARTESIAN_POINT ( 'NONE',  ( 0.000000000000000000, 0.000000000000000000, 2.399999999999999911 ) ) ;
#207 = DIRECTION ( 'NONE',  ( -1.000000000000000000, 0.000000000000000000, 0.000000000000000000 ) ) ;
#208 = VERTEX_POINT ( 'NONE', #251 ) ;
#209 = EDGE_LOOP ( 'NONE', ( #21, #99 ) ) ;
#210 = AXIS2_PLACEMENT_3D ( 'NONE', #182, #273, #29 ) ;
#211 = ORIENTED_EDGE ( 'NONE', *, *, #302, .F. ) ;
#212 = APPLICATION_CONTEXT ( 'automotive_design' ) ;
#213 = AXIS2_PLACEMENT_3D ( 'NONE', #165, #64, #214 ) ;
#214 = DIRECTION ( 'NONE',  ( 1.000000000000000000, 0.000000000000000000, 0.000000000000000000 ) ) ;
#215 = DIRECTION ( 'NONE',  ( 0.000000000000000000, 0.000000000000000000, -1.000000000000000000 ) ) ;
#216 = AXIS2_PLACEMENT_3D ( 'NONE', #280, #88, #162 ) ;
#217 = ADVANCED_FACE ( 'NONE', ( #286 ), #170, .T. ) ;
#218 = CARTESIAN_POINT ( 'NONE',  ( 0.000000000000000000, 0.000000000000000000, 2.399999999999999911 ) ) ;
#219 = DIRECTION ( 'NONE',  ( 0.000000000000000000, 0.000000000000000000, -1.000000000000000000 ) ) ;
#220 = CARTESIAN_POINT ( 'NONE',  ( -6.000000000000000888, 0.000000000000000000, 2.399999999999999911 ) ) ;
#221 = EDGE_CURVE ( 'NONE', #32, #247, #44, .T. ) ;
#222 = CARTESIAN_POINT ( 'NONE',  ( 4.000000000000000888, 4.898587196589413815E-16, -2.399999999999999911 ) ) ;
#223 = CONICAL_SURFACE ( 'NONE', #85, 6.000000000000000888, 0.7853981633974482790 ) ;
#224 = MECHANICAL_DESIGN_GEOMETRIC_PRESENTATION_REPRESENTATION (  '', ( #275 ), #305 ) ;
#225 = ORIENTED_EDGE ( 'NONE', *, *, #33, .T. ) ;
#226 = ORIENTED_EDGE ( 'NONE', *, *, #192, .T. ) ;
#227 = STYLED_ITEM ( 'NONE', ( #27 ), #155 ) ;
#228 = EDGE_CURVE ( 'NONE', #78, #208, #70, .T. ) ;
#229 = ORIENTED_EDGE ( 'NONE', *, *, #270, .F. ) ;
#230 = CARTESIAN_POINT ( 'NONE',  ( 4.000000000000000888, 4.898587196589413815E-16, 2.399999999999999911 ) ) ;
#231 = ORIENTED_EDGE ( 'NONE', *, *, #164, .T. ) ;
#232 = DIRECTION ( 'NONE',  ( -1.000000000000000000, 0.000000000000000000, 0.000000000000000000 ) ) ;
#233 = CARTESIAN_POINT ( 'NONE',  ( -5.750000000000007105, 0.000000000000000000, 2.399999999999999911 ) ) ;
#234 = ADVANCED_FACE ( 'NONE', ( #25 ), #18, .T. ) ;
#235 = VECTOR ( 'NONE', #264, 1000.000000000000000 ) ;
#236 = LINE ( 'NONE', #233, #204 ) ;
#237 = CIRCLE ( 'NONE', #284, 4.000000000000000888 ) ;
#238 = CARTESIAN_POINT ( 'NONE',  ( 0.000000000000000000, 0.000000000000000000, 2.399999999999999911 ) ) ;
#239 = CARTESIAN_POINT ( 'NONE',  ( 0.000000000000000000, 0.000000000000000000, 2.399999999999999911 ) ) ;
#240 = CARTESIAN_POINT ( 'NONE',  ( -6.000000000000000888, 0.000000000000000000, -2.149999999999999467 ) ) ;
#241 = CARTESIAN_POINT ( 'NONE',  ( 0.000000000000000000, 0.000000000000000000, -2.399999999999999911 ) ) ;
#242 = ADVANCED_FACE ( 'NONE', ( #141 ), #97, .T. ) ;
#243 = ORIENTED_EDGE ( 'NONE', *, *, #192, .F. ) ;
#244 = VECTOR ( 'NONE', #77, 1000.000000000000114 ) ;
#245 = LINE ( 'NONE', #303, #193 ) ;
#246 = DIRECTION ( 'NONE',  ( 1.000000000000000000, 0.000000000000000000, 0.000000000000000000 ) ) ;
#247 = VERTEX_POINT ( 'NONE', #240 ) ;
#248 = CIRCLE ( 'NONE', #114, 4.000000000000000888 ) ;
#249 = CARTESIAN_POINT ( 'NONE',  ( 5.750000000000007105, 7.194799944990705731E-16, 2.399999999999999911 ) ) ;
#250 = CARTESIAN_POINT ( 'NONE',  ( -6.000000000000000888, 7.347880794884120722E-16, -2.149999999999999467 ) ) ;
#251 = CARTESIAN_POINT ( 'NONE',  ( 6.000000000000000888, 7.347880794884120722E-16, 2.150000000000003020 ) ) ;
#252 = DIRECTION ( 'NONE',  ( -0.7071067811865439090, 0.000000000000000000, -0.7071067811865512365 ) ) ;
#253 = FACE_OUTER_BOUND ( 'NONE', #265, .T. ) ;
#254 = ADVANCED_FACE ( 'NONE', ( #171 ), #223, .T. ) ;
#255 = DIRECTION ( 'NONE',  ( 1.000000000000000000, 0.000000000000000000, 0.000000000000000000 ) ) ;
#256 = VECTOR ( 'NONE', #300, 1000.000000000000000 ) ;
#257 = PLANE ( 'NONE',  #7 ) ;
#258 = PRODUCT ( 'Bague bronze REP 8-2', 'Bague bronze REP 8-2', '', ( #299 ) ) ;
#259 = PRESENTATION_LAYER_ASSIGNMENT (  '', '', ( #275 ) ) ;
#260 = DIRECTION ( 'NONE',  ( -1.000000000000000000, 0.000000000000000000, 0.000000000000000000 ) ) ;
#261 = DIRECTION ( 'NONE',  ( 1.000000000000000000, 0.000000000000000000, 0.000000000000000000 ) ) ;
#262 = VERTEX_POINT ( 'NONE', #222 ) ;
#263 = CIRCLE ( 'NONE', #176, 4.000000000000000888 ) ;
#264 = DIRECTION ( 'NONE',  ( 0.7071067811865439090, 8.659560562354889717E-17, -0.7071067811865512365 ) ) ;
#265 = EDGE_LOOP ( 'NONE', ( #50, #105 ) ) ;
#266 = CARTESIAN_POINT ( 'NONE',  ( 0.000000000000000000, 0.000000000000000000, -2.149999999999999467 ) ) ;
#267 = EDGE_LOOP ( 'NONE', ( #60, #179 ) ) ;
#268 = EDGE_CURVE ( 'NONE', #262, #76, #263, .T. ) ;
#269 = ORIENTED_EDGE ( 'NONE', *, *, #302, .T. ) ;
#270 = EDGE_CURVE ( 'NONE', #76, #262, #31, .T. ) ;
#271 = ORIENTED_EDGE ( 'NONE', *, *, #103, .T. ) ;
#272 = FACE_BOUND ( 'NONE', #267, .T. ) ;
#273 = DIRECTION ( 'NONE',  ( 0.000000000000000000, 0.000000000000000000, 1.000000000000000000 ) ) ;
#274 = ORIENTED_EDGE ( 'NONE', *, *, #221, .T. ) ;
#275 = STYLED_ITEM ( 'NONE', ( #113 ), #150 ) ;
#276 = ORIENTED_EDGE ( 'NONE', *, *, #33, .F. ) ;
#277 = DIRECTION ( 'NONE',  ( 1.000000000000000000, 0.000000000000000000, 0.000000000000000000 ) ) ;
#278 = AXIS2_PLACEMENT_3D ( 'NONE', #205, #96, #292 ) ;
#279 = DIRECTION ( 'NONE',  ( 0.000000000000000000, 0.000000000000000000, 1.000000000000000000 ) ) ;
#280 = CARTESIAN_POINT ( 'NONE',  ( 0.000000000000000000, 0.000000000000000000, 2.399999999999999911 ) ) ;
#281 = FACE_BOUND ( 'NONE', #209, .T. ) ;
#282 = CIRCLE ( 'NONE', #15, 6.000000000000000888 ) ;
#283 =( NAMED_UNIT ( * ) PLANE_ANGLE_UNIT ( ) SI_UNIT ( $, .RADIAN. ) );
#284 = AXIS2_PLACEMENT_3D ( 'NONE', #238, #188, #277 ) ;
#285 = DIRECTION ( 'NONE',  ( 1.000000000000000000, 0.000000000000000000, 0.000000000000000000 ) ) ;
#286 = FACE_OUTER_BOUND ( 'NONE', #287, .T. ) ;
#287 = EDGE_LOOP ( 'NONE', ( #122, #35, #269, #157 ) ) ;
#288 = UNCERTAINTY_MEASURE_WITH_UNIT (LENGTH_MEASURE( 1.000000000000000082E-05 ), #153, 'distance_accuracy_value', 'NONE');
#289 = EDGE_CURVE ( 'NONE', #51, #301, #248, .T. ) ;
#290 = CIRCLE ( 'NONE', #158, 6.000000000000000888 ) ;
#291 = ORIENTED_EDGE ( 'NONE', *, *, #4, .F. ) ;
#292 = DIRECTION ( 'NONE',  ( 1.000000000000000000, 0.000000000000000000, 0.000000000000000000 ) ) ;
#293 = EDGE_LOOP ( 'NONE', ( #144, #102, #229, #291 ) ) ;
#294 = FILL_AREA_STYLE_COLOUR ( '', #163 ) ;
#295 = EDGE_LOOP ( 'NONE', ( #201, #177, #271, #46 ) ) ;
#296 = SURFACE_SIDE_STYLE ('',( #3 ) ) ;
#297 =( GEOMETRIC_REPRESENTATION_CONTEXT ( 3 ) GLOBAL_UNCERTAINTY_ASSIGNED_CONTEXT ( ( #288 ) ) GLOBAL_UNIT_ASSIGNED_CONTEXT ( ( #153, #151, #202 ) ) REPRESENTATION_CONTEXT ( 'NONE', 'WORKASPACE' ) );
#298 = VERTEX_POINT ( 'NONE', #47 ) ;
#299 = PRODUCT_CONTEXT ( 'NONE', #212, 'mechanical' ) ;
#300 = DIRECTION ( 'NONE',  ( -0.000000000000000000, -0.000000000000000000, -1.000000000000000000 ) ) ;
#301 = VERTEX_POINT ( 'NONE', #196 ) ;
#302 = EDGE_CURVE ( 'NONE', #58, #247, #290, .T. ) ;
#303 = CARTESIAN_POINT ( 'NONE',  ( -4.000000000000000888, 0.000000000000000000, 2.399999999999999911 ) ) ;
#304 = CARTESIAN_POINT ( 'NONE',  ( 0.000000000000000000, 0.000000000000000000, -2.399999999999999911 ) ) ;
#305 =( GEOMETRIC_REPRESENTATION_CONTEXT ( 3 ) GLOBAL_UNCERTAINTY_ASSIGNED_CONTEXT ( ( #197 ) ) GLOBAL_UNIT_ASSIGNED_CONTEXT ( ( #134, #283, #86 ) ) REPRESENTATION_CONTEXT ( 'NONE', 'WORKASPACE' ) );
#306 = SURFACE_SIDE_STYLE ('',( #87 ) ) ;
#307 = CARTESIAN_POINT ( 'NONE',  ( 0.000000000000000000, 0.000000000000000000, -2.149999999999999467 ) ) ;
#308 = PRODUCT_DEFINITION_FORMATION_WITH_SPECIFIED_SOURCE ( 'ANY', '', #258, .NOT_KNOWN. ) ;
#309 = AXIS2_PLACEMENT_3D ( 'NONE', #194, #49, #285 ) ;
#310 = DIRECTION ( 'NONE',  ( 1.000000000000000000, 0.000000000000000000, 0.000000000000000000 ) ) ;
#311 = CARTESIAN_POINT ( 'NONE',  ( 0.000000000000000000, 0.000000000000000000, -2.399999999999999911 ) ) ;
#312 = DIRECTION ( 'NONE',  ( -0.000000000000000000, -0.000000000000000000, -1.000000000000000000 ) ) ;
#313 = AXIS2_PLACEMENT_3D ( 'NONE', #304, #128, #246 ) ;
#314 = DIRECTION ( 'NONE',  ( -0.000000000000000000, -0.000000000000000000, -1.000000000000000000 ) ) ;
ENDSEC;
END-ISO-10303-21;
