ISO-10303-21;
HEADER;
FILE_DESCRIPTION((''),'2;1');
FILE_NAME('PLAQUE_PATRICK','2021-01-24T',('jf'),(''),
'PRO/ENGINEER BY PARAMETRIC TECHNOLOGY CORPORATION, 2008230',
'PRO/ENGINEER BY PARAMETRIC TECHNOLOGY CORPORATION, 2008230','');
FILE_SCHEMA(('CONFIG_CONTROL_DESIGN'));
ENDSEC;
DATA;
#1=CARTESIAN_POINT('',(1.5E2,1.E1,-4.E0));
#2=DIRECTION('',(0.E0,0.E0,-1.E0));
#3=DIRECTION('',(1.E0,0.E0,0.E0));
#4=AXIS2_PLACEMENT_3D('',#1,#2,#3);
#6=CARTESIAN_POINT('',(1.5E2,1.E1,-4.E0));
#7=DIRECTION('',(0.E0,0.E0,-1.E0));
#8=DIRECTION('',(-1.E0,0.E0,0.E0));
#9=AXIS2_PLACEMENT_3D('',#6,#7,#8);
#11=DIRECTION('',(-8.516583167045E-1,-5.240974256643E-1,0.E0));
#12=VECTOR('',#11,7.632168761237E1);
#13=CARTESIAN_POINT('',(-1.6E2,6.E1,-4.E0));
#14=LINE('',#13,#12);
#15=DIRECTION('',(0.E0,-1.E0,0.E0));
#16=VECTOR('',#15,8.E1);
#17=CARTESIAN_POINT('',(-2.25E2,2.E1,-4.E0));
#18=LINE('',#17,#16);
#19=DIRECTION('',(1.E0,0.E0,0.E0));
#20=VECTOR('',#19,4.5E2);
#21=CARTESIAN_POINT('',(-2.25E2,-6.E1,-4.E0));
#22=LINE('',#21,#20);
#23=DIRECTION('',(0.E0,1.E0,0.E0));
#24=VECTOR('',#23,1.2E2);
#25=CARTESIAN_POINT('',(2.25E2,-6.E1,-4.E0));
#26=LINE('',#25,#24);
#27=DIRECTION('',(-1.E0,0.E0,0.E0));
#28=VECTOR('',#27,3.85E2);
#29=CARTESIAN_POINT('',(2.25E2,6.E1,-4.E0));
#30=LINE('',#29,#28);
#31=DIRECTION('',(1.E0,0.E0,0.E0));
#32=VECTOR('',#31,1.030953484267E1);
#33=CARTESIAN_POINT('',(-1.124095348427E2,-1.9E1,-4.E0));
#34=LINE('',#33,#32);
#35=CARTESIAN_POINT('',(-1.381E2,-1.5E1,-4.E0));
#36=DIRECTION('',(0.E0,0.E0,1.E0));
#37=DIRECTION('',(0.E0,-1.E0,0.E0));
#38=AXIS2_PLACEMENT_3D('',#35,#36,#37);
#40=DIRECTION('',(-1.E0,0.E0,0.E0));
#41=VECTOR('',#40,8.E0);
#42=CARTESIAN_POINT('',(-1.381E2,-4.1E1,-4.E0));
#43=LINE('',#42,#41);
#44=CARTESIAN_POINT('',(-1.461E2,-1.5E1,-4.E0));
#45=DIRECTION('',(0.E0,0.E0,1.E0));
#46=DIRECTION('',(-9.880948137435E-1,-1.538461538462E-1,0.E0));
#47=AXIS2_PLACEMENT_3D('',#44,#45,#46);
#49=DIRECTION('',(1.E0,0.E0,0.E0));
#50=VECTOR('',#49,1.030953484267E1);
#51=CARTESIAN_POINT('',(-1.821E2,-1.9E1,-4.E0));
#52=LINE('',#51,#50);
#53=CARTESIAN_POINT('',(-1.821E2,-1.5E1,-4.E0));
#54=DIRECTION('',(0.E0,0.E0,1.E0));
#55=DIRECTION('',(0.E0,1.E0,0.E0));
#56=AXIS2_PLACEMENT_3D('',#53,#54,#55);
#58=DIRECTION('',(-1.E0,0.E0,0.E0));
#59=VECTOR('',#58,1.030953484267E1);
#60=CARTESIAN_POINT('',(-1.717904651573E2,-1.1E1,-4.E0));
#61=LINE('',#60,#59);
#62=CARTESIAN_POINT('',(-1.461E2,-1.5E1,-4.E0));
#63=DIRECTION('',(0.E0,0.E0,1.E0));
#64=DIRECTION('',(0.E0,1.E0,0.E0));
#65=AXIS2_PLACEMENT_3D('',#62,#63,#64);
#67=DIRECTION('',(1.E0,0.E0,0.E0));
#68=VECTOR('',#67,8.E0);
#69=CARTESIAN_POINT('',(-1.461E2,1.1E1,-4.E0));
#70=LINE('',#69,#68);
#71=CARTESIAN_POINT('',(-1.381E2,-1.5E1,-4.E0));
#72=DIRECTION('',(0.E0,0.E0,1.E0));
#73=DIRECTION('',(9.880948137435E-1,1.538461538462E-1,0.E0));
#74=AXIS2_PLACEMENT_3D('',#71,#72,#73);
#76=DIRECTION('',(-1.E0,0.E0,0.E0));
#77=VECTOR('',#76,1.030953484267E1);
#78=CARTESIAN_POINT('',(-1.021E2,-1.1E1,-4.E0));
#79=LINE('',#78,#77);
#80=CARTESIAN_POINT('',(-1.021E2,-1.5E1,-4.E0));
#81=DIRECTION('',(0.E0,0.E0,1.E0));
#82=DIRECTION('',(0.E0,-1.E0,0.E0));
#83=AXIS2_PLACEMENT_3D('',#80,#81,#82);
#85=DIRECTION('',(0.E0,0.E0,1.E0));
#86=VECTOR('',#85,8.E0);
#87=CARTESIAN_POINT('',(1.76E2,1.E1,-4.E0));
#88=LINE('',#87,#86);
#89=DIRECTION('',(0.E0,0.E0,1.E0));
#90=VECTOR('',#89,8.E0);
#91=CARTESIAN_POINT('',(1.24E2,1.E1,-4.E0));
#92=LINE('',#91,#90);
#93=CARTESIAN_POINT('',(1.5E2,1.E1,4.E0));
#94=DIRECTION('',(0.E0,0.E0,-1.E0));
#95=DIRECTION('',(1.E0,0.E0,0.E0));
#96=AXIS2_PLACEMENT_3D('',#93,#94,#95);
#98=CARTESIAN_POINT('',(1.5E2,1.E1,4.E0));
#99=DIRECTION('',(0.E0,0.E0,-1.E0));
#100=DIRECTION('',(-1.E0,0.E0,0.E0));
#101=AXIS2_PLACEMENT_3D('',#98,#99,#100);
#103=DIRECTION('',(-8.516583167045E-1,-5.240974256643E-1,0.E0));
#104=VECTOR('',#103,7.632168761237E1);
#105=CARTESIAN_POINT('',(-1.6E2,6.E1,4.E0));
#106=LINE('',#105,#104);
#107=DIRECTION('',(-1.E0,0.E0,0.E0));
#108=VECTOR('',#107,3.85E2);
#109=CARTESIAN_POINT('',(2.25E2,6.E1,4.E0));
#110=LINE('',#109,#108);
#111=DIRECTION('',(0.E0,1.E0,0.E0));
#112=VECTOR('',#111,1.2E2);
#113=CARTESIAN_POINT('',(2.25E2,-6.E1,4.E0));
#114=LINE('',#113,#112);
#115=DIRECTION('',(1.E0,0.E0,0.E0));
#116=VECTOR('',#115,4.5E2);
#117=CARTESIAN_POINT('',(-2.25E2,-6.E1,4.E0));
#118=LINE('',#117,#116);
#119=DIRECTION('',(0.E0,-1.E0,0.E0));
#120=VECTOR('',#119,8.E1);
#121=CARTESIAN_POINT('',(-2.25E2,2.E1,4.E0));
#122=LINE('',#121,#120);
#123=DIRECTION('',(1.E0,0.E0,0.E0));
#124=VECTOR('',#123,1.030953484267E1);
#125=CARTESIAN_POINT('',(-1.124095348427E2,-1.9E1,4.E0));
#126=LINE('',#125,#124);
#127=CARTESIAN_POINT('',(-1.021E2,-1.5E1,4.E0));
#128=DIRECTION('',(0.E0,0.E0,1.E0));
#129=DIRECTION('',(0.E0,-1.E0,0.E0));
#130=AXIS2_PLACEMENT_3D('',#127,#128,#129);
#132=DIRECTION('',(-1.E0,0.E0,0.E0));
#133=VECTOR('',#132,1.030953484267E1);
#134=CARTESIAN_POINT('',(-1.021E2,-1.1E1,4.E0));
#135=LINE('',#134,#133);
#136=CARTESIAN_POINT('',(-1.381E2,-1.5E1,4.E0));
#137=DIRECTION('',(0.E0,0.E0,1.E0));
#138=DIRECTION('',(9.880948137435E-1,1.538461538462E-1,0.E0));
#139=AXIS2_PLACEMENT_3D('',#136,#137,#138);
#141=DIRECTION('',(-1.E0,0.E0,0.E0));
#142=VECTOR('',#141,8.E0);
#143=CARTESIAN_POINT('',(-1.381E2,1.1E1,4.E0));
#144=LINE('',#143,#142);
#145=CARTESIAN_POINT('',(-1.461E2,-1.5E1,4.E0));
#146=DIRECTION('',(0.E0,0.E0,1.E0));
#147=DIRECTION('',(0.E0,1.E0,0.E0));
#148=AXIS2_PLACEMENT_3D('',#145,#146,#147);
#150=DIRECTION('',(-1.E0,0.E0,0.E0));
#151=VECTOR('',#150,1.030953484267E1);
#152=CARTESIAN_POINT('',(-1.717904651573E2,-1.1E1,4.E0));
#153=LINE('',#152,#151);
#154=CARTESIAN_POINT('',(-1.821E2,-1.5E1,4.E0));
#155=DIRECTION('',(0.E0,0.E0,1.E0));
#156=DIRECTION('',(0.E0,1.E0,0.E0));
#157=AXIS2_PLACEMENT_3D('',#154,#155,#156);
#159=DIRECTION('',(1.E0,0.E0,0.E0));
#160=VECTOR('',#159,1.030953484267E1);
#161=CARTESIAN_POINT('',(-1.821E2,-1.9E1,4.E0));
#162=LINE('',#161,#160);
#163=CARTESIAN_POINT('',(-1.461E2,-1.5E1,4.E0));
#164=DIRECTION('',(0.E0,0.E0,1.E0));
#165=DIRECTION('',(-9.880948137435E-1,-1.538461538462E-1,0.E0));
#166=AXIS2_PLACEMENT_3D('',#163,#164,#165);
#168=DIRECTION('',(1.E0,0.E0,0.E0));
#169=VECTOR('',#168,8.E0);
#170=CARTESIAN_POINT('',(-1.461E2,-4.1E1,4.E0));
#171=LINE('',#170,#169);
#172=CARTESIAN_POINT('',(-1.381E2,-1.5E1,4.E0));
#173=DIRECTION('',(0.E0,0.E0,1.E0));
#174=DIRECTION('',(0.E0,-1.E0,0.E0));
#175=AXIS2_PLACEMENT_3D('',#172,#173,#174);
#177=DIRECTION('',(0.E0,0.E0,1.E0));
#178=VECTOR('',#177,8.E0);
#179=CARTESIAN_POINT('',(-1.6E2,6.E1,-4.E0));
#180=LINE('',#179,#178);
#181=DIRECTION('',(0.E0,0.E0,1.E0));
#182=VECTOR('',#181,8.E0);
#183=CARTESIAN_POINT('',(2.25E2,6.E1,-4.E0));
#184=LINE('',#183,#182);
#185=DIRECTION('',(0.E0,0.E0,1.E0));
#186=VECTOR('',#185,8.E0);
#187=CARTESIAN_POINT('',(2.25E2,-6.E1,-4.E0));
#188=LINE('',#187,#186);
#189=DIRECTION('',(0.E0,0.E0,1.E0));
#190=VECTOR('',#189,8.E0);
#191=CARTESIAN_POINT('',(-2.25E2,-6.E1,-4.E0));
#192=LINE('',#191,#190);
#193=DIRECTION('',(0.E0,0.E0,1.E0));
#194=VECTOR('',#193,8.E0);
#195=CARTESIAN_POINT('',(-2.25E2,2.E1,-4.E0));
#196=LINE('',#195,#194);
#197=DIRECTION('',(0.E0,0.E0,1.E0));
#198=VECTOR('',#197,8.E0);
#199=CARTESIAN_POINT('',(-1.021E2,-1.9E1,-4.E0));
#200=LINE('',#199,#198);
#201=DIRECTION('',(0.E0,0.E0,1.E0));
#202=VECTOR('',#201,8.E0);
#203=CARTESIAN_POINT('',(-1.021E2,-1.1E1,-4.E0));
#204=LINE('',#203,#202);
#205=DIRECTION('',(0.E0,0.E0,1.E0));
#206=VECTOR('',#205,8.E0);
#207=CARTESIAN_POINT('',(-1.124095348427E2,-1.9E1,-4.E0));
#208=LINE('',#207,#206);
#209=DIRECTION('',(0.E0,0.E0,1.E0));
#210=VECTOR('',#209,8.E0);
#211=CARTESIAN_POINT('',(-1.381E2,-4.1E1,-4.E0));
#212=LINE('',#211,#210);
#213=DIRECTION('',(0.E0,0.E0,1.E0));
#214=VECTOR('',#213,8.E0);
#215=CARTESIAN_POINT('',(-1.124095348427E2,-1.1E1,-4.E0));
#216=LINE('',#215,#214);
#217=DIRECTION('',(0.E0,0.E0,1.E0));
#218=VECTOR('',#217,8.E0);
#219=CARTESIAN_POINT('',(-1.461E2,-4.1E1,-4.E0));
#220=LINE('',#219,#218);
#221=DIRECTION('',(0.E0,0.E0,1.E0));
#222=VECTOR('',#221,8.E0);
#223=CARTESIAN_POINT('',(-1.717904651573E2,-1.1E1,-4.E0));
#224=LINE('',#223,#222);
#225=DIRECTION('',(0.E0,0.E0,1.E0));
#226=VECTOR('',#225,8.E0);
#227=CARTESIAN_POINT('',(-1.461E2,1.1E1,-4.E0));
#228=LINE('',#227,#226);
#229=DIRECTION('',(0.E0,0.E0,1.E0));
#230=VECTOR('',#229,8.E0);
#231=CARTESIAN_POINT('',(-1.717904651573E2,-1.9E1,-4.E0));
#232=LINE('',#231,#230);
#233=DIRECTION('',(0.E0,0.E0,1.E0));
#234=VECTOR('',#233,8.E0);
#235=CARTESIAN_POINT('',(-1.821E2,-1.1E1,-4.E0));
#236=LINE('',#235,#234);
#237=DIRECTION('',(0.E0,0.E0,1.E0));
#238=VECTOR('',#237,8.E0);
#239=CARTESIAN_POINT('',(-1.821E2,-1.9E1,-4.E0));
#240=LINE('',#239,#238);
#241=DIRECTION('',(0.E0,0.E0,1.E0));
#242=VECTOR('',#241,8.E0);
#243=CARTESIAN_POINT('',(-1.381E2,1.1E1,-4.E0));
#244=LINE('',#243,#242);
#245=CARTESIAN_POINT('',(1.76E2,1.E1,-4.E0));
#246=CARTESIAN_POINT('',(1.24E2,1.E1,-4.E0));
#247=VERTEX_POINT('',#245);
#248=VERTEX_POINT('',#246);
#249=CARTESIAN_POINT('',(-2.25E2,2.E1,-4.E0));
#250=CARTESIAN_POINT('',(-2.25E2,-6.E1,-4.E0));
#251=VERTEX_POINT('',#249);
#252=VERTEX_POINT('',#250);
#253=CARTESIAN_POINT('',(2.25E2,-6.E1,-4.E0));
#254=VERTEX_POINT('',#253);
#255=CARTESIAN_POINT('',(2.25E2,6.E1,-4.E0));
#256=VERTEX_POINT('',#255);
#257=CARTESIAN_POINT('',(-1.6E2,6.E1,-4.E0));
#258=VERTEX_POINT('',#257);
#259=CARTESIAN_POINT('',(1.76E2,1.E1,4.E0));
#260=CARTESIAN_POINT('',(1.24E2,1.E1,4.E0));
#261=VERTEX_POINT('',#259);
#262=VERTEX_POINT('',#260);
#263=CARTESIAN_POINT('',(-2.25E2,2.E1,4.E0));
#264=CARTESIAN_POINT('',(-2.25E2,-6.E1,4.E0));
#265=VERTEX_POINT('',#263);
#266=VERTEX_POINT('',#264);
#267=CARTESIAN_POINT('',(2.25E2,-6.E1,4.E0));
#268=VERTEX_POINT('',#267);
#269=CARTESIAN_POINT('',(2.25E2,6.E1,4.E0));
#270=VERTEX_POINT('',#269);
#271=CARTESIAN_POINT('',(-1.6E2,6.E1,4.E0));
#272=VERTEX_POINT('',#271);
#273=CARTESIAN_POINT('',(-1.124095348427E2,-1.9E1,-4.E0));
#274=CARTESIAN_POINT('',(-1.021E2,-1.9E1,-4.E0));
#275=VERTEX_POINT('',#273);
#276=VERTEX_POINT('',#274);
#277=CARTESIAN_POINT('',(-1.021E2,-1.1E1,-4.E0));
#278=VERTEX_POINT('',#277);
#279=CARTESIAN_POINT('',(-1.124095348427E2,-1.1E1,-4.E0));
#280=VERTEX_POINT('',#279);
#281=CARTESIAN_POINT('',(-1.717904651573E2,-1.1E1,-4.E0));
#282=CARTESIAN_POINT('',(-1.821E2,-1.1E1,-4.E0));
#283=VERTEX_POINT('',#281);
#284=VERTEX_POINT('',#282);
#285=CARTESIAN_POINT('',(-1.821E2,-1.9E1,-4.E0));
#286=VERTEX_POINT('',#285);
#287=CARTESIAN_POINT('',(-1.717904651573E2,-1.9E1,-4.E0));
#288=VERTEX_POINT('',#287);
#289=CARTESIAN_POINT('',(-1.124095348427E2,-1.9E1,4.E0));
#290=CARTESIAN_POINT('',(-1.021E2,-1.9E1,4.E0));
#291=VERTEX_POINT('',#289);
#292=VERTEX_POINT('',#290);
#293=CARTESIAN_POINT('',(-1.021E2,-1.1E1,4.E0));
#294=VERTEX_POINT('',#293);
#295=CARTESIAN_POINT('',(-1.124095348427E2,-1.1E1,4.E0));
#296=VERTEX_POINT('',#295);
#297=CARTESIAN_POINT('',(-1.717904651573E2,-1.1E1,4.E0));
#298=CARTESIAN_POINT('',(-1.821E2,-1.1E1,4.E0));
#299=VERTEX_POINT('',#297);
#300=VERTEX_POINT('',#298);
#301=CARTESIAN_POINT('',(-1.821E2,-1.9E1,4.E0));
#302=VERTEX_POINT('',#301);
#303=CARTESIAN_POINT('',(-1.717904651573E2,-1.9E1,4.E0));
#304=VERTEX_POINT('',#303);
#305=CARTESIAN_POINT('',(-1.461E2,1.1E1,-4.E0));
#306=CARTESIAN_POINT('',(-1.381E2,1.1E1,-4.E0));
#307=VERTEX_POINT('',#305);
#308=VERTEX_POINT('',#306);
#309=CARTESIAN_POINT('',(-1.381E2,-4.1E1,-4.E0));
#310=CARTESIAN_POINT('',(-1.461E2,-4.1E1,-4.E0));
#311=VERTEX_POINT('',#309);
#312=VERTEX_POINT('',#310);
#313=CARTESIAN_POINT('',(-1.381E2,1.1E1,4.E0));
#314=CARTESIAN_POINT('',(-1.461E2,1.1E1,4.E0));
#315=VERTEX_POINT('',#313);
#316=VERTEX_POINT('',#314);
#317=CARTESIAN_POINT('',(-1.461E2,-4.1E1,4.E0));
#318=CARTESIAN_POINT('',(-1.381E2,-4.1E1,4.E0));
#319=VERTEX_POINT('',#317);
#320=VERTEX_POINT('',#318);
#321=CARTESIAN_POINT('',(0.E0,0.E0,-4.E0));
#322=DIRECTION('',(0.E0,0.E0,1.E0));
#323=DIRECTION('',(1.E0,0.E0,0.E0));
#324=AXIS2_PLACEMENT_3D('',#321,#322,#323);
#325=PLANE('',#324);
#327=ORIENTED_EDGE('',*,*,#326,.T.);
#329=ORIENTED_EDGE('',*,*,#328,.T.);
#331=ORIENTED_EDGE('',*,*,#330,.T.);
#333=ORIENTED_EDGE('',*,*,#332,.T.);
#335=ORIENTED_EDGE('',*,*,#334,.T.);
#336=EDGE_LOOP('',(#327,#329,#331,#333,#335));
#337=FACE_OUTER_BOUND('',#336,.F.);
#339=ORIENTED_EDGE('',*,*,#338,.T.);
#341=ORIENTED_EDGE('',*,*,#340,.T.);
#342=EDGE_LOOP('',(#339,#341));
#343=FACE_BOUND('',#342,.F.);
#345=ORIENTED_EDGE('',*,*,#344,.F.);
#347=ORIENTED_EDGE('',*,*,#346,.F.);
#349=ORIENTED_EDGE('',*,*,#348,.T.);
#351=ORIENTED_EDGE('',*,*,#350,.F.);
#353=ORIENTED_EDGE('',*,*,#352,.F.);
#355=ORIENTED_EDGE('',*,*,#354,.F.);
#357=ORIENTED_EDGE('',*,*,#356,.F.);
#359=ORIENTED_EDGE('',*,*,#358,.F.);
#361=ORIENTED_EDGE('',*,*,#360,.T.);
#363=ORIENTED_EDGE('',*,*,#362,.F.);
#365=ORIENTED_EDGE('',*,*,#364,.F.);
#367=ORIENTED_EDGE('',*,*,#366,.F.);
#368=EDGE_LOOP('',(#345,#347,#349,#351,#353,#355,#357,#359,#361,#363,#365,
#367));
#369=FACE_BOUND('',#368,.F.);
#370=ADVANCED_FACE('',(#337,#343,#369),#325,.F.);
#371=CARTESIAN_POINT('',(1.5E2,1.E1,-4.E0));
#372=DIRECTION('',(0.E0,0.E0,1.E0));
#373=DIRECTION('',(1.E0,0.E0,0.E0));
#374=AXIS2_PLACEMENT_3D('',#371,#372,#373);
#375=CYLINDRICAL_SURFACE('',#374,2.6E1);
#376=ORIENTED_EDGE('',*,*,#338,.F.);
#378=ORIENTED_EDGE('',*,*,#377,.T.);
#380=ORIENTED_EDGE('',*,*,#379,.T.);
#382=ORIENTED_EDGE('',*,*,#381,.F.);
#383=EDGE_LOOP('',(#376,#378,#380,#382));
#384=FACE_OUTER_BOUND('',#383,.F.);
#385=ADVANCED_FACE('',(#384),#375,.F.);
#386=CARTESIAN_POINT('',(1.5E2,1.E1,-4.E0));
#387=DIRECTION('',(0.E0,0.E0,1.E0));
#388=DIRECTION('',(1.E0,0.E0,0.E0));
#389=AXIS2_PLACEMENT_3D('',#386,#387,#388);
#390=CYLINDRICAL_SURFACE('',#389,2.6E1);
#391=ORIENTED_EDGE('',*,*,#340,.F.);
#392=ORIENTED_EDGE('',*,*,#381,.T.);
#394=ORIENTED_EDGE('',*,*,#393,.T.);
#395=ORIENTED_EDGE('',*,*,#377,.F.);
#396=EDGE_LOOP('',(#391,#392,#394,#395));
#397=FACE_OUTER_BOUND('',#396,.F.);
#398=ADVANCED_FACE('',(#397),#390,.F.);
#399=CARTESIAN_POINT('',(0.E0,0.E0,4.E0));
#400=DIRECTION('',(0.E0,0.E0,1.E0));
#401=DIRECTION('',(1.E0,0.E0,0.E0));
#402=AXIS2_PLACEMENT_3D('',#399,#400,#401);
#403=PLANE('',#402);
#405=ORIENTED_EDGE('',*,*,#404,.F.);
#407=ORIENTED_EDGE('',*,*,#406,.F.);
#409=ORIENTED_EDGE('',*,*,#408,.F.);
#411=ORIENTED_EDGE('',*,*,#410,.F.);
#413=ORIENTED_EDGE('',*,*,#412,.F.);
#414=EDGE_LOOP('',(#405,#407,#409,#411,#413));
#415=FACE_OUTER_BOUND('',#414,.F.);
#416=ORIENTED_EDGE('',*,*,#379,.F.);
#417=ORIENTED_EDGE('',*,*,#393,.F.);
#418=EDGE_LOOP('',(#416,#417));
#419=FACE_BOUND('',#418,.F.);
#421=ORIENTED_EDGE('',*,*,#420,.T.);
#423=ORIENTED_EDGE('',*,*,#422,.T.);
#425=ORIENTED_EDGE('',*,*,#424,.T.);
#427=ORIENTED_EDGE('',*,*,#426,.T.);
#429=ORIENTED_EDGE('',*,*,#428,.T.);
#431=ORIENTED_EDGE('',*,*,#430,.T.);
#433=ORIENTED_EDGE('',*,*,#432,.T.);
#435=ORIENTED_EDGE('',*,*,#434,.T.);
#437=ORIENTED_EDGE('',*,*,#436,.T.);
#439=ORIENTED_EDGE('',*,*,#438,.T.);
#441=ORIENTED_EDGE('',*,*,#440,.T.);
#443=ORIENTED_EDGE('',*,*,#442,.T.);
#444=EDGE_LOOP('',(#421,#423,#425,#427,#429,#431,#433,#435,#437,#439,#441,
#443));
#445=FACE_BOUND('',#444,.F.);
#446=ADVANCED_FACE('',(#415,#419,#445),#403,.T.);
#447=CARTESIAN_POINT('',(-1.6E2,6.E1,-4.E0));
#448=DIRECTION('',(-5.240974256643E-1,8.516583167045E-1,0.E0));
#449=DIRECTION('',(-8.516583167045E-1,-5.240974256643E-1,0.E0));
#450=AXIS2_PLACEMENT_3D('',#447,#448,#449);
#451=PLANE('',#450);
#452=ORIENTED_EDGE('',*,*,#326,.F.);
#454=ORIENTED_EDGE('',*,*,#453,.T.);
#455=ORIENTED_EDGE('',*,*,#404,.T.);
#457=ORIENTED_EDGE('',*,*,#456,.F.);
#458=EDGE_LOOP('',(#452,#454,#455,#457));
#459=FACE_OUTER_BOUND('',#458,.F.);
#460=ADVANCED_FACE('',(#459),#451,.T.);
#461=CARTESIAN_POINT('',(2.25E2,6.E1,-4.E0));
#462=DIRECTION('',(0.E0,1.E0,0.E0));
#463=DIRECTION('',(-1.E0,0.E0,0.E0));
#464=AXIS2_PLACEMENT_3D('',#461,#462,#463);
#465=PLANE('',#464);
#466=ORIENTED_EDGE('',*,*,#334,.F.);
#468=ORIENTED_EDGE('',*,*,#467,.T.);
#469=ORIENTED_EDGE('',*,*,#406,.T.);
#470=ORIENTED_EDGE('',*,*,#453,.F.);
#471=EDGE_LOOP('',(#466,#468,#469,#470));
#472=FACE_OUTER_BOUND('',#471,.F.);
#473=ADVANCED_FACE('',(#472),#465,.T.);
#474=CARTESIAN_POINT('',(2.25E2,-6.E1,-4.E0));
#475=DIRECTION('',(1.E0,0.E0,0.E0));
#476=DIRECTION('',(0.E0,1.E0,0.E0));
#477=AXIS2_PLACEMENT_3D('',#474,#475,#476);
#478=PLANE('',#477);
#479=ORIENTED_EDGE('',*,*,#332,.F.);
#481=ORIENTED_EDGE('',*,*,#480,.T.);
#482=ORIENTED_EDGE('',*,*,#408,.T.);
#483=ORIENTED_EDGE('',*,*,#467,.F.);
#484=EDGE_LOOP('',(#479,#481,#482,#483));
#485=FACE_OUTER_BOUND('',#484,.F.);
#486=ADVANCED_FACE('',(#485),#478,.T.);
#487=CARTESIAN_POINT('',(-2.25E2,-6.E1,-4.E0));
#488=DIRECTION('',(0.E0,-1.E0,0.E0));
#489=DIRECTION('',(1.E0,0.E0,0.E0));
#490=AXIS2_PLACEMENT_3D('',#487,#488,#489);
#491=PLANE('',#490);
#492=ORIENTED_EDGE('',*,*,#330,.F.);
#494=ORIENTED_EDGE('',*,*,#493,.T.);
#495=ORIENTED_EDGE('',*,*,#410,.T.);
#496=ORIENTED_EDGE('',*,*,#480,.F.);
#497=EDGE_LOOP('',(#492,#494,#495,#496));
#498=FACE_OUTER_BOUND('',#497,.F.);
#499=ADVANCED_FACE('',(#498),#491,.T.);
#500=CARTESIAN_POINT('',(-2.25E2,2.E1,-4.E0));
#501=DIRECTION('',(-1.E0,0.E0,0.E0));
#502=DIRECTION('',(0.E0,-1.E0,0.E0));
#503=AXIS2_PLACEMENT_3D('',#500,#501,#502);
#504=PLANE('',#503);
#505=ORIENTED_EDGE('',*,*,#328,.F.);
#506=ORIENTED_EDGE('',*,*,#456,.T.);
#507=ORIENTED_EDGE('',*,*,#412,.T.);
#508=ORIENTED_EDGE('',*,*,#493,.F.);
#509=EDGE_LOOP('',(#505,#506,#507,#508));
#510=FACE_OUTER_BOUND('',#509,.F.);
#511=ADVANCED_FACE('',(#510),#504,.T.);
#512=CARTESIAN_POINT('',(-1.2193E2,-1.9E1,-4.E0));
#513=DIRECTION('',(0.E0,-1.E0,0.E0));
#514=DIRECTION('',(1.E0,0.E0,0.E0));
#515=AXIS2_PLACEMENT_3D('',#512,#513,#514);
#516=PLANE('',#515);
#517=ORIENTED_EDGE('',*,*,#344,.T.);
#519=ORIENTED_EDGE('',*,*,#518,.T.);
#520=ORIENTED_EDGE('',*,*,#420,.F.);
#522=ORIENTED_EDGE('',*,*,#521,.F.);
#523=EDGE_LOOP('',(#517,#519,#520,#522));
#524=FACE_OUTER_BOUND('',#523,.F.);
#525=ADVANCED_FACE('',(#524),#516,.F.);
#526=CARTESIAN_POINT('',(-1.021E2,-1.5E1,-4.E0));
#527=DIRECTION('',(0.E0,0.E0,1.E0));
#528=DIRECTION('',(1.E0,0.E0,0.E0));
#529=AXIS2_PLACEMENT_3D('',#526,#527,#528);
#530=CYLINDRICAL_SURFACE('',#529,4.E0);
#531=ORIENTED_EDGE('',*,*,#366,.T.);
#533=ORIENTED_EDGE('',*,*,#532,.T.);
#534=ORIENTED_EDGE('',*,*,#422,.F.);
#535=ORIENTED_EDGE('',*,*,#518,.F.);
#536=EDGE_LOOP('',(#531,#533,#534,#535));
#537=FACE_OUTER_BOUND('',#536,.F.);
#538=ADVANCED_FACE('',(#537),#530,.F.);
#539=CARTESIAN_POINT('',(-1.021E2,-1.1E1,-4.E0));
#540=DIRECTION('',(0.E0,1.E0,0.E0));
#541=DIRECTION('',(-1.E0,0.E0,0.E0));
#542=AXIS2_PLACEMENT_3D('',#539,#540,#541);
#543=PLANE('',#542);
#544=ORIENTED_EDGE('',*,*,#364,.T.);
#546=ORIENTED_EDGE('',*,*,#545,.T.);
#547=ORIENTED_EDGE('',*,*,#424,.F.);
#548=ORIENTED_EDGE('',*,*,#532,.F.);
#549=EDGE_LOOP('',(#544,#546,#547,#548));
#550=FACE_OUTER_BOUND('',#549,.F.);
#551=ADVANCED_FACE('',(#550),#543,.F.);
#552=CARTESIAN_POINT('',(-1.381E2,-1.5E1,-4.E0));
#553=DIRECTION('',(0.E0,0.E0,1.E0));
#554=DIRECTION('',(1.E0,0.E0,0.E0));
#555=AXIS2_PLACEMENT_3D('',#552,#553,#554);
#556=CYLINDRICAL_SURFACE('',#555,2.6E1);
#557=ORIENTED_EDGE('',*,*,#346,.T.);
#558=ORIENTED_EDGE('',*,*,#521,.T.);
#559=ORIENTED_EDGE('',*,*,#442,.F.);
#561=ORIENTED_EDGE('',*,*,#560,.F.);
#562=EDGE_LOOP('',(#557,#558,#559,#561));
#563=FACE_OUTER_BOUND('',#562,.F.);
#564=ADVANCED_FACE('',(#563),#556,.F.);
#565=CARTESIAN_POINT('',(-1.381E2,-1.5E1,-4.E0));
#566=DIRECTION('',(0.E0,0.E0,1.E0));
#567=DIRECTION('',(1.E0,0.E0,0.E0));
#568=AXIS2_PLACEMENT_3D('',#565,#566,#567);
#569=CYLINDRICAL_SURFACE('',#568,2.6E1);
#570=ORIENTED_EDGE('',*,*,#362,.T.);
#572=ORIENTED_EDGE('',*,*,#571,.T.);
#573=ORIENTED_EDGE('',*,*,#426,.F.);
#574=ORIENTED_EDGE('',*,*,#545,.F.);
#575=EDGE_LOOP('',(#570,#572,#573,#574));
#576=FACE_OUTER_BOUND('',#575,.F.);
#577=ADVANCED_FACE('',(#576),#569,.F.);
#578=CARTESIAN_POINT('',(-1.461E2,-4.1E1,-4.E0));
#579=DIRECTION('',(0.E0,-1.E0,0.E0));
#580=DIRECTION('',(1.E0,0.E0,0.E0));
#581=AXIS2_PLACEMENT_3D('',#578,#579,#580);
#582=PLANE('',#581);
#583=ORIENTED_EDGE('',*,*,#348,.F.);
#584=ORIENTED_EDGE('',*,*,#560,.T.);
#585=ORIENTED_EDGE('',*,*,#440,.F.);
#587=ORIENTED_EDGE('',*,*,#586,.F.);
#588=EDGE_LOOP('',(#583,#584,#585,#587));
#589=FACE_OUTER_BOUND('',#588,.F.);
#590=ADVANCED_FACE('',(#589),#582,.F.);
#591=CARTESIAN_POINT('',(-1.461E2,-1.5E1,-4.E0));
#592=DIRECTION('',(0.E0,0.E0,1.E0));
#593=DIRECTION('',(1.E0,0.E0,0.E0));
#594=AXIS2_PLACEMENT_3D('',#591,#592,#593);
#595=CYLINDRICAL_SURFACE('',#594,2.6E1);
#596=ORIENTED_EDGE('',*,*,#358,.T.);
#598=ORIENTED_EDGE('',*,*,#597,.T.);
#599=ORIENTED_EDGE('',*,*,#430,.F.);
#601=ORIENTED_EDGE('',*,*,#600,.F.);
#602=EDGE_LOOP('',(#596,#598,#599,#601));
#603=FACE_OUTER_BOUND('',#602,.F.);
#604=ADVANCED_FACE('',(#603),#595,.F.);
#605=CARTESIAN_POINT('',(-1.461E2,-1.5E1,-4.E0));
#606=DIRECTION('',(0.E0,0.E0,1.E0));
#607=DIRECTION('',(1.E0,0.E0,0.E0));
#608=AXIS2_PLACEMENT_3D('',#605,#606,#607);
#609=CYLINDRICAL_SURFACE('',#608,2.6E1);
#610=ORIENTED_EDGE('',*,*,#350,.T.);
#611=ORIENTED_EDGE('',*,*,#586,.T.);
#612=ORIENTED_EDGE('',*,*,#438,.F.);
#614=ORIENTED_EDGE('',*,*,#613,.F.);
#615=EDGE_LOOP('',(#610,#611,#612,#614));
#616=FACE_OUTER_BOUND('',#615,.F.);
#617=ADVANCED_FACE('',(#616),#609,.F.);
#618=CARTESIAN_POINT('',(-1.6227E2,-1.1E1,-4.E0));
#619=DIRECTION('',(0.E0,1.E0,0.E0));
#620=DIRECTION('',(-1.E0,0.E0,0.E0));
#621=AXIS2_PLACEMENT_3D('',#618,#619,#620);
#622=PLANE('',#621);
#623=ORIENTED_EDGE('',*,*,#356,.T.);
#625=ORIENTED_EDGE('',*,*,#624,.T.);
#626=ORIENTED_EDGE('',*,*,#432,.F.);
#627=ORIENTED_EDGE('',*,*,#597,.F.);
#628=EDGE_LOOP('',(#623,#625,#626,#627));
#629=FACE_OUTER_BOUND('',#628,.F.);
#630=ADVANCED_FACE('',(#629),#622,.F.);
#631=CARTESIAN_POINT('',(-1.821E2,-1.5E1,-4.E0));
#632=DIRECTION('',(0.E0,0.E0,1.E0));
#633=DIRECTION('',(1.E0,0.E0,0.E0));
#634=AXIS2_PLACEMENT_3D('',#631,#632,#633);
#635=CYLINDRICAL_SURFACE('',#634,4.E0);
#636=ORIENTED_EDGE('',*,*,#354,.T.);
#638=ORIENTED_EDGE('',*,*,#637,.T.);
#639=ORIENTED_EDGE('',*,*,#434,.F.);
#640=ORIENTED_EDGE('',*,*,#624,.F.);
#641=EDGE_LOOP('',(#636,#638,#639,#640));
#642=FACE_OUTER_BOUND('',#641,.F.);
#643=ADVANCED_FACE('',(#642),#635,.F.);
#644=CARTESIAN_POINT('',(-1.821E2,-1.9E1,-4.E0));
#645=DIRECTION('',(0.E0,-1.E0,0.E0));
#646=DIRECTION('',(1.E0,0.E0,0.E0));
#647=AXIS2_PLACEMENT_3D('',#644,#645,#646);
#648=PLANE('',#647);
#649=ORIENTED_EDGE('',*,*,#352,.T.);
#650=ORIENTED_EDGE('',*,*,#613,.T.);
#651=ORIENTED_EDGE('',*,*,#436,.F.);
#652=ORIENTED_EDGE('',*,*,#637,.F.);
#653=EDGE_LOOP('',(#649,#650,#651,#652));
#654=FACE_OUTER_BOUND('',#653,.F.);
#655=ADVANCED_FACE('',(#654),#648,.F.);
#656=CARTESIAN_POINT('',(-1.381E2,1.1E1,-4.E0));
#657=DIRECTION('',(0.E0,1.E0,0.E0));
#658=DIRECTION('',(-1.E0,0.E0,0.E0));
#659=AXIS2_PLACEMENT_3D('',#656,#657,#658);
#660=PLANE('',#659);
#661=ORIENTED_EDGE('',*,*,#360,.F.);
#662=ORIENTED_EDGE('',*,*,#600,.T.);
#663=ORIENTED_EDGE('',*,*,#428,.F.);
#664=ORIENTED_EDGE('',*,*,#571,.F.);
#665=EDGE_LOOP('',(#661,#662,#663,#664));
#666=FACE_OUTER_BOUND('',#665,.F.);
#667=ADVANCED_FACE('',(#666),#660,.F.);
#668=CLOSED_SHELL('',(#370,#385,#398,#446,#460,#473,#486,#499,#511,#525,#538,
#551,#564,#577,#590,#604,#617,#630,#643,#655,#667));
#669=MANIFOLD_SOLID_BREP('',#668);
#670=(LENGTH_UNIT()NAMED_UNIT(*)SI_UNIT(.MILLI.,.METRE.));
#671=DIMENSIONAL_EXPONENTS(0.E0,0.E0,0.E0,0.E0,0.E0,0.E0,0.E0);
#672=(NAMED_UNIT(*)PLANE_ANGLE_UNIT()SI_UNIT($,.RADIAN.));
#673=PLANE_ANGLE_MEASURE_WITH_UNIT(PLANE_ANGLE_MEASURE(1.745329251994E-2),#672);
#674=(CONVERSION_BASED_UNIT('DEGREE',#673)NAMED_UNIT(#671)PLANE_ANGLE_UNIT());
#675=(NAMED_UNIT(*)SI_UNIT($,.STERADIAN.)SOLID_ANGLE_UNIT());
#676=UNCERTAINTY_MEASURE_WITH_UNIT(LENGTH_MEASURE(4.689417942900E-2),#670,
'closure',
'Maximum model space distance between geometric entities at asserted connectivities');
#677=(GEOMETRIC_REPRESENTATION_CONTEXT(3)GLOBAL_UNCERTAINTY_ASSIGNED_CONTEXT((
#676))GLOBAL_UNIT_ASSIGNED_CONTEXT((#670,#674,#675))REPRESENTATION_CONTEXT
('ID1','3'));
#679=APPLICATION_CONTEXT(
'CONFIGURATION CONTROLLED 3D DESIGNS OF MECHANICAL PARTS AND ASSEMBLIES');
#680=APPLICATION_PROTOCOL_DEFINITION('international standard',
'config_control_design',1994,#679);
#681=DESIGN_CONTEXT('',#679,'design');
#682=MECHANICAL_CONTEXT('',#679,'mechanical');
#683=PRODUCT('PLAQUE_PATRICK','PLAQUE_PATRICK','NOT SPECIFIED',(#682));
#684=PRODUCT_DEFINITION_FORMATION_WITH_SPECIFIED_SOURCE('5','LAST_VERSION',#683,
.MADE.);
#688=PRODUCT_CATEGORY('part','');
#689=PRODUCT_RELATED_PRODUCT_CATEGORY('detail','',(#683));
#690=PRODUCT_CATEGORY_RELATIONSHIP('','',#688,#689);
#691=SECURITY_CLASSIFICATION_LEVEL('unclassified');
#692=SECURITY_CLASSIFICATION('','',#691);
#693=CC_DESIGN_SECURITY_CLASSIFICATION(#692,(#684));
#694=APPROVAL_STATUS('approved');
#695=APPROVAL(#694,'');
#696=CC_DESIGN_APPROVAL(#695,(#692,#684,#685));
#697=CALENDAR_DATE(121,24,1);
#698=COORDINATED_UNIVERSAL_TIME_OFFSET(1,0,.AHEAD.);
#699=LOCAL_TIME(17,28,1.E1,#698);
#700=DATE_AND_TIME(#697,#699);
#701=APPROVAL_DATE_TIME(#700,#695);
#702=DATE_TIME_ROLE('creation_date');
#703=CC_DESIGN_DATE_AND_TIME_ASSIGNMENT(#700,#702,(#685));
#704=DATE_TIME_ROLE('classification_date');
#705=CC_DESIGN_DATE_AND_TIME_ASSIGNMENT(#700,#704,(#692));
#706=PERSON('UNSPECIFIED','UNSPECIFIED',$,$,$,$);
#707=ORGANIZATION('UNSPECIFIED','UNSPECIFIED','UNSPECIFIED');
#708=PERSON_AND_ORGANIZATION(#706,#707);
#709=APPROVAL_ROLE('approver');
#710=APPROVAL_PERSON_ORGANIZATION(#708,#695,#709);
#711=PERSON_AND_ORGANIZATION_ROLE('creator');
#712=CC_DESIGN_PERSON_AND_ORGANIZATION_ASSIGNMENT(#708,#711,(#684,#685));
#713=PERSON_AND_ORGANIZATION_ROLE('design_supplier');
#714=CC_DESIGN_PERSON_AND_ORGANIZATION_ASSIGNMENT(#708,#713,(#684));
#715=PERSON_AND_ORGANIZATION_ROLE('classification_officer');
#716=CC_DESIGN_PERSON_AND_ORGANIZATION_ASSIGNMENT(#708,#715,(#692));
#717=PERSON_AND_ORGANIZATION_ROLE('design_owner');
#718=CC_DESIGN_PERSON_AND_ORGANIZATION_ASSIGNMENT(#708,#717,(#683));
#5=CIRCLE('',#4,2.6E1);
#10=CIRCLE('',#9,2.6E1);
#39=CIRCLE('',#38,2.6E1);
#48=CIRCLE('',#47,2.6E1);
#57=CIRCLE('',#56,4.E0);
#66=CIRCLE('',#65,2.6E1);
#75=CIRCLE('',#74,2.6E1);
#84=CIRCLE('',#83,4.E0);
#97=CIRCLE('',#96,2.6E1);
#102=CIRCLE('',#101,2.6E1);
#131=CIRCLE('',#130,4.E0);
#140=CIRCLE('',#139,2.6E1);
#149=CIRCLE('',#148,2.6E1);
#158=CIRCLE('',#157,4.E0);
#167=CIRCLE('',#166,2.6E1);
#176=CIRCLE('',#175,2.6E1);
#326=EDGE_CURVE('',#258,#251,#14,.T.);
#328=EDGE_CURVE('',#251,#252,#18,.T.);
#330=EDGE_CURVE('',#252,#254,#22,.T.);
#332=EDGE_CURVE('',#254,#256,#26,.T.);
#334=EDGE_CURVE('',#256,#258,#30,.T.);
#338=EDGE_CURVE('',#247,#248,#5,.T.);
#340=EDGE_CURVE('',#248,#247,#10,.T.);
#344=EDGE_CURVE('',#275,#276,#34,.T.);
#346=EDGE_CURVE('',#311,#275,#39,.T.);
#348=EDGE_CURVE('',#311,#312,#43,.T.);
#350=EDGE_CURVE('',#288,#312,#48,.T.);
#352=EDGE_CURVE('',#286,#288,#52,.T.);
#354=EDGE_CURVE('',#284,#286,#57,.T.);
#356=EDGE_CURVE('',#283,#284,#61,.T.);
#358=EDGE_CURVE('',#307,#283,#66,.T.);
#360=EDGE_CURVE('',#307,#308,#70,.T.);
#362=EDGE_CURVE('',#280,#308,#75,.T.);
#364=EDGE_CURVE('',#278,#280,#79,.T.);
#366=EDGE_CURVE('',#276,#278,#84,.T.);
#377=EDGE_CURVE('',#247,#261,#88,.T.);
#379=EDGE_CURVE('',#261,#262,#97,.T.);
#381=EDGE_CURVE('',#248,#262,#92,.T.);
#393=EDGE_CURVE('',#262,#261,#102,.T.);
#404=EDGE_CURVE('',#272,#265,#106,.T.);
#406=EDGE_CURVE('',#270,#272,#110,.T.);
#408=EDGE_CURVE('',#268,#270,#114,.T.);
#410=EDGE_CURVE('',#266,#268,#118,.T.);
#412=EDGE_CURVE('',#265,#266,#122,.T.);
#420=EDGE_CURVE('',#291,#292,#126,.T.);
#422=EDGE_CURVE('',#292,#294,#131,.T.);
#424=EDGE_CURVE('',#294,#296,#135,.T.);
#426=EDGE_CURVE('',#296,#315,#140,.T.);
#428=EDGE_CURVE('',#315,#316,#144,.T.);
#430=EDGE_CURVE('',#316,#299,#149,.T.);
#432=EDGE_CURVE('',#299,#300,#153,.T.);
#434=EDGE_CURVE('',#300,#302,#158,.T.);
#436=EDGE_CURVE('',#302,#304,#162,.T.);
#438=EDGE_CURVE('',#304,#319,#167,.T.);
#440=EDGE_CURVE('',#319,#320,#171,.T.);
#442=EDGE_CURVE('',#320,#291,#176,.T.);
#453=EDGE_CURVE('',#258,#272,#180,.T.);
#456=EDGE_CURVE('',#251,#265,#196,.T.);
#467=EDGE_CURVE('',#256,#270,#184,.T.);
#480=EDGE_CURVE('',#254,#268,#188,.T.);
#493=EDGE_CURVE('',#252,#266,#192,.T.);
#518=EDGE_CURVE('',#276,#292,#200,.T.);
#521=EDGE_CURVE('',#275,#291,#208,.T.);
#532=EDGE_CURVE('',#278,#294,#204,.T.);
#545=EDGE_CURVE('',#280,#296,#216,.T.);
#560=EDGE_CURVE('',#311,#320,#212,.T.);
#571=EDGE_CURVE('',#308,#315,#244,.T.);
#586=EDGE_CURVE('',#312,#319,#220,.T.);
#597=EDGE_CURVE('',#283,#299,#224,.T.);
#600=EDGE_CURVE('',#307,#316,#228,.T.);
#613=EDGE_CURVE('',#288,#304,#232,.T.);
#624=EDGE_CURVE('',#284,#300,#236,.T.);
#637=EDGE_CURVE('',#286,#302,#240,.T.);
#678=ADVANCED_BREP_SHAPE_REPRESENTATION('',(#669),#677);
#685=PRODUCT_DEFINITION('design','',#684,#681);
#686=PRODUCT_DEFINITION_SHAPE('','SHAPE FOR PLAQUE_PATRICK.',#685);
#687=SHAPE_DEFINITION_REPRESENTATION(#686,#678);
ENDSEC;
END-ISO-10303-21;
