ISO-10303-21;
HEADER;
FILE_DESCRIPTION(('CATIA V5 STEP','CAx-IF Rec.Pracs.--- Model Styling and Organization---1.2---2011-12-15'),'2;1');

FILE_NAME('C:\\Users\\xfe\\Documents\\Perso\\Auto\\Options\\CB7_Jantes\\01-Bleu\\CAO\\Part6_Alu.stp','2021-01-04T09:03:19+00:00',('none'),('none'),'CATIA Version 5-6 Release 2015 SP4','CATIA V5 STEP AP214 Edition 3','none');

FILE_SCHEMA(('AUTOMOTIVE_DESIGN { 1 0 10303 214 3 1 1 1 }'));

ENDSEC;
DATA;
#5=PRODUCT('Part6_Alu','','',(#2)) ;
#2=PRODUCT_CONTEXT(' ',#1,'mechanical') ;
#1=APPLICATION_CONTEXT('automotive design') ;
#10=PRODUCT_DEFINITION('',' ',#6,#3) ;
#3=PRODUCT_DEFINITION_CONTEXT('part definition',#1,' ') ;
#11=PRODUCT_DEFINITION_SHAPE(' ',' ',#10) ;
#246=MECHANICAL_DESIGN_GEOMETRIC_PRESENTATION_REPRESENTATION(' ',(#29),#16) ;
#19=SHAPE_REPRESENTATION(' ',(#18),#16) ;
#18=AXIS2_PLACEMENT_3D(' ',#17,$,$) ;
#34=AXIS2_PLACEMENT_3D('Cylinder Axis2P3D',#31,#32,#33) ;
#47=AXIS2_PLACEMENT_3D('Circle Axis2P3D',#45,#46,$) ;
#61=AXIS2_PLACEMENT_3D('Circle Axis2P3D',#59,#60,$) ;
#74=AXIS2_PLACEMENT_3D('Plane Axis2P3D',#71,#72,#73) ;
#105=AXIS2_PLACEMENT_3D('Plane Axis2P3D',#102,#103,#104) ;
#136=AXIS2_PLACEMENT_3D('Plane Axis2P3D',#133,#134,#135) ;
#158=AXIS2_PLACEMENT_3D('Cylinder Axis2P3D',#155,#156,#157) ;
#162=AXIS2_PLACEMENT_3D('Circle Axis2P3D',#160,#161,$) ;
#178=AXIS2_PLACEMENT_3D('Circle Axis2P3D',#176,#177,$) ;
#197=AXIS2_PLACEMENT_3D('Circle Axis2P3D',#195,#196,$) ;
#202=AXIS2_PLACEMENT_3D('Circle Axis2P3D',#200,#201,$) ;
#215=AXIS2_PLACEMENT_3D('Plane Axis2P3D',#212,#213,#214) ;
#231=AXIS2_PLACEMENT_3D('Plane Axis2P3D',#228,#229,#230) ;
#17=CARTESIAN_POINT(' ',(0.,0.,0.)) ;
#31=CARTESIAN_POINT('Axis2P3D Location',(0.,0.,1.5)) ;
#36=CARTESIAN_POINT('Line Origine',(80.8455317256,5.,1.5)) ;
#40=CARTESIAN_POINT('Vertex',(80.8455317256,5.,0.)) ;
#42=CARTESIAN_POINT('Vertex',(80.8455317256,5.,3.)) ;
#45=CARTESIAN_POINT('Axis2P3D Location',(0.,0.,0.)) ;
#49=CARTESIAN_POINT('Vertex',(80.8455317256,-5.,0.)) ;
#52=CARTESIAN_POINT('Line Origine',(80.8455317256,-5.,1.5)) ;
#56=CARTESIAN_POINT('Vertex',(80.8455317256,-5.,3.)) ;
#59=CARTESIAN_POINT('Axis2P3D Location',(0.,0.,3.)) ;
#71=CARTESIAN_POINT('Axis2P3D Location',(79.8455317256,-5.,0.)) ;
#76=CARTESIAN_POINT('Line Origine',(80.3455317256,-5.,0.)) ;
#80=CARTESIAN_POINT('Vertex',(79.8455317256,-5.,0.)) ;
#83=CARTESIAN_POINT('Line Origine',(79.8455317256,-5.,1.5)) ;
#87=CARTESIAN_POINT('Vertex',(79.8455317256,-5.,3.)) ;
#90=CARTESIAN_POINT('Line Origine',(80.3455317256,-5.,3.)) ;
#102=CARTESIAN_POINT('Axis2P3D Location',(79.8455317256,5.,0.)) ;
#107=CARTESIAN_POINT('Line Origine',(79.8455317256,0.,0.)) ;
#111=CARTESIAN_POINT('Vertex',(79.8455317256,5.,0.)) ;
#114=CARTESIAN_POINT('Line Origine',(79.8455317256,5.,1.5)) ;
#118=CARTESIAN_POINT('Vertex',(79.8455317256,5.,3.)) ;
#121=CARTESIAN_POINT('Line Origine',(79.8455317256,0.,3.)) ;
#133=CARTESIAN_POINT('Axis2P3D Location',(80.8455317256,5.,0.)) ;
#138=CARTESIAN_POINT('Line Origine',(80.3455317256,5.,0.)) ;
#143=CARTESIAN_POINT('Line Origine',(80.3455317256,5.,3.)) ;
#155=CARTESIAN_POINT('Axis2P3D Location',(0.,0.,1.5)) ;
#160=CARTESIAN_POINT('Axis2P3D Location',(0.,0.,3.)) ;
#164=CARTESIAN_POINT('Vertex',(-56.,6.85802207523E-015,3.)) ;
#166=CARTESIAN_POINT('Vertex',(56.,0.,3.)) ;
#169=CARTESIAN_POINT('Line Origine',(56.,-1.37160441505E-014,1.5)) ;
#173=CARTESIAN_POINT('Vertex',(56.,0.,0.)) ;
#176=CARTESIAN_POINT('Axis2P3D Location',(0.,0.,0.)) ;
#180=CARTESIAN_POINT('Vertex',(-56.,6.85802207523E-015,0.)) ;
#183=CARTESIAN_POINT('Line Origine',(-56.,6.85802207523E-015,1.5)) ;
#195=CARTESIAN_POINT('Axis2P3D Location',(0.,0.,3.)) ;
#200=CARTESIAN_POINT('Axis2P3D Location',(0.,0.,0.)) ;
#212=CARTESIAN_POINT('Axis2P3D Location',(0.,0.,0.)) ;
#228=CARTESIAN_POINT('Axis2P3D Location',(0.,0.,3.)) ;
#32=DIRECTION('Axis2P3D Direction',(0.,0.,1.)) ;
#33=DIRECTION('Axis2P3D XDirection',(0.998092984267,0.0617283950617,0.)) ;
#37=DIRECTION('Vector Direction',(0.,0.,1.)) ;
#46=DIRECTION('Axis2P3D Direction',(0.,0.,1.)) ;
#53=DIRECTION('Vector Direction',(0.,0.,1.)) ;
#60=DIRECTION('Axis2P3D Direction',(0.,0.,1.)) ;
#72=DIRECTION('Axis2P3D Direction',(0.,-1.,0.)) ;
#73=DIRECTION('Axis2P3D XDirection',(1.,0.,0.)) ;
#77=DIRECTION('Vector Direction',(1.,0.,0.)) ;
#84=DIRECTION('Vector Direction',(0.,0.,1.)) ;
#91=DIRECTION('Vector Direction',(1.,0.,0.)) ;
#103=DIRECTION('Axis2P3D Direction',(-1.,0.,0.)) ;
#104=DIRECTION('Axis2P3D XDirection',(0.,-1.,0.)) ;
#108=DIRECTION('Vector Direction',(0.,-1.,0.)) ;
#115=DIRECTION('Vector Direction',(0.,0.,1.)) ;
#122=DIRECTION('Vector Direction',(0.,-1.,0.)) ;
#134=DIRECTION('Axis2P3D Direction',(0.,1.,-0.)) ;
#135=DIRECTION('Axis2P3D XDirection',(-1.,0.,0.)) ;
#139=DIRECTION('Vector Direction',(-1.,0.,0.)) ;
#144=DIRECTION('Vector Direction',(-1.,0.,0.)) ;
#156=DIRECTION('Axis2P3D Direction',(0.,0.,1.)) ;
#157=DIRECTION('Axis2P3D XDirection',(1.,0.,0.)) ;
#161=DIRECTION('Axis2P3D Direction',(0.,0.,1.)) ;
#170=DIRECTION('Vector Direction',(0.,0.,1.)) ;
#177=DIRECTION('Axis2P3D Direction',(0.,0.,1.)) ;
#184=DIRECTION('Vector Direction',(0.,0.,1.)) ;
#196=DIRECTION('Axis2P3D Direction',(0.,0.,1.)) ;
#201=DIRECTION('Axis2P3D Direction',(0.,0.,1.)) ;
#213=DIRECTION('Axis2P3D Direction',(0.,0.,1.)) ;
#214=DIRECTION('Axis2P3D XDirection',(1.,0.,0.)) ;
#229=DIRECTION('Axis2P3D Direction',(0.,0.,1.)) ;
#230=DIRECTION('Axis2P3D XDirection',(1.,0.,0.)) ;
#8=PRODUCT_RELATED_PRODUCT_CATEGORY('part',$,(#5)) ;
#7=PRODUCT_CATEGORY('part','specification') ;
#29=STYLED_ITEM(' ',(#28),#21) ;
#28=PRESENTATION_STYLE_ASSIGNMENT((#27)) ;
#27=SURFACE_STYLE_USAGE(.BOTH.,#26) ;
#26=SURFACE_SIDE_STYLE(' ',(#25)) ;
#25=SURFACE_STYLE_FILL_AREA(#24) ;
#24=FILL_AREA_STYLE(' ',(#23)) ;
#23=FILL_AREA_STYLE_COLOUR(' ',#22) ;
#38=VECTOR('Line Direction',#37,1.) ;
#54=VECTOR('Line Direction',#53,1.) ;
#78=VECTOR('Line Direction',#77,1.) ;
#85=VECTOR('Line Direction',#84,1.) ;
#92=VECTOR('Line Direction',#91,1.) ;
#109=VECTOR('Line Direction',#108,1.) ;
#116=VECTOR('Line Direction',#115,1.) ;
#123=VECTOR('Line Direction',#122,1.) ;
#140=VECTOR('Line Direction',#139,1.) ;
#145=VECTOR('Line Direction',#144,1.) ;
#171=VECTOR('Line Direction',#170,1.) ;
#185=VECTOR('Line Direction',#184,1.) ;
#15=UNCERTAINTY_MEASURE_WITH_UNIT(LENGTH_MEASURE(0.005),#12,'distance_accuracy_value','CONFUSED CURVE UNCERTAINTY') ;
#245=SHAPE_REPRESENTATION_RELATIONSHIP(' ',' ',#19,#244) ;
#65=ORIENTED_EDGE('',*,*,#44,.F.) ;
#66=ORIENTED_EDGE('',*,*,#51,.T.) ;
#67=ORIENTED_EDGE('',*,*,#58,.T.) ;
#68=ORIENTED_EDGE('',*,*,#63,.F.) ;
#96=ORIENTED_EDGE('',*,*,#58,.F.) ;
#97=ORIENTED_EDGE('',*,*,#82,.T.) ;
#98=ORIENTED_EDGE('',*,*,#89,.T.) ;
#99=ORIENTED_EDGE('',*,*,#94,.F.) ;
#127=ORIENTED_EDGE('',*,*,#89,.F.) ;
#128=ORIENTED_EDGE('',*,*,#113,.T.) ;
#129=ORIENTED_EDGE('',*,*,#120,.T.) ;
#130=ORIENTED_EDGE('',*,*,#125,.F.) ;
#149=ORIENTED_EDGE('',*,*,#120,.F.) ;
#150=ORIENTED_EDGE('',*,*,#142,.T.) ;
#151=ORIENTED_EDGE('',*,*,#44,.T.) ;
#152=ORIENTED_EDGE('',*,*,#147,.F.) ;
#189=ORIENTED_EDGE('',*,*,#168,.T.) ;
#190=ORIENTED_EDGE('',*,*,#175,.F.) ;
#191=ORIENTED_EDGE('',*,*,#182,.F.) ;
#192=ORIENTED_EDGE('',*,*,#187,.T.) ;
#206=ORIENTED_EDGE('',*,*,#199,.T.) ;
#207=ORIENTED_EDGE('',*,*,#187,.F.) ;
#208=ORIENTED_EDGE('',*,*,#204,.F.) ;
#209=ORIENTED_EDGE('',*,*,#175,.T.) ;
#218=ORIENTED_EDGE('',*,*,#142,.F.) ;
#219=ORIENTED_EDGE('',*,*,#113,.F.) ;
#220=ORIENTED_EDGE('',*,*,#82,.F.) ;
#221=ORIENTED_EDGE('',*,*,#51,.F.) ;
#224=ORIENTED_EDGE('',*,*,#204,.T.) ;
#225=ORIENTED_EDGE('',*,*,#182,.T.) ;
#234=ORIENTED_EDGE('',*,*,#63,.T.) ;
#235=ORIENTED_EDGE('',*,*,#94,.T.) ;
#236=ORIENTED_EDGE('',*,*,#125,.T.) ;
#237=ORIENTED_EDGE('',*,*,#147,.T.) ;
#240=ORIENTED_EDGE('',*,*,#168,.F.) ;
#241=ORIENTED_EDGE('',*,*,#199,.F.) ;
#226=FACE_BOUND('',#223,.T.) ;
#242=FACE_BOUND('',#239,.T.) ;
#30=CLOSED_SHELL('Closed Shell',(#70,#101,#132,#154,#194,#211,#227,#243)) ;
#244=ADVANCED_BREP_SHAPE_REPRESENTATION('NONE',(#21),#16) ;
#70=ADVANCED_FACE('Corps principal',(#69),#35,.T.) ;
#101=ADVANCED_FACE('Corps principal',(#100),#75,.F.) ;
#132=ADVANCED_FACE('Corps principal',(#131),#106,.F.) ;
#154=ADVANCED_FACE('Corps principal',(#153),#137,.F.) ;
#194=ADVANCED_FACE('Corps principal',(#193),#159,.F.) ;
#211=ADVANCED_FACE('Corps principal',(#210),#159,.F.) ;
#227=ADVANCED_FACE('Corps principal',(#222,#226),#216,.F.) ;
#243=ADVANCED_FACE('Corps principal',(#238,#242),#232,.T.) ;
#4=APPLICATION_PROTOCOL_DEFINITION('international standard','automotive_design',2010,#1) ;
#21=MANIFOLD_SOLID_BREP('Corps principal',#30) ;
#48=CIRCLE('generated circle',#47,81.) ;
#62=CIRCLE('generated circle',#61,81.) ;
#163=CIRCLE('generated circle',#162,56.) ;
#179=CIRCLE('generated circle',#178,56.) ;
#198=CIRCLE('generated circle',#197,56.) ;
#203=CIRCLE('generated circle',#202,56.) ;
#35=CYLINDRICAL_SURFACE('generated cylinder',#34,81.) ;
#159=CYLINDRICAL_SURFACE('generated cylinder',#158,56.) ;
#22=DRAUGHTING_PRE_DEFINED_COLOUR('green') ;
#44=EDGE_CURVE('',#41,#43,#39,.T.) ;
#51=EDGE_CURVE('',#41,#50,#48,.T.) ;
#58=EDGE_CURVE('',#50,#57,#55,.T.) ;
#63=EDGE_CURVE('',#43,#57,#62,.T.) ;
#82=EDGE_CURVE('',#50,#81,#79,.F.) ;
#89=EDGE_CURVE('',#81,#88,#86,.T.) ;
#94=EDGE_CURVE('',#57,#88,#93,.F.) ;
#113=EDGE_CURVE('',#81,#112,#110,.F.) ;
#120=EDGE_CURVE('',#112,#119,#117,.T.) ;
#125=EDGE_CURVE('',#88,#119,#124,.F.) ;
#142=EDGE_CURVE('',#112,#41,#141,.F.) ;
#147=EDGE_CURVE('',#119,#43,#146,.F.) ;
#168=EDGE_CURVE('',#165,#167,#163,.T.) ;
#175=EDGE_CURVE('',#174,#167,#172,.T.) ;
#182=EDGE_CURVE('',#181,#174,#179,.T.) ;
#187=EDGE_CURVE('',#181,#165,#186,.T.) ;
#199=EDGE_CURVE('',#167,#165,#198,.T.) ;
#204=EDGE_CURVE('',#174,#181,#203,.T.) ;
#64=EDGE_LOOP('',(#65,#66,#67,#68)) ;
#95=EDGE_LOOP('',(#96,#97,#98,#99)) ;
#126=EDGE_LOOP('',(#127,#128,#129,#130)) ;
#148=EDGE_LOOP('',(#149,#150,#151,#152)) ;
#188=EDGE_LOOP('',(#189,#190,#191,#192)) ;
#205=EDGE_LOOP('',(#206,#207,#208,#209)) ;
#217=EDGE_LOOP('',(#218,#219,#220,#221)) ;
#223=EDGE_LOOP('',(#224,#225)) ;
#233=EDGE_LOOP('',(#234,#235,#236,#237)) ;
#239=EDGE_LOOP('',(#240,#241)) ;
#69=FACE_OUTER_BOUND('',#64,.T.) ;
#100=FACE_OUTER_BOUND('',#95,.T.) ;
#131=FACE_OUTER_BOUND('',#126,.T.) ;
#153=FACE_OUTER_BOUND('',#148,.T.) ;
#193=FACE_OUTER_BOUND('',#188,.T.) ;
#210=FACE_OUTER_BOUND('',#205,.T.) ;
#222=FACE_OUTER_BOUND('',#217,.T.) ;
#238=FACE_OUTER_BOUND('',#233,.T.) ;
#39=LINE('Line',#36,#38) ;
#55=LINE('Line',#52,#54) ;
#79=LINE('Line',#76,#78) ;
#86=LINE('Line',#83,#85) ;
#93=LINE('Line',#90,#92) ;
#110=LINE('Line',#107,#109) ;
#117=LINE('Line',#114,#116) ;
#124=LINE('Line',#121,#123) ;
#141=LINE('Line',#138,#140) ;
#146=LINE('Line',#143,#145) ;
#172=LINE('Line',#169,#171) ;
#186=LINE('Line',#183,#185) ;
#75=PLANE('',#74) ;
#106=PLANE('',#105) ;
#137=PLANE('',#136) ;
#216=PLANE('',#215) ;
#232=PLANE('',#231) ;
#9=PRODUCT_CATEGORY_RELATIONSHIP(' ',' ',#7,#8) ;
#6=PRODUCT_DEFINITION_FORMATION_WITH_SPECIFIED_SOURCE('',' ',#5,.NOT_KNOWN.) ;
#20=SHAPE_DEFINITION_REPRESENTATION(#11,#19) ;
#41=VERTEX_POINT('',#40) ;
#43=VERTEX_POINT('',#42) ;
#50=VERTEX_POINT('',#49) ;
#57=VERTEX_POINT('',#56) ;
#81=VERTEX_POINT('',#80) ;
#88=VERTEX_POINT('',#87) ;
#112=VERTEX_POINT('',#111) ;
#119=VERTEX_POINT('',#118) ;
#165=VERTEX_POINT('',#164) ;
#167=VERTEX_POINT('',#166) ;
#174=VERTEX_POINT('',#173) ;
#181=VERTEX_POINT('',#180) ;
#12=(LENGTH_UNIT()NAMED_UNIT(*)SI_UNIT(.MILLI.,.METRE.)) ;
#13=(NAMED_UNIT(*)PLANE_ANGLE_UNIT()SI_UNIT($,.RADIAN.)) ;
#14=(NAMED_UNIT(*)SI_UNIT($,.STERADIAN.)SOLID_ANGLE_UNIT()) ;
#16=(GEOMETRIC_REPRESENTATION_CONTEXT(3)GLOBAL_UNCERTAINTY_ASSIGNED_CONTEXT((#15))GLOBAL_UNIT_ASSIGNED_CONTEXT((#12,#13,#14))REPRESENTATION_CONTEXT(' ',' ')) ;
ENDSEC;
END-ISO-10303-21;
