ISO-10303-21;
HEADER;
/* Generated by software containing ST-Developer
 * from STEP Tools, Inc. (www.steptools.com) 
 */

FILE_DESCRIPTION(
/* description */ ('Alibre Inc.'),
/* implementation_level */ '2;1');

FILE_NAME(
/* name */ 'export0',
/* time_stamp */ '2021-01-15T09:16:51+01:00',
/* author */ (''),
/* organization */ (''),
/* preprocessor_version */ 'ST-DEVELOPER v14',
/* originating_system */ 'Alibre',
/* authorisation */ '');

FILE_SCHEMA (('CONFIG_CONTROL_DESIGN'));
ENDSEC;

DATA;
#10=MECHANICAL_CONTEXT('detailed design',#18,'mechanical');
#11=PRODUCT_RELATED_PRODUCT_CATEGORY('d\X\E9tail','',(#98));
#12=CC_DESIGN_SECURITY_CLASSIFICATION(#14,(#97));
#13=SECURITY_CLASSIFICATION_LEVEL('unclassified');
#14=SECURITY_CLASSIFICATION('nom','Niveau de s\X\E9curit\X\E9 pour la v
ersion',#13);
#15=SHAPE_DEFINITION_REPRESENTATION(#16,#427);
#16=PRODUCT_DEFINITION_SHAPE('','Desc. D\X\E9finition',#96);
#17=APPLICATION_PROTOCOL_DEFINITION('AP definition status',
'config_control_design',1994,#18);
#18=APPLICATION_CONTEXT(
'control the configuration of three dimensional design');
#19=DESIGN_CONTEXT('detailed design',#18,'design');
#20=PERSON_AND_ORGANIZATION_ROLE('creator');
#21=PERSON_AND_ORGANIZATION_ROLE('classification_officer');
#22=PERSON_AND_ORGANIZATION_ROLE('creator');
#23=PERSON_AND_ORGANIZATION_ROLE('design_supplier');
#24=PERSON_AND_ORGANIZATION_ROLE('design_owner');
#25=CC_DESIGN_PERSON_AND_ORGANIZATION_ASSIGNMENT(#57,#20,(#96));
#26=CC_DESIGN_PERSON_AND_ORGANIZATION_ASSIGNMENT(#60,#21,(#14));
#27=CC_DESIGN_PERSON_AND_ORGANIZATION_ASSIGNMENT(#61,#22,(#97));
#28=CC_DESIGN_PERSON_AND_ORGANIZATION_ASSIGNMENT(#62,#23,(#97));
#29=CC_DESIGN_PERSON_AND_ORGANIZATION_ASSIGNMENT(#63,#24,(#98));
#30=DATE_TIME_ROLE('creation_date');
#31=DATE_TIME_ROLE('classification_date');
#32=CC_DESIGN_DATE_AND_TIME_ASSIGNMENT(#86,#30,(#96));
#33=CC_DESIGN_DATE_AND_TIME_ASSIGNMENT(#89,#31,(#14));
#34=CC_DESIGN_APPROVAL(#93,(#96));
#35=CC_DESIGN_APPROVAL(#94,(#97));
#36=CC_DESIGN_APPROVAL(#95,(#14));
#37=APPROVAL_PERSON_ORGANIZATION(#56,#93,#64);
#38=APPROVAL_PERSON_ORGANIZATION(#58,#94,#65);
#39=APPROVAL_PERSON_ORGANIZATION(#59,#95,#66);
#40=ORGANIZATION('DEFINITION_APPROVEDBY_ORG_ID',
'DEFINITION_APPROVEDBY_ORG_NAME','DEFINITION_APPROVEDBY_ORG_DESCR');
#41=ORGANIZATION('DEF_CREATOR_ORG_ID','DEF_CREATOR_ORG_NAME',
'DEF_CREATOR_ORG_DESCR');
#42=ORGANIZATION('ID_ORG_APPROBATEUR','NOM_ORG_APPROBATEUR',
'DESCR_ORG_APPROBATEUR');
#43=ORGANIZATION('SECURITY_APPROVEDBY_ORG_ID',
'SECURITY_APPROVEDBY_ORG_NAME','SECURITY_APPROVEDBY_ORG_DESCR');
#44=ORGANIZATION('CLASSOFFICER_ORG_ID','CLASSOFFICER_ORG_NAME',
'CLASSOFFICER_ORG_DESCR');
#45=ORGANIZATION('CODE_SOCIETE_CREATEUR','NOM_SOCIETE_CREATEUR',
'DESCRIPTION_SOCIETE_CREATEUR');
#46=ORGANIZATION('SUPPLIER_ORG_ID','SUPPLIER_ORG_NAME',
'SUPPLIER_ORG_DESCR');
#47=ORGANIZATION('PROPRIETAIRE_SOCIETE_ID','PROPRIETAIRE_SOCIETE_NOM',
'PROPRIETAIRE_SOCIETE_DESCRIPTION');
#48=PERSON('ID_Validateur D\X\E9finition',
'DEFINITION_APPROVEDBY_LASTNAME','DEFINITION_APPROVEDBY_FIRSTNAME',$,$,$);
#49=PERSON('DEF_createrID','DEF_CREATOR_LASTNAME',
'DEF_CREATOR_FIRSTNAME',$,$,$);
#50=PERSON('ID Validateur','NOM_APPROBATEUR','PRENOM_APPROBATEUR',$,$,$);
#51=PERSON('SECURITY_approverID','SECURITY_LASTNAME',
'SECURITY_APPROVEDBY_FIRSTNAME',$,$,$);
#52=PERSON('classifierID','CLASSOFFICER_LASTNAME',
'CLASSOFFICER_FIRSTNAME',$,$,$);
#53=PERSON('Code cr\X\E9ateur','NOM_CREATEUR','PRENOM_CREATEUR',$,$,$);
#54=PERSON('Code fournisseur','SUPPLIER_LASTNAME','SUPPLIER_FIRSTNAME',$,
$,$);
#55=PERSON('ID propri\X\E9taire','PROPRIETAIRE_NOM',
'PROPRIETAIRE_PRENOM',$,$,$);
#56=PERSON_AND_ORGANIZATION(#48,#40);
#57=PERSON_AND_ORGANIZATION(#49,#41);
#58=PERSON_AND_ORGANIZATION(#50,#42);
#59=PERSON_AND_ORGANIZATION(#51,#43);
#60=PERSON_AND_ORGANIZATION(#52,#44);
#61=PERSON_AND_ORGANIZATION(#53,#45);
#62=PERSON_AND_ORGANIZATION(#54,#46);
#63=PERSON_AND_ORGANIZATION(#55,#47);
#64=APPROVAL_ROLE('definition_approval');
#65=APPROVAL_ROLE('version_approval');
#66=APPROVAL_ROLE('security_approval');
#67=APPROVAL_DATE_TIME(#85,#93);
#68=APPROVAL_DATE_TIME(#87,#94);
#69=APPROVAL_DATE_TIME(#88,#95);
#70=COORDINATED_UNIVERSAL_TIME_OFFSET(1,0,.AHEAD.);
#71=COORDINATED_UNIVERSAL_TIME_OFFSET(1,0,.AHEAD.);
#72=COORDINATED_UNIVERSAL_TIME_OFFSET(1,0,.AHEAD.);
#73=COORDINATED_UNIVERSAL_TIME_OFFSET(1,0,.AHEAD.);
#74=COORDINATED_UNIVERSAL_TIME_OFFSET(1,0,.AHEAD.);
#75=LOCAL_TIME(15,27,45.,#70);
#76=LOCAL_TIME(15,27,45.,#71);
#77=LOCAL_TIME(15,27,45.,#72);
#78=LOCAL_TIME(15,27,45.,#73);
#79=LOCAL_TIME(15,27,45.,#74);
#80=CALENDAR_DATE(2021,12,1);
#81=CALENDAR_DATE(2021,12,1);
#82=CALENDAR_DATE(2021,12,1);
#83=CALENDAR_DATE(2021,12,1);
#84=CALENDAR_DATE(2021,12,1);
#85=DATE_AND_TIME(#80,#75);
#86=DATE_AND_TIME(#81,#76);
#87=DATE_AND_TIME(#82,#77);
#88=DATE_AND_TIME(#83,#78);
#89=DATE_AND_TIME(#84,#79);
#90=APPROVAL_STATUS('not_yet_approved');
#91=APPROVAL_STATUS('not_yet_approved');
#92=APPROVAL_STATUS('not_yet_approved');
#93=APPROVAL(#90,'Concept valid\X\E9');
#94=APPROVAL(#91,'version approuv\X\E9e');
#95=APPROVAL(#92,'security approval');
#96=PRODUCT_DEFINITION('ID D\X\E9finition','Desc. D\X\E9finition',#97,#19);
#97=PRODUCT_DEFINITION_FORMATION_WITH_SPECIFIED_SOURCE(
'REFERENCE_PRODUIT','DESCR_VERSION_PRODUIT',#98,.NOT_KNOWN.);
#98=PRODUCT('ID_1','CYLINDRE LAITON','',(#10));
#99=(
LENGTH_UNIT()
NAMED_UNIT(*)
SI_UNIT(.CENTI.,.METRE.)
);
#100=(
NAMED_UNIT(*)
PLANE_ANGLE_UNIT()
SI_UNIT($,.RADIAN.)
);
#101=(
NAMED_UNIT(*)
SI_UNIT($,.STERADIAN.)
SOLID_ANGLE_UNIT()
);
#102=UNCERTAINTY_MEASURE_WITH_UNIT(LENGTH_MEASURE(1.E-006),#99,
'DISTANCE_ACCURACY_VALUE',
'Maximum model space distance between geometric entities at asserted co
nnectivities');
#103=(
GEOMETRIC_REPRESENTATION_CONTEXT(3)
GLOBAL_UNCERTAINTY_ASSIGNED_CONTEXT((#102))
GLOBAL_UNIT_ASSIGNED_CONTEXT((#101,#100,#99))
REPRESENTATION_CONTEXT('ID1','3D')
);
#104=CONICAL_SURFACE('',#221,0.5,0.785398163397448);
#105=B_SPLINE_CURVE_WITH_KNOTS('',3,(#264,#265,#266,#267,#268,#269,#270,
#271,#272,#273,#274,#275,#276,#277,#278,#279,#280,#281,#282,#283,#284,#285,
#286,#287,#288,#289,#290,#291,#292,#293,#294,#295,#296,#297),
 .UNSPECIFIED.,.T.,.U.,(4,2,2,2,2,2,2,2,2,2,2,2,2,2,2,2,4),(0.,0.108689756939137,
0.217379513878275,0.326064049629542,0.43474858538081,0.543433121132078,0.652117656883346,
0.760807413822483,0.86949717076162,0.947359909712469,1.02522264866332,1.10281693231385,
1.18041121596439,1.25800549961492,1.33559978326545,1.4134625222163,1.49132526116715),
 .UNSPECIFIED.);
#106=B_SPLINE_CURVE_WITH_KNOTS('',3,(#300,#301,#302,#303,#304,#305,#306,
#307,#308,#309,#310,#311,#312,#313,#314,#315,#316,#317,#318,#319,#320,#321,
#322,#323,#324,#325,#326,#327,#328,#329,#330,#331,#332,#333),
 .UNSPECIFIED.,.T.,.U.,(4,2,2,2,2,2,2,2,2,2,2,2,2,2,2,2,4),(0.,0.108689756939137,
0.217379513878275,0.326064049629542,0.43474858538081,0.543433121132078,0.652117656883346,
0.760807413822483,0.86949717076162,0.947359909712469,1.02522264866332,1.10281693231385,
1.18041121596439,1.25800549961492,1.33559978326545,1.4134625222163,1.49132526116715),
 .UNSPECIFIED.);
#107=B_SPLINE_CURVE_WITH_KNOTS('',3,(#338,#339,#340,#341,#342,#343,#344,
#345,#346,#347,#348,#349,#350,#351,#352,#353,#354,#355,#356,#357,#358,#359,
#360,#361,#362,#363,#364,#365,#366,#367,#368,#369,#370,#371),
 .UNSPECIFIED.,.T.,.U.,(4,2,2,2,2,2,2,2,2,2,2,2,2,2,2,2,4),(0.,0.108689756939137,
0.217379513878275,0.326064049629542,0.43474858538081,0.543433121132078,0.652117656883346,
0.760807413822483,0.86949717076162,0.947359909712469,1.02522264866332,1.10281693231385,
1.18041121596439,1.25800549961492,1.33559978326545,1.4134625222163,1.49132526116715),
 .UNSPECIFIED.);
#108=B_SPLINE_CURVE_WITH_KNOTS('',3,(#374,#375,#376,#377,#378,#379,#380,
#381,#382,#383,#384,#385,#386,#387,#388,#389,#390,#391,#392,#393,#394,#395,
#396,#397,#398,#399,#400,#401,#402,#403,#404,#405,#406,#407),
 .UNSPECIFIED.,.T.,.U.,(4,2,2,2,2,2,2,2,2,2,2,2,2,2,2,2,4),(0.,0.108689756939137,
0.217379513878275,0.326064049629542,0.43474858538081,0.543433121132078,0.652117656883346,
0.760807413822483,0.86949717076162,0.947359909712469,1.02522264866332,1.10281693231385,
1.18041121596439,1.25800549961492,1.33559978326545,1.4134625222163,1.49132526116715),
 .UNSPECIFIED.);
#109=PLANE('',#214);
#110=PLANE('',#217);
#111=PLANE('',#220);
#112=PLANE('',#226);
#113=PLANE('',#227);
#114=VERTEX_POINT('',#259);
#115=VERTEX_POINT('',#261);
#116=VERTEX_POINT('',#298);
#117=VERTEX_POINT('',#299);
#118=VERTEX_POINT('',#335);
#119=VERTEX_POINT('',#372);
#120=VERTEX_POINT('',#373);
#121=VERTEX_POINT('',#409);
#122=VERTEX_POINT('',#413);
#123=VERTEX_POINT('',#415);
#124=VERTEX_POINT('',#418);
#125=CIRCLE('',#212,0.33235);
#126=CIRCLE('',#213,0.33235);
#127=CIRCLE('',#216,0.24585);
#128=CIRCLE('',#219,0.24585);
#129=CIRCLE('',#222,0.5);
#130=CIRCLE('',#223,0.9);
#131=CIRCLE('',#225,0.9);
#132=EDGE_CURVE('',#114,#114,#125,.T.);
#133=EDGE_CURVE('',#115,#115,#126,.T.);
#134=EDGE_CURVE('',#116,#117,#105,.T.);
#135=EDGE_CURVE('',#117,#116,#106,.T.);
#136=EDGE_CURVE('',#118,#118,#127,.T.);
#137=EDGE_CURVE('',#119,#120,#107,.T.);
#138=EDGE_CURVE('',#120,#119,#108,.T.);
#139=EDGE_CURVE('',#121,#121,#128,.T.);
#140=EDGE_CURVE('',#122,#122,#129,.T.);
#141=EDGE_CURVE('',#123,#123,#130,.T.);
#142=EDGE_CURVE('',#124,#124,#131,.T.);
#143=ORIENTED_EDGE('',*,*,#132,.F.);
#144=ORIENTED_EDGE('',*,*,#133,.F.);
#145=ORIENTED_EDGE('',*,*,#132,.T.);
#146=ORIENTED_EDGE('',*,*,#134,.F.);
#147=ORIENTED_EDGE('',*,*,#135,.F.);
#148=ORIENTED_EDGE('',*,*,#136,.F.);
#149=ORIENTED_EDGE('',*,*,#136,.T.);
#150=ORIENTED_EDGE('',*,*,#137,.F.);
#151=ORIENTED_EDGE('',*,*,#138,.F.);
#152=ORIENTED_EDGE('',*,*,#139,.F.);
#153=ORIENTED_EDGE('',*,*,#139,.T.);
#154=ORIENTED_EDGE('',*,*,#134,.T.);
#155=ORIENTED_EDGE('',*,*,#135,.T.);
#156=ORIENTED_EDGE('',*,*,#137,.T.);
#157=ORIENTED_EDGE('',*,*,#138,.T.);
#158=ORIENTED_EDGE('',*,*,#140,.T.);
#159=ORIENTED_EDGE('',*,*,#141,.T.);
#160=ORIENTED_EDGE('',*,*,#142,.T.);
#161=ORIENTED_EDGE('',*,*,#141,.F.);
#162=ORIENTED_EDGE('',*,*,#140,.F.);
#163=ORIENTED_EDGE('',*,*,#133,.T.);
#164=ORIENTED_EDGE('',*,*,#142,.F.);
#165=EDGE_LOOP('',(#143));
#166=EDGE_LOOP('',(#144));
#167=EDGE_LOOP('',(#145));
#168=EDGE_LOOP('',(#146,#147));
#169=EDGE_LOOP('',(#148));
#170=EDGE_LOOP('',(#149));
#171=EDGE_LOOP('',(#150,#151));
#172=EDGE_LOOP('',(#152));
#173=EDGE_LOOP('',(#153));
#174=EDGE_LOOP('',(#154,#155));
#175=EDGE_LOOP('',(#156,#157));
#176=EDGE_LOOP('',(#158));
#177=EDGE_LOOP('',(#159));
#178=EDGE_LOOP('',(#160));
#179=EDGE_LOOP('',(#161));
#180=EDGE_LOOP('',(#162));
#181=EDGE_LOOP('',(#163));
#182=EDGE_LOOP('',(#164));
#183=FACE_BOUND('',#165,.T.);
#184=FACE_BOUND('',#166,.T.);
#185=FACE_BOUND('',#167,.T.);
#186=FACE_BOUND('',#168,.T.);
#187=FACE_BOUND('',#169,.T.);
#188=FACE_BOUND('',#170,.T.);
#189=FACE_BOUND('',#171,.T.);
#190=FACE_BOUND('',#172,.T.);
#191=FACE_BOUND('',#173,.T.);
#192=FACE_BOUND('',#174,.T.);
#193=FACE_BOUND('',#175,.T.);
#194=FACE_BOUND('',#176,.T.);
#195=FACE_BOUND('',#177,.T.);
#196=FACE_BOUND('',#178,.T.);
#197=FACE_BOUND('',#179,.T.);
#198=FACE_BOUND('',#180,.T.);
#199=FACE_BOUND('',#181,.T.);
#200=FACE_BOUND('',#182,.T.);
#201=ADVANCED_FACE('',(#183,#184),#421,.F.);
#202=ADVANCED_FACE('',(#185),#109,.F.);
#203=ADVANCED_FACE('',(#186,#187),#422,.F.);
#204=ADVANCED_FACE('',(#188),#110,.F.);
#205=ADVANCED_FACE('',(#189,#190),#423,.F.);
#206=ADVANCED_FACE('',(#191),#111,.F.);
#207=ADVANCED_FACE('',(#192,#193,#194,#195),#104,.T.);
#208=ADVANCED_FACE('',(#196,#197),#424,.T.);
#209=ADVANCED_FACE('',(#198),#112,.T.);
#210=ADVANCED_FACE('',(#199,#200),#113,.F.);
#211=AXIS2_PLACEMENT_3D('',#257,#228,#229);
#212=AXIS2_PLACEMENT_3D('',#258,#230,#231);
#213=AXIS2_PLACEMENT_3D('',#260,#232,#233);
#214=AXIS2_PLACEMENT_3D('',#262,#234,$);
#215=AXIS2_PLACEMENT_3D('',#263,#235,#236);
#216=AXIS2_PLACEMENT_3D('',#334,#237,#238);
#217=AXIS2_PLACEMENT_3D('',#336,#239,$);
#218=AXIS2_PLACEMENT_3D('',#337,#240,#241);
#219=AXIS2_PLACEMENT_3D('',#408,#242,#243);
#220=AXIS2_PLACEMENT_3D('',#410,#244,$);
#221=AXIS2_PLACEMENT_3D('',#411,#245,#246);
#222=AXIS2_PLACEMENT_3D('',#412,#247,#248);
#223=AXIS2_PLACEMENT_3D('',#414,#249,#250);
#224=AXIS2_PLACEMENT_3D('',#416,#251,#252);
#225=AXIS2_PLACEMENT_3D('',#417,#253,#254);
#226=AXIS2_PLACEMENT_3D('',#419,#255,$);
#227=AXIS2_PLACEMENT_3D('',#420,#256,$);
#228=DIRECTION('',(0.,1.,0.));
#229=DIRECTION('',(0.,0.,0.33235));
#230=DIRECTION('',(0.,-1.,0.));
#231=DIRECTION('',(0.,0.,0.33235));
#232=DIRECTION('',(0.,1.,0.));
#233=DIRECTION('',(0.,0.,0.33235));
#234=DIRECTION('',(0.,1.,0.));
#235=DIRECTION('',(-0.707106781186547,-0.707106781186548,0.));
#236=DIRECTION('',(0.,0.,-0.24585));
#237=DIRECTION('',(0.707106781186547,0.707106781186548,0.));
#238=DIRECTION('',(0.,0.,-0.24585));
#239=DIRECTION('',(-0.707106781186547,-0.707106781186548,0.));
#240=DIRECTION('',(0.707106781186547,-0.707106781186548,0.));
#241=DIRECTION('',(0.,0.,0.24585));
#242=DIRECTION('',(-0.707106781186547,0.707106781186548,0.));
#243=DIRECTION('',(0.,0.,0.24585));
#244=DIRECTION('',(0.707106781186547,-0.707106781186548,0.));
#245=DIRECTION('',(0.,-1.,0.));
#246=DIRECTION('',(-0.5,0.,0.));
#247=DIRECTION('',(0.,-1.,0.));
#248=DIRECTION('',(-0.5,0.,0.));
#249=DIRECTION('',(0.,1.,0.));
#250=DIRECTION('',(-0.9,0.,0.));
#251=DIRECTION('',(0.,1.,0.));
#252=DIRECTION('',(0.9,0.,0.));
#253=DIRECTION('',(0.,1.,0.));
#254=DIRECTION('',(0.9,0.,0.));
#255=DIRECTION('',(0.,1.,0.));
#256=DIRECTION('',(0.,1.,0.));
#257=CARTESIAN_POINT('',(0.,0.,0.));
#258=CARTESIAN_POINT('',(0.,1.8,0.));
#259=CARTESIAN_POINT('',(0.,1.8,0.33235));
#260=CARTESIAN_POINT('',(0.,0.,0.));
#261=CARTESIAN_POINT('',(0.,0.,0.33235));
#262=CARTESIAN_POINT('',(0.,1.8,0.));
#263=CARTESIAN_POINT('',(0.700204570474029,2.79979540754554,0.));
#264=CARTESIAN_POINT('',(0.635463978396204,2.82137561955844,-0.238152434147891));
#265=CARTESIAN_POINT('',(0.659453072285887,2.79575719816604,-0.247142811725625));
#266=CARTESIAN_POINT('',(0.687776372140866,2.76892128893567,-0.248405059377392));
#267=CARTESIAN_POINT('',(0.744114349965829,2.72043696625292,-0.23297570583001));
#268=CARTESIAN_POINT('',(0.772041540532996,2.69868464642398,-0.216291466775064));
#269=CARTESIAN_POINT('',(0.818144392737222,2.66437034283957,-0.17216402077295));
#270=CARTESIAN_POINT('',(0.838857763724081,2.64990055940922,-0.142285130399908));
#271=CARTESIAN_POINT('',(0.866832305242061,2.63071087613799,-0.074321481228926));
#272=CARTESIAN_POINT('',(0.874046783618957,2.62595321638104,-0.036228178583756));
#273=CARTESIAN_POINT('',(0.874046783618957,2.62595321638104,0.0362281785837559));
#274=CARTESIAN_POINT('',(0.86683230524206,2.63071087613799,0.074321481228926));
#275=CARTESIAN_POINT('',(0.838857763724081,2.64990055940922,0.142285130399908));
#276=CARTESIAN_POINT('',(0.818144392737222,2.66437034283957,0.17216402077295));
#277=CARTESIAN_POINT('',(0.772041540532996,2.69868464642398,0.216291466775064));
#278=CARTESIAN_POINT('',(0.744114349965829,2.72043696625292,0.23297570583001));
#279=CARTESIAN_POINT('',(0.687776372140866,2.76892128893567,0.248405059377392));
#280=CARTESIAN_POINT('',(0.659453072285887,2.79575719816604,0.247142811725625));
#281=CARTESIAN_POINT('',(0.618278766028439,2.83972804312974,0.231711942954258));
#282=CARTESIAN_POINT('',(0.601419718682343,2.85948171239097,0.220570553738667));
#283=CARTESIAN_POINT('',(0.572956655608569,2.89639394425876,0.190142866086009));
#284=CARTESIAN_POINT('',(0.561306323083196,2.91352104271003,0.170861750305771));
#285=CARTESIAN_POINT('',(0.544112876405864,2.94077468210932,0.130280546865819));
#286=CARTESIAN_POINT('',(0.537213334785169,2.95303877120619,0.10583663415386));
#287=CARTESIAN_POINT('',(0.528372084642005,2.96950889257576,0.0536351524604283));
#288=CARTESIAN_POINT('',(0.526362379309532,2.97363762069047,0.0258647612168446));
#289=CARTESIAN_POINT('',(0.526362379309532,2.97363762069047,-0.0258647612168446));
#290=CARTESIAN_POINT('',(0.528372084642005,2.96950889257576,-0.0536351524604282));
#291=CARTESIAN_POINT('',(0.537213334785169,2.95303877120619,-0.10583663415386));
#292=CARTESIAN_POINT('',(0.544112876405864,2.94077468210932,-0.130280546865819));
#293=CARTESIAN_POINT('',(0.561306323083196,2.91352104271003,-0.170861750305771));
#294=CARTESIAN_POINT('',(0.572956655608569,2.89639394425876,-0.190142866086009));
#295=CARTESIAN_POINT('',(0.601419718682343,2.85948171239097,-0.220570553738667));
#296=CARTESIAN_POINT('',(0.618278766028439,2.83972804312974,-0.231711942954258));
#297=CARTESIAN_POINT('',(0.635463978396204,2.82137561955844,-0.238152434147891));
#298=CARTESIAN_POINT('',(0.874046772628742,2.62595320539083,-1.50539707785188E-017));
#299=CARTESIAN_POINT('',(0.526362368319316,2.97363760970025,4.51619123355565E-017));
#300=CARTESIAN_POINT('',(0.635463978396204,2.82137561955844,-0.238152434147891));
#301=CARTESIAN_POINT('',(0.659453072285887,2.79575719816604,-0.247142811725625));
#302=CARTESIAN_POINT('',(0.687776372140866,2.76892128893567,-0.248405059377392));
#303=CARTESIAN_POINT('',(0.744114349965829,2.72043696625292,-0.23297570583001));
#304=CARTESIAN_POINT('',(0.772041540532996,2.69868464642398,-0.216291466775064));
#305=CARTESIAN_POINT('',(0.818144392737222,2.66437034283957,-0.17216402077295));
#306=CARTESIAN_POINT('',(0.838857763724081,2.64990055940922,-0.142285130399908));
#307=CARTESIAN_POINT('',(0.866832305242061,2.63071087613799,-0.074321481228926));
#308=CARTESIAN_POINT('',(0.874046783618957,2.62595321638104,-0.036228178583756));
#309=CARTESIAN_POINT('',(0.874046783618957,2.62595321638104,0.0362281785837559));
#310=CARTESIAN_POINT('',(0.86683230524206,2.63071087613799,0.074321481228926));
#311=CARTESIAN_POINT('',(0.838857763724081,2.64990055940922,0.142285130399908));
#312=CARTESIAN_POINT('',(0.818144392737222,2.66437034283957,0.17216402077295));
#313=CARTESIAN_POINT('',(0.772041540532996,2.69868464642398,0.216291466775064));
#314=CARTESIAN_POINT('',(0.744114349965829,2.72043696625292,0.23297570583001));
#315=CARTESIAN_POINT('',(0.687776372140866,2.76892128893567,0.248405059377392));
#316=CARTESIAN_POINT('',(0.659453072285887,2.79575719816604,0.247142811725625));
#317=CARTESIAN_POINT('',(0.618278766028439,2.83972804312974,0.231711942954258));
#318=CARTESIAN_POINT('',(0.601419718682343,2.85948171239097,0.220570553738667));
#319=CARTESIAN_POINT('',(0.572956655608569,2.89639394425876,0.190142866086009));
#320=CARTESIAN_POINT('',(0.561306323083196,2.91352104271003,0.170861750305771));
#321=CARTESIAN_POINT('',(0.544112876405864,2.94077468210932,0.130280546865819));
#322=CARTESIAN_POINT('',(0.537213334785169,2.95303877120619,0.10583663415386));
#323=CARTESIAN_POINT('',(0.528372084642005,2.96950889257576,0.0536351524604283));
#324=CARTESIAN_POINT('',(0.526362379309532,2.97363762069047,0.0258647612168446));
#325=CARTESIAN_POINT('',(0.526362379309532,2.97363762069047,-0.0258647612168446));
#326=CARTESIAN_POINT('',(0.528372084642005,2.96950889257576,-0.0536351524604282));
#327=CARTESIAN_POINT('',(0.537213334785169,2.95303877120619,-0.10583663415386));
#328=CARTESIAN_POINT('',(0.544112876405864,2.94077468210932,-0.130280546865819));
#329=CARTESIAN_POINT('',(0.561306323083196,2.91352104271003,-0.170861750305771));
#330=CARTESIAN_POINT('',(0.572956655608569,2.89639394425876,-0.190142866086009));
#331=CARTESIAN_POINT('',(0.601419718682343,2.85948171239097,-0.220570553738667));
#332=CARTESIAN_POINT('',(0.618278766028439,2.83972804312974,-0.231711942954258));
#333=CARTESIAN_POINT('',(0.635463978396204,2.82137561955844,-0.238152434147891));
#334=CARTESIAN_POINT('',(0.275940501762101,2.37553133883361,0.));
#335=CARTESIAN_POINT('',(0.275940501762101,2.37553133883361,-0.24585));
#336=CARTESIAN_POINT('',(0.275940501762101,2.37553133883361,0.));
#337=CARTESIAN_POINT('',(-0.700204570474029,2.79979540754554,0.));
#338=CARTESIAN_POINT('',(-0.635463978396204,2.82137561955844,0.238152434147891));
#339=CARTESIAN_POINT('',(-0.659453072285887,2.79575719816604,0.247142811725625));
#340=CARTESIAN_POINT('',(-0.687776372140866,2.76892128893567,0.248405059377392));
#341=CARTESIAN_POINT('',(-0.744114349965829,2.72043696625292,0.23297570583001));
#342=CARTESIAN_POINT('',(-0.772041540532996,2.69868464642398,0.216291466775064));
#343=CARTESIAN_POINT('',(-0.818144392737222,2.66437034283957,0.17216402077295));
#344=CARTESIAN_POINT('',(-0.838857763724081,2.64990055940922,0.142285130399908));
#345=CARTESIAN_POINT('',(-0.866832305242061,2.63071087613799,0.0743214812289258));
#346=CARTESIAN_POINT('',(-0.874046783618957,2.62595321638104,0.036228178583756));
#347=CARTESIAN_POINT('',(-0.874046783618957,2.62595321638104,-0.0362281785837559));
#348=CARTESIAN_POINT('',(-0.86683230524206,2.63071087613799,-0.0743214812289257));
#349=CARTESIAN_POINT('',(-0.838857763724081,2.64990055940922,-0.142285130399908));
#350=CARTESIAN_POINT('',(-0.818144392737222,2.66437034283957,-0.17216402077295));
#351=CARTESIAN_POINT('',(-0.772041540532996,2.69868464642398,-0.216291466775064));
#352=CARTESIAN_POINT('',(-0.744114349965829,2.72043696625292,-0.23297570583001));
#353=CARTESIAN_POINT('',(-0.687776372140866,2.76892128893567,-0.248405059377392));
#354=CARTESIAN_POINT('',(-0.659453072285887,2.79575719816604,-0.247142811725625));
#355=CARTESIAN_POINT('',(-0.618278766028439,2.83972804312974,-0.231711942954258));
#356=CARTESIAN_POINT('',(-0.601419718682343,2.85948171239097,-0.220570553738667));
#357=CARTESIAN_POINT('',(-0.572956655608569,2.89639394425876,-0.190142866086009));
#358=CARTESIAN_POINT('',(-0.561306323083196,2.91352104271003,-0.170861750305771));
#359=CARTESIAN_POINT('',(-0.544112876405864,2.94077468210932,-0.130280546865819));
#360=CARTESIAN_POINT('',(-0.537213334785169,2.95303877120619,-0.10583663415386));
#361=CARTESIAN_POINT('',(-0.528372084642005,2.96950889257576,-0.0536351524604281));
#362=CARTESIAN_POINT('',(-0.526362379309532,2.97363762069047,-0.0258647612168446));
#363=CARTESIAN_POINT('',(-0.526362379309532,2.97363762069047,0.0258647612168446));
#364=CARTESIAN_POINT('',(-0.528372084642005,2.96950889257576,0.0536351524604281));
#365=CARTESIAN_POINT('',(-0.537213334785169,2.95303877120619,0.10583663415386));
#366=CARTESIAN_POINT('',(-0.544112876405864,2.94077468210932,0.130280546865819));
#367=CARTESIAN_POINT('',(-0.561306323083196,2.91352104271003,0.170861750305771));
#368=CARTESIAN_POINT('',(-0.572956655608569,2.89639394425876,0.190142866086009));
#369=CARTESIAN_POINT('',(-0.601419718682343,2.85948171239097,0.220570553738667));
#370=CARTESIAN_POINT('',(-0.618278766028439,2.83972804312974,0.231711942954258));
#371=CARTESIAN_POINT('',(-0.635463978396204,2.82137561955844,0.238152434147891));
#372=CARTESIAN_POINT('',(-0.874046772628742,2.62595320539083,1.50539707785188E-017));
#373=CARTESIAN_POINT('',(-0.526362368319316,2.97363760970025,-4.51619123355565E-017));
#374=CARTESIAN_POINT('',(-0.635463978396204,2.82137561955844,0.238152434147891));
#375=CARTESIAN_POINT('',(-0.659453072285887,2.79575719816604,0.247142811725625));
#376=CARTESIAN_POINT('',(-0.687776372140866,2.76892128893567,0.248405059377392));
#377=CARTESIAN_POINT('',(-0.744114349965829,2.72043696625292,0.23297570583001));
#378=CARTESIAN_POINT('',(-0.772041540532996,2.69868464642398,0.216291466775064));
#379=CARTESIAN_POINT('',(-0.818144392737222,2.66437034283957,0.17216402077295));
#380=CARTESIAN_POINT('',(-0.838857763724081,2.64990055940922,0.142285130399908));
#381=CARTESIAN_POINT('',(-0.866832305242061,2.63071087613799,0.0743214812289258));
#382=CARTESIAN_POINT('',(-0.874046783618957,2.62595321638104,0.036228178583756));
#383=CARTESIAN_POINT('',(-0.874046783618957,2.62595321638104,-0.0362281785837559));
#384=CARTESIAN_POINT('',(-0.86683230524206,2.63071087613799,-0.0743214812289257));
#385=CARTESIAN_POINT('',(-0.838857763724081,2.64990055940922,-0.142285130399908));
#386=CARTESIAN_POINT('',(-0.818144392737222,2.66437034283957,-0.17216402077295));
#387=CARTESIAN_POINT('',(-0.772041540532996,2.69868464642398,-0.216291466775064));
#388=CARTESIAN_POINT('',(-0.744114349965829,2.72043696625292,-0.23297570583001));
#389=CARTESIAN_POINT('',(-0.687776372140866,2.76892128893567,-0.248405059377392));
#390=CARTESIAN_POINT('',(-0.659453072285887,2.79575719816604,-0.247142811725625));
#391=CARTESIAN_POINT('',(-0.618278766028439,2.83972804312974,-0.231711942954258));
#392=CARTESIAN_POINT('',(-0.601419718682343,2.85948171239097,-0.220570553738667));
#393=CARTESIAN_POINT('',(-0.572956655608569,2.89639394425876,-0.190142866086009));
#394=CARTESIAN_POINT('',(-0.561306323083196,2.91352104271003,-0.170861750305771));
#395=CARTESIAN_POINT('',(-0.544112876405864,2.94077468210932,-0.130280546865819));
#396=CARTESIAN_POINT('',(-0.537213334785169,2.95303877120619,-0.10583663415386));
#397=CARTESIAN_POINT('',(-0.528372084642005,2.96950889257576,-0.0536351524604281));
#398=CARTESIAN_POINT('',(-0.526362379309532,2.97363762069047,-0.0258647612168446));
#399=CARTESIAN_POINT('',(-0.526362379309532,2.97363762069047,0.0258647612168446));
#400=CARTESIAN_POINT('',(-0.528372084642005,2.96950889257576,0.0536351524604281));
#401=CARTESIAN_POINT('',(-0.537213334785169,2.95303877120619,0.10583663415386));
#402=CARTESIAN_POINT('',(-0.544112876405864,2.94077468210932,0.130280546865819));
#403=CARTESIAN_POINT('',(-0.561306323083196,2.91352104271003,0.170861750305771));
#404=CARTESIAN_POINT('',(-0.572956655608569,2.89639394425876,0.190142866086009));
#405=CARTESIAN_POINT('',(-0.601419718682343,2.85948171239097,0.220570553738667));
#406=CARTESIAN_POINT('',(-0.618278766028439,2.83972804312974,0.231711942954258));
#407=CARTESIAN_POINT('',(-0.635463978396204,2.82137561955844,0.238152434147891));
#408=CARTESIAN_POINT('',(-0.275940501762101,2.37553133883361,0.));
#409=CARTESIAN_POINT('',(-0.275940501762101,2.37553133883361,0.24585));
#410=CARTESIAN_POINT('',(-0.275940501762101,2.37553133883361,0.));
#411=CARTESIAN_POINT('',(0.,3.,0.));
#412=CARTESIAN_POINT('',(0.,3.,0.));
#413=CARTESIAN_POINT('',(0.5,3.,6.12323399573676E-017));
#414=CARTESIAN_POINT('',(0.,2.6,0.));
#415=CARTESIAN_POINT('',(0.9,2.6,-1.10218211923262E-016));
#416=CARTESIAN_POINT('',(0.,0.,0.));
#417=CARTESIAN_POINT('',(0.,0.,0.));
#418=CARTESIAN_POINT('',(0.9,0.,0.));
#419=CARTESIAN_POINT('',(0.,3.,0.));
#420=CARTESIAN_POINT('',(0.,0.,0.));
#421=CYLINDRICAL_SURFACE('',#211,0.33235);
#422=CYLINDRICAL_SURFACE('',#215,0.24585);
#423=CYLINDRICAL_SURFACE('',#218,0.24585);
#424=CYLINDRICAL_SURFACE('',#224,0.9);
#425=CLOSED_SHELL('',(#201,#202,#203,#204,#205,#206,#207,#208,#209,#210));
#426=MANIFOLD_SOLID_BREP('',#425);
#427=ADVANCED_BREP_SHAPE_REPRESENTATION('',(#426),#103);
ENDSEC;
END-ISO-10303-21;
