ISO-10303-21;
HEADER;
/* Generated by software containing ST-Developer
 * from STEP Tools, Inc. (www.steptools.com) 
 */
/* OPTION: using custom renumber hook */

FILE_DESCRIPTION(
/* description */ ('STEP AP214'),
/* implementation_level */ '2;1');

FILE_NAME(
/* name */ '5ff81100de9e0515a236992e',
/* time_stamp */ '2021-01-08T08:00:02+00:00',
/* author */ (''),
/* organization */ (''),
/* preprocessor_version */ 'ST-DEVELOPER v18.1',
/* originating_system */ '  ',
/* authorisation */ '  ');

FILE_SCHEMA (('AUTOMOTIVE_DESIGN {1 0 10303 214 3 1 1}'));
ENDSEC;

DATA;
#10=PROPERTY_DEFINITION_REPRESENTATION(#14,#12);
#11=PROPERTY_DEFINITION_REPRESENTATION(#15,#13);
#12=REPRESENTATION('',(#16),#369);
#13=REPRESENTATION('',(#17),#369);
#14=PROPERTY_DEFINITION('pmi validation property','',#374);
#15=PROPERTY_DEFINITION('pmi validation property','',#374);
#16=VALUE_REPRESENTATION_ITEM('number of annotations',COUNT_MEASURE(0.));
#17=VALUE_REPRESENTATION_ITEM('number of views',COUNT_MEASURE(0.));
#18=SHAPE_REPRESENTATION_RELATIONSHIP('','',#225,#19);
#19=ADVANCED_BREP_SHAPE_REPRESENTATION('',(#223),#369);
#20=B_SPLINE_CURVE_WITH_KNOTS('',3,(#341,#342,#343,#344),.UNSPECIFIED.,
 .F.,.F.,(4,4),(0.,1.),.UNSPECIFIED.);
#21=B_SPLINE_CURVE_WITH_KNOTS('',3,(#350,#351,#352,#353),.UNSPECIFIED.,
 .F.,.F.,(4,4),(0.,1.),.UNSPECIFIED.);
#22=PLANE('',#232);
#23=PLANE('',#233);
#24=PLANE('',#234);
#25=PLANE('',#235);
#26=PLANE('',#236);
#27=PLANE('',#237);
#28=PLANE('',#239);
#29=PLANE('',#241);
#30=PLANE('',#245);
#31=CIRCLE('',#228,0.0110000000000008);
#32=CIRCLE('',#229,0.0110000000000008);
#33=CIRCLE('',#230,0.011);
#34=CIRCLE('',#231,0.011);
#35=CIRCLE('',#238,0.004);
#36=CIRCLE('',#240,0.004);
#37=CIRCLE('',#242,0.009);
#38=CIRCLE('',#244,0.009);
#39=ORIENTED_EDGE('',*,*,#91,.T.);
#40=ORIENTED_EDGE('',*,*,#92,.T.);
#41=ORIENTED_EDGE('',*,*,#93,.F.);
#42=ORIENTED_EDGE('',*,*,#94,.F.);
#43=ORIENTED_EDGE('',*,*,#95,.T.);
#44=ORIENTED_EDGE('',*,*,#96,.F.);
#45=ORIENTED_EDGE('',*,*,#97,.F.);
#46=ORIENTED_EDGE('',*,*,#98,.T.);
#47=ORIENTED_EDGE('',*,*,#99,.T.);
#48=ORIENTED_EDGE('',*,*,#100,.F.);
#49=ORIENTED_EDGE('',*,*,#101,.F.);
#50=ORIENTED_EDGE('',*,*,#93,.T.);
#51=ORIENTED_EDGE('',*,*,#102,.T.);
#52=ORIENTED_EDGE('',*,*,#103,.F.);
#53=ORIENTED_EDGE('',*,*,#104,.F.);
#54=ORIENTED_EDGE('',*,*,#100,.T.);
#55=ORIENTED_EDGE('',*,*,#105,.F.);
#56=ORIENTED_EDGE('',*,*,#91,.F.);
#57=ORIENTED_EDGE('',*,*,#106,.T.);
#58=ORIENTED_EDGE('',*,*,#103,.T.);
#59=ORIENTED_EDGE('',*,*,#107,.F.);
#60=ORIENTED_EDGE('',*,*,#108,.F.);
#61=ORIENTED_EDGE('',*,*,#109,.F.);
#62=ORIENTED_EDGE('',*,*,#97,.T.);
#63=ORIENTED_EDGE('',*,*,#95,.F.);
#64=ORIENTED_EDGE('',*,*,#110,.T.);
#65=ORIENTED_EDGE('',*,*,#111,.T.);
#66=ORIENTED_EDGE('',*,*,#112,.T.);
#67=ORIENTED_EDGE('',*,*,#113,.F.);
#68=ORIENTED_EDGE('',*,*,#94,.T.);
#69=ORIENTED_EDGE('',*,*,#101,.T.);
#70=ORIENTED_EDGE('',*,*,#104,.T.);
#71=ORIENTED_EDGE('',*,*,#106,.F.);
#72=ORIENTED_EDGE('',*,*,#114,.T.);
#73=ORIENTED_EDGE('',*,*,#92,.F.);
#74=ORIENTED_EDGE('',*,*,#105,.T.);
#75=ORIENTED_EDGE('',*,*,#102,.F.);
#76=ORIENTED_EDGE('',*,*,#99,.F.);
#77=ORIENTED_EDGE('',*,*,#115,.F.);
#78=ORIENTED_EDGE('',*,*,#107,.T.);
#79=ORIENTED_EDGE('',*,*,#96,.T.);
#80=ORIENTED_EDGE('',*,*,#112,.F.);
#81=ORIENTED_EDGE('',*,*,#116,.F.);
#82=ORIENTED_EDGE('',*,*,#108,.T.);
#83=ORIENTED_EDGE('',*,*,#115,.T.);
#84=ORIENTED_EDGE('',*,*,#111,.F.);
#85=ORIENTED_EDGE('',*,*,#98,.F.);
#86=ORIENTED_EDGE('',*,*,#109,.T.);
#87=ORIENTED_EDGE('',*,*,#116,.T.);
#88=ORIENTED_EDGE('',*,*,#110,.F.);
#89=ORIENTED_EDGE('',*,*,#114,.F.);
#90=ORIENTED_EDGE('',*,*,#113,.T.);
#91=EDGE_CURVE('',#117,#118,#135,.T.);
#92=EDGE_CURVE('',#118,#119,#31,.T.);
#93=EDGE_CURVE('',#120,#119,#136,.T.);
#94=EDGE_CURVE('',#117,#120,#32,.T.);
#95=EDGE_CURVE('',#121,#122,#137,.T.);
#96=EDGE_CURVE('',#123,#122,#33,.T.);
#97=EDGE_CURVE('',#124,#123,#138,.F.);
#98=EDGE_CURVE('',#124,#121,#34,.T.);
#99=EDGE_CURVE('',#119,#125,#139,.T.);
#100=EDGE_CURVE('',#126,#125,#140,.T.);
#101=EDGE_CURVE('',#120,#126,#141,.T.);
#102=EDGE_CURVE('',#125,#127,#142,.T.);
#103=EDGE_CURVE('',#128,#127,#143,.T.);
#104=EDGE_CURVE('',#126,#128,#144,.T.);
#105=EDGE_CURVE('',#118,#127,#145,.T.);
#106=EDGE_CURVE('',#117,#128,#146,.T.);
#107=EDGE_CURVE('',#129,#123,#147,.T.);
#108=EDGE_CURVE('',#130,#129,#20,.T.);
#109=EDGE_CURVE('',#124,#130,#148,.T.);
#110=EDGE_CURVE('',#121,#131,#149,.T.);
#111=EDGE_CURVE('',#131,#132,#21,.T.);
#112=EDGE_CURVE('',#132,#122,#150,.F.);
#113=EDGE_CURVE('',#133,#133,#35,.T.);
#114=EDGE_CURVE('',#134,#134,#36,.T.);
#115=EDGE_CURVE('',#129,#132,#37,.T.);
#116=EDGE_CURVE('',#130,#131,#38,.T.);
#117=VERTEX_POINT('',#308);
#118=VERTEX_POINT('',#309);
#119=VERTEX_POINT('',#311);
#120=VERTEX_POINT('',#313);
#121=VERTEX_POINT('',#316);
#122=VERTEX_POINT('',#317);
#123=VERTEX_POINT('',#319);
#124=VERTEX_POINT('',#321);
#125=VERTEX_POINT('',#325);
#126=VERTEX_POINT('',#327);
#127=VERTEX_POINT('',#331);
#128=VERTEX_POINT('',#333);
#129=VERTEX_POINT('',#340);
#130=VERTEX_POINT('',#345);
#131=VERTEX_POINT('',#349);
#132=VERTEX_POINT('',#354);
#133=VERTEX_POINT('',#358);
#134=VERTEX_POINT('',#361);
#135=LINE('',#307,#151);
#136=LINE('',#312,#152);
#137=LINE('',#315,#153);
#138=LINE('',#320,#154);
#139=LINE('',#324,#155);
#140=LINE('',#326,#156);
#141=LINE('',#328,#157);
#142=LINE('',#330,#158);
#143=LINE('',#332,#159);
#144=LINE('',#334,#160);
#145=LINE('',#336,#161);
#146=LINE('',#337,#162);
#147=LINE('',#339,#163);
#148=LINE('',#346,#164);
#149=LINE('',#348,#165);
#150=LINE('',#355,#166);
#151=VECTOR('',#251,1.);
#152=VECTOR('',#254,1.);
#153=VECTOR('',#257,1.);
#154=VECTOR('',#260,1.);
#155=VECTOR('',#265,1.);
#156=VECTOR('',#266,1.);
#157=VECTOR('',#267,1.);
#158=VECTOR('',#270,1.);
#159=VECTOR('',#271,1.);
#160=VECTOR('',#272,1.);
#161=VECTOR('',#275,1.);
#162=VECTOR('',#276,1.);
#163=VECTOR('',#279,1.);
#164=VECTOR('',#280,1.);
#165=VECTOR('',#283,1.);
#166=VECTOR('',#284,1.);
#167=EDGE_LOOP('',(#39,#40,#41,#42));
#168=EDGE_LOOP('',(#43,#44,#45,#46));
#169=EDGE_LOOP('',(#47,#48,#49,#50));
#170=EDGE_LOOP('',(#51,#52,#53,#54));
#171=EDGE_LOOP('',(#55,#56,#57,#58));
#172=EDGE_LOOP('',(#59,#60,#61,#62));
#173=EDGE_LOOP('',(#63,#64,#65,#66));
#174=EDGE_LOOP('',(#67));
#175=EDGE_LOOP('',(#68,#69,#70,#71));
#176=EDGE_LOOP('',(#72));
#177=EDGE_LOOP('',(#73,#74,#75,#76));
#178=EDGE_LOOP('',(#77,#78,#79,#80));
#179=EDGE_LOOP('',(#81,#82,#83,#84));
#180=EDGE_LOOP('',(#85,#86,#87,#88));
#181=EDGE_LOOP('',(#89));
#182=EDGE_LOOP('',(#90));
#183=FACE_BOUND('',#167,.T.);
#184=FACE_BOUND('',#168,.T.);
#185=FACE_BOUND('',#169,.T.);
#186=FACE_BOUND('',#170,.T.);
#187=FACE_BOUND('',#171,.T.);
#188=FACE_BOUND('',#172,.T.);
#189=FACE_BOUND('',#173,.T.);
#190=FACE_BOUND('',#174,.T.);
#191=FACE_BOUND('',#175,.T.);
#192=FACE_BOUND('',#176,.T.);
#193=FACE_BOUND('',#177,.T.);
#194=FACE_BOUND('',#178,.T.);
#195=FACE_BOUND('',#179,.T.);
#196=FACE_BOUND('',#180,.T.);
#197=FACE_BOUND('',#181,.T.);
#198=FACE_BOUND('',#182,.T.);
#199=CYLINDRICAL_SURFACE('',#227,0.0110000000000008);
#200=CYLINDRICAL_SURFACE('',#243,0.009);
#201=CYLINDRICAL_SURFACE('',#246,0.004);
#202=ADVANCED_FACE('',(#183,#184),#199,.T.);
#203=ADVANCED_FACE('',(#185),#22,.F.);
#204=ADVANCED_FACE('',(#186),#23,.F.);
#205=ADVANCED_FACE('',(#187),#24,.T.);
#206=ADVANCED_FACE('',(#188),#25,.T.);
#207=ADVANCED_FACE('',(#189),#26,.F.);
#208=ADVANCED_FACE('',(#190,#191),#27,.T.);
#209=ADVANCED_FACE('',(#192,#193),#28,.F.);
#210=ADVANCED_FACE('',(#194),#29,.T.);
#211=ADVANCED_FACE('',(#195),#200,.T.);
#212=ADVANCED_FACE('',(#196),#30,.T.);
#213=ADVANCED_FACE('',(#197,#198),#201,.F.);
#214=CLOSED_SHELL('',(#202,#203,#204,#205,#206,#207,#208,#209,#210,#211,
#212,#213));
#215=STYLED_ITEM('',(#216),#223);
#216=PRESENTATION_STYLE_ASSIGNMENT((#217));
#217=SURFACE_STYLE_USAGE(.BOTH.,#218);
#218=SURFACE_SIDE_STYLE('',(#219));
#219=SURFACE_STYLE_FILL_AREA(#220);
#220=FILL_AREA_STYLE('',(#221));
#221=FILL_AREA_STYLE_COLOUR('',#222);
#222=COLOUR_RGB('',0.615686274509804,0.811764705882353,0.929411764705882);
#223=MANIFOLD_SOLID_BREP('Part 1',#214);
#224=SHAPE_DEFINITION_REPRESENTATION(#374,#225);
#225=SHAPE_REPRESENTATION('Part 1',(#226),#369);
#226=AXIS2_PLACEMENT_3D('',#305,#247,#248);
#227=AXIS2_PLACEMENT_3D('',#306,#249,#250);
#228=AXIS2_PLACEMENT_3D('',#310,#252,#253);
#229=AXIS2_PLACEMENT_3D('',#314,#255,#256);
#230=AXIS2_PLACEMENT_3D('',#318,#258,#259);
#231=AXIS2_PLACEMENT_3D('',#322,#261,#262);
#232=AXIS2_PLACEMENT_3D('',#323,#263,#264);
#233=AXIS2_PLACEMENT_3D('',#329,#268,#269);
#234=AXIS2_PLACEMENT_3D('',#335,#273,#274);
#235=AXIS2_PLACEMENT_3D('',#338,#277,#278);
#236=AXIS2_PLACEMENT_3D('',#347,#281,#282);
#237=AXIS2_PLACEMENT_3D('',#356,#285,#286);
#238=AXIS2_PLACEMENT_3D('',#357,#287,#288);
#239=AXIS2_PLACEMENT_3D('',#359,#289,#290);
#240=AXIS2_PLACEMENT_3D('',#360,#291,#292);
#241=AXIS2_PLACEMENT_3D('',#362,#293,#294);
#242=AXIS2_PLACEMENT_3D('',#363,#295,#296);
#243=AXIS2_PLACEMENT_3D('',#364,#297,#298);
#244=AXIS2_PLACEMENT_3D('',#365,#299,#300);
#245=AXIS2_PLACEMENT_3D('',#366,#301,#302);
#246=AXIS2_PLACEMENT_3D('',#367,#303,#304);
#247=DIRECTION('',(0.,0.,1.));
#248=DIRECTION('',(1.,0.,0.));
#249=DIRECTION('',(0.,0.,-1.));
#250=DIRECTION('',(-1.,0.,0.));
#251=DIRECTION('',(0.,0.,-1.));
#252=DIRECTION('',(0.,0.,1.));
#253=DIRECTION('',(1.,0.,0.));
#254=DIRECTION('',(0.,0.,-1.));
#255=DIRECTION('',(0.,0.,1.));
#256=DIRECTION('',(1.,0.,0.));
#257=DIRECTION('',(0.,0.,-1.));
#258=DIRECTION('',(0.,0.,1.));
#259=DIRECTION('',(1.,0.,0.));
#260=DIRECTION('',(0.,0.,1.));
#261=DIRECTION('',(0.,0.,1.));
#262=DIRECTION('',(1.,0.,0.));
#263=DIRECTION('',(-0.707106781186548,0.707106781186547,0.));
#264=DIRECTION('',(-0.707106781186547,-0.707106781186548,0.));
#265=DIRECTION('',(0.707106781186547,0.707106781186548,0.));
#266=DIRECTION('',(0.,0.,-1.));
#267=DIRECTION('',(0.707106781186547,0.707106781186548,0.));
#268=DIRECTION('',(-0.865506129829239,-0.500898332227223,0.));
#269=DIRECTION('',(0.500898332227223,-0.865506129829239,0.));
#270=DIRECTION('',(-0.500898332227223,0.865506129829239,0.));
#271=DIRECTION('',(0.,0.,-1.));
#272=DIRECTION('',(-0.500898332227223,0.865506129829239,0.));
#273=DIRECTION('',(-0.707106781186548,0.707106781186548,0.));
#274=DIRECTION('',(-0.707106781186548,-0.707106781186548,0.));
#275=DIRECTION('',(0.707106781186548,0.707106781186548,0.));
#276=DIRECTION('',(0.707106781186548,0.707106781186548,0.));
#277=DIRECTION('',(-0.914192837198465,0.405279479390482,0.));
#278=DIRECTION('',(-0.405279479390482,-0.914192837198465,0.));
#279=DIRECTION('',(0.405279479390482,0.914192837198465,0.));
#280=DIRECTION('',(-0.405279479390482,-0.914192837198465,0.));
#281=DIRECTION('',(-0.405279479390483,0.914192837198465,0.));
#282=DIRECTION('',(-0.914192837198465,-0.405279479390483,0.));
#283=DIRECTION('',(-0.914192837198465,-0.405279479390483,0.));
#284=DIRECTION('',(-0.914192837198465,-0.405279479390483,0.));
#285=DIRECTION('',(0.,0.,1.));
#286=DIRECTION('',(1.,0.,0.));
#287=DIRECTION('',(0.,0.,1.));
#288=DIRECTION('',(1.,0.,0.));
#289=DIRECTION('',(0.,0.,1.));
#290=DIRECTION('',(1.,0.,0.));
#291=DIRECTION('',(0.,0.,1.));
#292=DIRECTION('',(1.,0.,0.));
#293=DIRECTION('',(0.,0.,1.));
#294=DIRECTION('',(1.,0.,0.));
#295=DIRECTION('',(0.,0.,1.));
#296=DIRECTION('',(1.,0.,0.));
#297=DIRECTION('',(0.,0.,1.));
#298=DIRECTION('',(1.,0.,0.));
#299=DIRECTION('',(0.,0.,1.));
#300=DIRECTION('',(1.,0.,0.));
#301=DIRECTION('',(0.,0.,-1.));
#302=DIRECTION('',(-1.,0.,0.));
#303=DIRECTION('',(0.,0.,1.));
#304=DIRECTION('',(1.,0.,0.));
#305=CARTESIAN_POINT('',(0.,0.,0.));
#306=CARTESIAN_POINT('',(-7.42461647718073E-16,-3.86409654273834E-16,0.005));
#307=CARTESIAN_POINT('',(0.00536199442998824,0.00960463511710753,0.005));
#308=CARTESIAN_POINT('',(0.00536199442998824,0.00960463511710753,0.005));
#309=CARTESIAN_POINT('',(0.00536199442998824,0.00960463511710753,0.));
#310=CARTESIAN_POINT('',(-7.42461647718073E-16,-3.86409654273834E-16,0.));
#311=CARTESIAN_POINT('',(0.00960463511710752,0.00536199442998825,0.));
#312=CARTESIAN_POINT('',(0.00960463511710752,0.00536199442998825,0.005));
#313=CARTESIAN_POINT('',(0.00960463511710752,0.00536199442998825,0.005));
#314=CARTESIAN_POINT('',(-3.9118014383277E-16,-7.32053306862213E-16,0.005));
#315=CARTESIAN_POINT('',(0.0100561212091831,0.00445807427329532,0.005));
#316=CARTESIAN_POINT('',(0.0100561212091831,0.00445807427329532,0.0035));
#317=CARTESIAN_POINT('',(0.0100561212091831,0.00445807427329532,0.0015));
#318=CARTESIAN_POINT('',(-2.16840434497101E-19,0.,0.0015));
#319=CARTESIAN_POINT('',(0.00445807427329531,0.0100561212091831,0.0015));
#320=CARTESIAN_POINT('',(0.00445807427329531,0.0100561212091831,0.005));
#321=CARTESIAN_POINT('',(0.00445807427329531,0.0100561212091831,0.0035));
#322=CARTESIAN_POINT('',(-2.16840434497101E-19,0.,0.0035));
#323=CARTESIAN_POINT('',(0.0245228803070309,0.0202802396199116,0.005));
#324=CARTESIAN_POINT('',(0.0245228803070309,0.0202802396199116,0.));
#325=CARTESIAN_POINT('',(0.0394411254969543,0.035198484809835,0.));
#326=CARTESIAN_POINT('',(0.0394411254969543,0.035198484809835,0.005));
#327=CARTESIAN_POINT('',(0.0394411254969543,0.035198484809835,0.005));
#328=CARTESIAN_POINT('',(0.0245228803070309,0.0202802396199116,0.005));
#329=CARTESIAN_POINT('',(0.0378858527329741,0.0378858527329741,0.005));
#330=CARTESIAN_POINT('',(0.0378858527329741,0.0378858527329741,0.));
#331=CARTESIAN_POINT('',(0.0363305799689939,0.0405732206561132,0.));
#332=CARTESIAN_POINT('',(0.0363305799689939,0.0405732206561132,0.005));
#333=CARTESIAN_POINT('',(0.0363305799689939,0.0405732206561132,0.005));
#334=CARTESIAN_POINT('',(0.0378858527329741,0.0378858527329741,0.005));
#335=CARTESIAN_POINT('',(0.0208462871994911,0.0250889278866104,0.005));
#336=CARTESIAN_POINT('',(0.0208462871994911,0.0250889278866104,0.));
#337=CARTESIAN_POINT('',(0.0208462871994911,0.0250889278866104,0.005));
#338=CARTESIAN_POINT('',(0.00391837696486783,0.00883872077637138,0.005));
#339=CARTESIAN_POINT('',(0.00391837696486783,0.00883872077637138,0.0015));
#340=CARTESIAN_POINT('',(0.00364754102331143,0.0082277241374799,0.0015));
#341=CARTESIAN_POINT('',(0.00364751531444312,0.00822773553462553,0.0035));
#342=CARTESIAN_POINT('',(0.00364751531444312,0.00822773553462553,0.00283333333333333));
#343=CARTESIAN_POINT('',(0.00364751531444312,0.00822773553462553,0.00216666666666667));
#344=CARTESIAN_POINT('',(0.00364751531444312,0.00822773553462553,0.0015));
#345=CARTESIAN_POINT('',(0.00364754102327582,0.00822772413739957,0.0035));
#346=CARTESIAN_POINT('',(0.00391837696486783,0.00883872077637138,0.0035));
#347=CARTESIAN_POINT('',(0.00883872077637138,0.00391837696486784,0.005));
#348=CARTESIAN_POINT('',(0.00883872077637138,0.00391837696486784,0.0035));
#349=CARTESIAN_POINT('',(0.00822772413739957,0.00364754102327582,0.0035));
#350=CARTESIAN_POINT('',(0.00822773553462552,0.00364751531444312,0.0035));
#351=CARTESIAN_POINT('',(0.00822773553462552,0.00364751531444312,0.00283333333333333));
#352=CARTESIAN_POINT('',(0.00822773553462552,0.00364751531444312,0.00216666666666667));
#353=CARTESIAN_POINT('',(0.00822773553462552,0.00364751531444312,0.0015));
#354=CARTESIAN_POINT('',(0.0082277241374799,0.00364754102331144,0.0015));
#355=CARTESIAN_POINT('',(0.00883872077637138,0.00391837696486784,0.0015));
#356=CARTESIAN_POINT('',(0.0142205627484771,0.0147866103280566,0.005));
#357=CARTESIAN_POINT('',(-7.42461647718073E-16,-3.86164724914005E-16,0.005));
#358=CARTESIAN_POINT('',(0.00399999999999926,-3.86164724914005E-16,0.005));
#359=CARTESIAN_POINT('',(0.0142205627484771,0.0147866103280566,0.));
#360=CARTESIAN_POINT('',(-7.42461647718073E-16,-3.86164724914005E-16,0.));
#361=CARTESIAN_POINT('',(0.00399999999999926,-3.86164724914005E-16,0.));
#362=CARTESIAN_POINT('',(0.00405285192456502,0.00914190304463735,0.0015));
#363=CARTESIAN_POINT('',(-2.16840434497101E-19,0.,0.0015));
#364=CARTESIAN_POINT('',(-2.16840434497101E-19,0.,0.0025));
#365=CARTESIAN_POINT('',(-2.16840434497101E-19,0.,0.0035));
#366=CARTESIAN_POINT('',(0.00405285192456502,0.00914190304463735,0.0035));
#367=CARTESIAN_POINT('',(-7.42461647718073E-16,-3.86164724914005E-16,0.));
#368=MECHANICAL_DESIGN_GEOMETRIC_PRESENTATION_REPRESENTATION('',(#215),
#369);
#369=(
GEOMETRIC_REPRESENTATION_CONTEXT(3)
GLOBAL_UNCERTAINTY_ASSIGNED_CONTEXT((#370))
GLOBAL_UNIT_ASSIGNED_CONTEXT((#373,#372,#371))
REPRESENTATION_CONTEXT('Part 1','TOP_LEVEL_ASSEMBLY_PART')
);
#370=UNCERTAINTY_MEASURE_WITH_UNIT(LENGTH_MEASURE(5.E-6),#373,
'DISTANCE_ACCURACY_VALUE','Maximum Tolerance applied to model');
#371=(
NAMED_UNIT(*)
SI_UNIT($,.STERADIAN.)
SOLID_ANGLE_UNIT()
);
#372=(
NAMED_UNIT(*)
PLANE_ANGLE_UNIT()
SI_UNIT($,.RADIAN.)
);
#373=(
LENGTH_UNIT()
NAMED_UNIT(*)
SI_UNIT($,.METRE.)
);
#374=PRODUCT_DEFINITION_SHAPE('','',#375);
#375=PRODUCT_DEFINITION('','',#377,#376);
#376=PRODUCT_DEFINITION_CONTEXT('',#383,'design');
#377=PRODUCT_DEFINITION_FORMATION_WITH_SPECIFIED_SOURCE('','',#379,
 .NOT_KNOWN.);
#378=PRODUCT_RELATED_PRODUCT_CATEGORY('','',(#379));
#379=PRODUCT('Part 1','Part 1','Part 1',(#381));
#380=PRODUCT_CATEGORY('','');
#381=PRODUCT_CONTEXT('',#383,'mechanical');
#382=APPLICATION_PROTOCOL_DEFINITION('international standard',
'automotive_design',2010,#383);
#383=APPLICATION_CONTEXT(
'core data for automotive mechanical design processes');
ENDSEC;
END-ISO-10303-21;
