ISO-10303-21;
HEADER;
FILE_DESCRIPTION(('CAx-IF Rec.Pracs.---Model Styling and Organization---1.2---2011-12-15','CAx-IF Rec.Pracs.---Geometric and Assembly Validation Properties---4.1---2014-06-16','CAx-IF Rec.Pracs.---PMI Polyline Presentation---2.0---2013-05-24'),'2;1');
FILE_NAME('YOLOOO.stp','2021-01-14T20:44:19+01:00',(' '),(' '),'HyperWorksVersion-2019.1.2-HWDesktop','3D_Kernel_IO2019 Sp1 by CT CoreTechnologie',' ');
FILE_SCHEMA(('AUTOMOTIVE_DESIGN { 1 0 10303 214 1 1 1 1 }'));
ENDSEC;

DATA;
#1=APPLICATION_CONTEXT('automotive design');
#6=APPLICATION_PROTOCOL_DEFINITION('International Standard','automotive_design',2001,#1);
#11=CARTESIAN_POINT(' ',(0.,0.,0.));
#16=DIRECTION(' ',(0.,0.,1.));
#21=DIRECTION(' ',(1.,0.,0.));
#26=AXIS2_PLACEMENT_3D(' ',#11,#16,#21);
#31=PRODUCT_CONTEXT(' ',#1,'mechanical');
#36=PRODUCT_DEFINITION_CONTEXT('part definition',#1,' ');
#41=PRODUCT('Model','Model','',(#31));
#46=PRODUCT_DEFINITION_FORMATION_WITH_SPECIFIED_SOURCE('',' ',#41,.NOT_KNOWN.);
#51=PRODUCT_DEFINITION('',' ',#46,#36);
#56=PRODUCT_DEFINITION_SHAPE(' ',' ',#51);
#61=(LENGTH_UNIT()NAMED_UNIT(*)SI_UNIT(.MILLI.,.METRE.));
#66=(NAMED_UNIT(*)PLANE_ANGLE_UNIT()SI_UNIT($,.RADIAN.));
#71=PLANE_ANGLE_MEASURE_WITH_UNIT(PLANE_ANGLE_MEASURE(1.745329251994E-02),#66);
#76=DIMENSIONAL_EXPONENTS(0.,0.,0.,0.,0.,0.,0.);
#81=(CONVERSION_BASED_UNIT('DEGREE',#71)NAMED_UNIT(#76)PLANE_ANGLE_UNIT());
#86=(NAMED_UNIT(*)SI_UNIT($,.STERADIAN.)SOLID_ANGLE_UNIT());
#91=UNCERTAINTY_MEASURE_WITH_UNIT(LENGTH_MEASURE(10.E-03),#61,' ',' ');
#96=(GEOMETRIC_REPRESENTATION_CONTEXT(3)GLOBAL_UNCERTAINTY_ASSIGNED_CONTEXT((#91))GLOBAL_UNIT_ASSIGNED_CONTEXT((#61,#81,#86))REPRESENTATION_CONTEXT(' ',' '));
#111=DIRECTION(' ',(0.,0.,1.));
#116=CARTESIAN_POINT(' ',(-2.425003383874E+01,-2.452393682267E+01,0.));
#121=DIRECTION(' ',(1.,0.,0.));
#126=AXIS2_PLACEMENT_3D(' ',#116,#111,#121);
#131=PLANE('',#126);
#136=CARTESIAN_POINT(' ',(-6.103814550431E-02,-1.074901832384E-03,-1.016255596044E-20));
#141=DIRECTION(' ',(4.201837521095E-22,1.165493604824E-21,1.));
#146=DIRECTION(' ',(-0.999999999013,4.443770004781E-05,4.201319598394E-22));
#151=AXIS2_PLACEMENT_3D(' ',#136,#141,#146);
#156=CIRCLE('',#151,2.418896187838E+01);
#161=CARTESIAN_POINT(' ',(-2.425E+01,3.547555214269E-14,0.));
#162=VERTEX_POINT(' ',#161);
#166=CARTESIAN_POINT(' ',(-2.420305578461E+01,-1.507348803474,1.737080194127E-21));
#167=VERTEX_POINT(' ',#166);
#171=EDGE_CURVE(' ',#162,#167,#156,.T.);
#176=ORIENTED_EDGE(' ',*,*,#171,.T.);
#181=CARTESIAN_POINT(' ',(1.917753862202E-05,2.095901821848E-04,8.68843348938E-22));
#186=DIRECTION(' ',(3.582862619983E-23,7.12356806874E-25,1.));
#191=DIRECTION(' ',(-0.998065736152,-6.216740560074E-02,3.580360955799E-23));
#196=AXIS2_PLACEMENT_3D(' ',#181,#186,#191);
#201=CIRCLE('',#196,2.424998082337E+01);
#206=CARTESIAN_POINT(' ',(2.425E+01,1.7763568394E-15,0.));
#207=VERTEX_POINT(' ',#206);
#211=EDGE_CURVE(' ',#167,#207,#201,.T.);
#216=ORIENTED_EDGE(' ',*,*,#211,.T.);
#221=CARTESIAN_POINT(' ',(8.881784197001E-15,8.205667125338E-05,0.));
#226=DIRECTION(' ',(0.,0.,1.));
#231=DIRECTION(' ',(0.999999999994,-3.383780257779E-06,0.));
#236=AXIS2_PLACEMENT_3D(' ',#221,#226,#231);
#241=CIRCLE('',#236,2.425000000014E+01);
#246=EDGE_CURVE(' ',#207,#162,#241,.T.);
#251=ORIENTED_EDGE(' ',*,*,#246,.T.);
#256=EDGE_LOOP(' ',(#176,#216,#251));
#261=FACE_OUTER_BOUND(' ',#256,.T.);
#266=CARTESIAN_POINT(' ',(-9.754329536561E-03,-2.763994295185E-04,0.));
#271=DIRECTION(' ',(0.,-0.,-1.));
#276=DIRECTION(' ',(-0.999999999777,2.11110056847E-05,0.));
#281=AXIS2_PLACEMENT_3D(' ',#266,#271,#276);
#286=CIRCLE('',#281,1.309020168635E+01);
#291=CARTESIAN_POINT(' ',(-1.309995601297E+01,-5.210730422711E-08,0.));
#292=VERTEX_POINT(' ',#291);
#296=CARTESIAN_POINT(' ',(-1.300512877896E+01,1.572499207072,0.));
#297=VERTEX_POINT(' ',#296);
#301=EDGE_CURVE(' ',#292,#297,#286,.T.);
#306=ORIENTED_EDGE(' ',*,*,#301,.T.);
#311=CARTESIAN_POINT(' ',(7.153819702577E-05,-4.345268928674E-05,0.));
#316=DIRECTION(' ',(0.,-0.,-1.));
#321=DIRECTION(' ',(-0.992768804426,0.12004207995,0.));
#326=AXIS2_PLACEMENT_3D(' ',#311,#316,#321);
#331=CIRCLE('',#326,1.309992846188E+01);
#336=CARTESIAN_POINT(' ',(1.31E+01,-2.6645352591E-15,0.));
#337=VERTEX_POINT(' ',#336);
#341=EDGE_CURVE(' ',#297,#337,#331,.T.);
#346=ORIENTED_EDGE(' ',*,*,#341,.T.);
#351=CARTESIAN_POINT(' ',(2.199351713461E-05,-7.238951832278E-05,0.));
#356=DIRECTION(' ',(0.,0.,-1.));
#361=DIRECTION(' ',(0.999999999985,5.52592670638E-06,0.));
#366=AXIS2_PLACEMENT_3D(' ',#351,#356,#361);
#371=CIRCLE('',#366,1.309997800668E+01);
#376=EDGE_CURVE(' ',#337,#292,#371,.T.);
#381=ORIENTED_EDGE(' ',*,*,#376,.T.);
#386=EDGE_LOOP(' ',(#306,#346,#381));
#391=FACE_BOUND(' ',#386,.T.);
#396=ADVANCED_FACE('',(#261,#391),#131,.T.);
#401=CARTESIAN_POINT(' ',(2.425E+01,-1.484884243966E-15,0.));
#406=CARTESIAN_POINT(' ',(2.425E+01,-1.484884243966E-15,1.3E+01));
#411=CARTESIAN_POINT(' ',(2.425E+01,-2.425E+01,0.));
#416=CARTESIAN_POINT(' ',(2.425E+01,-2.425E+01,1.3E+01));
#421=CARTESIAN_POINT(' ',(0.,-2.425E+01,0.));
#426=CARTESIAN_POINT(' ',(0.,-2.425E+01,1.3E+01));
#431=CARTESIAN_POINT(' ',(-2.425E+01,-2.425E+01,0.));
#436=CARTESIAN_POINT(' ',(-2.425E+01,-2.425E+01,1.3E+01));
#441=CARTESIAN_POINT(' ',(-2.425E+01,4.454652731898E-15,0.));
#446=CARTESIAN_POINT(' ',(-2.425E+01,4.454652731898E-15,1.3E+01));
#451=(BOUNDED_SURFACE()B_SPLINE_SURFACE(2,1,((#401,#406),(#411,#416),(#421,#426),(#431,#436),(#441,#446)),.UNSPECIFIED.,.F.,.F.,.U.)B_SPLINE_SURFACE_WITH_KNOTS((3,2,3),(2,2),(-6.28318530718,-3.14159265359,0.),(0.,1.),.UNSPECIFIED.)GEOMETRIC_REPRESENTATION_ITEM()RATIONAL_B_SPLINE_SURFACE(((1.,1.),(0.707106781187,0.707106781187),(1.,1.),(0.707106781187,0.707106781187),(1.,1.)))REPRESENTATION_ITEM(' ')SURFACE());
#456=CARTESIAN_POINT(' ',(-2.425E+01,3.547555214269E-14,0.));
#461=DIRECTION(' ',(0.,-5.188459634761E-15,1.));
#466=VECTOR(' ',#461,1.);
#471=LINE('',#456,#466);
#476=CARTESIAN_POINT(' ',(-2.425E+01,-3.19744231092E-14,1.3E+01));
#477=VERTEX_POINT(' ',#476);
#481=EDGE_CURVE(' ',#162,#477,#471,.T.);
#486=ORIENTED_EDGE(' ',*,*,#481,.T.);
#491=CARTESIAN_POINT(' ',(3.552713678801E-15,1.30626398315E-04,1.3E+01));
#496=DIRECTION(' ',(0.,-0.,1.));
#501=DIRECTION(' ',(-0.999999999985,-5.386655601857E-06,0.));
#506=AXIS2_PLACEMENT_3D(' ',#491,#496,#501);
#511=CIRCLE('',#506,2.425000000035E+01);
#516=CARTESIAN_POINT(' ',(2.425E+01,-7.424421219831E-16,1.3E+01));
#517=VERTEX_POINT(' ',#516);
#521=EDGE_CURVE(' ',#477,#517,#511,.T.);
#526=ORIENTED_EDGE(' ',*,*,#521,.T.);
#531=CARTESIAN_POINT(' ',(2.425E+01,1.7763568394E-15,0.));
#536=DIRECTION(' ',(-5.465713352001E-16,-1.937537662603E-16,1.));
#541=VECTOR(' ',#536,1.);
#546=LINE('',#531,#541);
#551=EDGE_CURVE(' ',#207,#517,#546,.T.);
#556=ORIENTED_EDGE(' ',*,*,#551,.F.);
#561=ORIENTED_EDGE(' ',*,*,#211,.F.);
#566=ORIENTED_EDGE(' ',*,*,#171,.F.);
#571=EDGE_LOOP(' ',(#486,#526,#556,#561,#566));
#576=FACE_OUTER_BOUND(' ',#571,.T.);
#581=ADVANCED_FACE('',(#576),#451,.T.);
#586=CARTESIAN_POINT(' ',(-2.425E+01,4.454652731898E-15,0.));
#591=CARTESIAN_POINT(' ',(-2.425E+01,4.454652731898E-15,1.3E+01));
#596=CARTESIAN_POINT(' ',(-2.425E+01,2.425E+01,0.));
#601=CARTESIAN_POINT(' ',(-2.425E+01,2.425E+01,1.3E+01));
#606=CARTESIAN_POINT(' ',(3.552713678801E-15,2.425E+01,0.));
#611=CARTESIAN_POINT(' ',(3.552713678801E-15,2.425E+01,1.3E+01));
#616=CARTESIAN_POINT(' ',(2.425E+01,2.425E+01,0.));
#621=CARTESIAN_POINT(' ',(2.425E+01,2.425E+01,1.3E+01));
#626=CARTESIAN_POINT(' ',(2.425E+01,-1.484884243966E-15,0.));
#631=CARTESIAN_POINT(' ',(2.425E+01,-1.484884243966E-15,1.3E+01));
#636=(BOUNDED_SURFACE()B_SPLINE_SURFACE(2,1,((#586,#591),(#596,#601),(#606,#611),(#616,#621),(#626,#631)),.UNSPECIFIED.,.F.,.F.,.U.)B_SPLINE_SURFACE_WITH_KNOTS((3,2,3),(2,2),(0.,3.14159265359,6.28318530718),(0.,1.),.UNSPECIFIED.)GEOMETRIC_REPRESENTATION_ITEM()RATIONAL_B_SPLINE_SURFACE(((1.,1.),(0.707106781187,0.707106781187),(1.,1.),(0.707106781187,0.707106781187),(1.,1.)))REPRESENTATION_ITEM(' ')SURFACE());
#641=ORIENTED_EDGE(' ',*,*,#481,.F.);
#646=ORIENTED_EDGE(' ',*,*,#246,.F.);
#651=ORIENTED_EDGE(' ',*,*,#551,.T.);
#656=CARTESIAN_POINT(' ',(2.562230739667E-05,-2.425960865082E-06,1.3E+01));
#661=DIRECTION(' ',(3.535925960026E-17,-4.18567098346E-17,1.));
#666=DIRECTION(' ',(1.,1.000397289727E-07,0.));
#671=AXIS2_PLACEMENT_3D(' ',#656,#661,#666);
#676=CIRCLE('',#671,2.424997437769E+01);
#681=CARTESIAN_POINT(' ',(-2.420305578461E+01,1.507348803475,1.3E+01));
#682=VERTEX_POINT(' ',#681);
#686=EDGE_CURVE(' ',#517,#682,#676,.T.);
#691=ORIENTED_EDGE(' ',*,*,#686,.T.);
#696=CARTESIAN_POINT(' ',(-6.208359803832E-02,1.107460951303E-03,1.3E+01));
#701=DIRECTION(' ',(7.212145146058E-14,-3.424583466748E-15,1.));
#706=DIRECTION(' ',(-0.998059186252,6.227247175463E-02,7.219136788312E-14));
#711=AXIS2_PLACEMENT_3D(' ',#696,#701,#706);
#716=CIRCLE('',#711,2.418791642731E+01);
#721=EDGE_CURVE(' ',#682,#477,#716,.T.);
#726=ORIENTED_EDGE(' ',*,*,#721,.T.);
#731=EDGE_LOOP(' ',(#641,#646,#651,#691,#726));
#736=FACE_OUTER_BOUND(' ',#731,.T.);
#741=ADVANCED_FACE('',(#736),#636,.T.);
#746=CARTESIAN_POINT(' ',(1.31E+01,-1.7763568394E-15,0.));
#751=CARTESIAN_POINT(' ',(1.31E+01,-1.7763568394E-15,1.3E+01));
#756=CARTESIAN_POINT(' ',(1.31E+01,1.31E+01,0.));
#761=CARTESIAN_POINT(' ',(1.31E+01,1.31E+01,1.3E+01));
#766=CARTESIAN_POINT(' ',(3.552713678801E-15,1.31E+01,0.));
#771=CARTESIAN_POINT(' ',(3.552713678801E-15,1.31E+01,1.3E+01));
#776=CARTESIAN_POINT(' ',(-1.31E+01,1.31E+01,0.));
#781=CARTESIAN_POINT(' ',(-1.31E+01,1.31E+01,1.3E+01));
#786=CARTESIAN_POINT(' ',(-1.31E+01,1.7763568394E-15,0.));
#791=CARTESIAN_POINT(' ',(-1.31E+01,1.7763568394E-15,1.3E+01));
#796=(BOUNDED_SURFACE()B_SPLINE_SURFACE(2,1,((#746,#751),(#756,#761),(#766,#771),(#776,#781),(#786,#791)),.UNSPECIFIED.,.F.,.F.,.U.)B_SPLINE_SURFACE_WITH_KNOTS((3,2,3),(2,2),(0.,1.570796326795,3.14159265359),(0.,1.),.UNSPECIFIED.)GEOMETRIC_REPRESENTATION_ITEM()RATIONAL_B_SPLINE_SURFACE(((1.,1.),(0.707106781187,0.707106781187),(1.,1.),(0.707106781187,0.707106781187),(1.,1.)))REPRESENTATION_ITEM(' ')SURFACE());
#801=CARTESIAN_POINT(' ',(-1.309995601297E+01,-5.210730422711E-08,0.));
#806=DIRECTION(' ',(-3.383617998417E-06,6.680429683658E-09,0.999999999994));
#811=VECTOR(' ',#806,1.);
#816=LINE('',#801,#811);
#821=CARTESIAN_POINT(' ',(-1.31E+01,3.473828166094E-08,1.3E+01));
#822=VERTEX_POINT(' ',#821);
#826=EDGE_CURVE(' ',#292,#822,#816,.T.);
#831=ORIENTED_EDGE(' ',*,*,#826,.T.);
#836=CARTESIAN_POINT(' ',(-8.437694987151E-14,-6.70876360731E-05,1.3E+01));
#841=DIRECTION(' ',(0.,-0.,-1.));
#846=DIRECTION(' ',(-0.999999999987,5.123845370526E-06,0.));
#851=AXIS2_PLACEMENT_3D(' ',#836,#841,#846);
#856=CIRCLE('',#851,1.310000000017E+01);
#861=CARTESIAN_POINT(' ',(1.31E+01,-8.881784197001E-16,1.3E+01));
#862=VERTEX_POINT(' ',#861);
#866=EDGE_CURVE(' ',#822,#862,#856,.T.);
#871=ORIENTED_EDGE(' ',*,*,#866,.T.);
#876=CARTESIAN_POINT(' ',(1.31E+01,-2.6645352591E-15,0.));
#881=DIRECTION(' ',(2.732856676E-16,1.366428338E-16,1.));
#886=VECTOR(' ',#881,1.);
#891=LINE('',#876,#886);
#896=EDGE_CURVE(' ',#337,#862,#891,.T.);
#901=ORIENTED_EDGE(' ',*,*,#896,.F.);
#906=ORIENTED_EDGE(' ',*,*,#341,.F.);
#911=ORIENTED_EDGE(' ',*,*,#301,.F.);
#916=EDGE_LOOP(' ',(#831,#871,#901,#906,#911));
#921=FACE_OUTER_BOUND(' ',#916,.T.);
#926=ADVANCED_FACE('',(#921),#796,.T.);
#931=CARTESIAN_POINT(' ',(-1.31E+01,1.7763568394E-15,0.));
#936=CARTESIAN_POINT(' ',(-1.31E+01,1.7763568394E-15,1.3E+01));
#941=CARTESIAN_POINT(' ',(-1.31E+01,-1.31E+01,0.));
#946=CARTESIAN_POINT(' ',(-1.31E+01,-1.31E+01,1.3E+01));
#951=CARTESIAN_POINT(' ',(-3.552713678801E-15,-1.31E+01,0.));
#956=CARTESIAN_POINT(' ',(-3.552713678801E-15,-1.31E+01,1.3E+01));
#961=CARTESIAN_POINT(' ',(1.31E+01,-1.31E+01,0.));
#966=CARTESIAN_POINT(' ',(1.31E+01,-1.31E+01,1.3E+01));
#971=CARTESIAN_POINT(' ',(1.31E+01,-1.7763568394E-15,0.));
#976=CARTESIAN_POINT(' ',(1.31E+01,-1.7763568394E-15,1.3E+01));
#981=(BOUNDED_SURFACE()B_SPLINE_SURFACE(2,1,((#931,#936),(#941,#946),(#951,#956),(#961,#966),(#971,#976)),.UNSPECIFIED.,.F.,.F.,.U.)B_SPLINE_SURFACE_WITH_KNOTS((3,2,3),(2,2),(3.14159265359,4.712388980385,6.28318530718),(0.,1.),.UNSPECIFIED.)GEOMETRIC_REPRESENTATION_ITEM()RATIONAL_B_SPLINE_SURFACE(((1.,1.),(0.707106781187,0.707106781187),(1.,1.),(0.707106781187,0.707106781187),(1.,1.)))REPRESENTATION_ITEM(' ')SURFACE());
#986=ORIENTED_EDGE(' ',*,*,#826,.F.);
#991=ORIENTED_EDGE(' ',*,*,#376,.F.);
#996=ORIENTED_EDGE(' ',*,*,#896,.T.);
#1001=CARTESIAN_POINT(' ',(7.304598543589E-05,1.842182731959E-05,1.3E+01));
#1006=DIRECTION(' ',(7.183088855408E-17,-6.282849375503E-17,-1.));
#1011=DIRECTION(' ',(0.999999999999,-1.406254201655E-06,0.));
#1016=AXIS2_PLACEMENT_3D(' ',#1001,#1006,#1011);
#1021=CIRCLE('',#1016,1.309992695403E+01);
#1026=CARTESIAN_POINT(' ',(-1.300512877896E+01,-1.572499207072,1.3E+01));
#1027=VERTEX_POINT(' ',#1026);
#1031=EDGE_CURVE(' ',#862,#1027,#1021,.T.);
#1036=ORIENTED_EDGE(' ',*,*,#1031,.T.);
#1041=CARTESIAN_POINT(' ',(-5.14006355325E-03,9.209537412567E-04,1.3E+01));
#1046=DIRECTION(' ',(-3.906726316073E-14,-1.227346931492E-15,-1.));
#1051=DIRECTION(' ',(-0.992755076905,-0.120155554512,3.893240661767E-14));
#1056=AXIS2_PLACEMENT_3D(' ',#1041,#1046,#1051);
#1061=CIRCLE('',#1056,1.309485996883E+01);
#1066=EDGE_CURVE(' ',#1027,#822,#1061,.T.);
#1071=ORIENTED_EDGE(' ',*,*,#1066,.T.);
#1076=EDGE_LOOP(' ',(#986,#991,#996,#1036,#1071));
#1081=FACE_OUTER_BOUND(' ',#1076,.T.);
#1086=ADVANCED_FACE('',(#1081),#981,.T.);
#1091=DIRECTION(' ',(-0.,-0.,-1.));
#1096=CARTESIAN_POINT(' ',(-2.425003383874E+01,-2.485652646525E+01,1.3E+01));
#1101=DIRECTION(' ',(0.,1.,0.));
#1106=AXIS2_PLACEMENT_3D(' ',#1096,#1091,#1101);
#1111=PLANE('',#1106);
#1116=ORIENTED_EDGE(' ',*,*,#721,.F.);
#1121=ORIENTED_EDGE(' ',*,*,#686,.F.);
#1126=ORIENTED_EDGE(' ',*,*,#521,.F.);
#1131=EDGE_LOOP(' ',(#1116,#1121,#1126));
#1136=FACE_OUTER_BOUND(' ',#1131,.T.);
#1141=ORIENTED_EDGE(' ',*,*,#1066,.F.);
#1146=ORIENTED_EDGE(' ',*,*,#1031,.F.);
#1151=ORIENTED_EDGE(' ',*,*,#866,.F.);
#1156=EDGE_LOOP(' ',(#1141,#1146,#1151));
#1161=FACE_BOUND(' ',#1156,.T.);
#1166=ADVANCED_FACE('',(#1136,#1161),#1111,.T.);
#1171=CLOSED_SHELL('Model',(#396,#581,#741,#926,#1086,#1166));
#1176=MANIFOLD_SOLID_BREP('Model',#1171);
#1181=COLOUR_RGB('1181',0.,1.,0.);
#1186=FILL_AREA_STYLE_COLOUR(' ',#1181);
#1191=FILL_AREA_STYLE(' ',(#1186));
#1196=SURFACE_STYLE_FILL_AREA(#1191);
#1201=SURFACE_SIDE_STYLE(' ',(#1196));
#1206=SURFACE_STYLE_USAGE(.BOTH.,#1201);
#1211=PRESENTATION_STYLE_ASSIGNMENT((#1206));
#1216=STYLED_ITEM(' ',(#1211),#396);
#1221=COLOUR_RGB('1221',0.,1.,0.);
#1226=FILL_AREA_STYLE_COLOUR(' ',#1221);
#1231=FILL_AREA_STYLE(' ',(#1226));
#1236=SURFACE_STYLE_FILL_AREA(#1231);
#1241=SURFACE_SIDE_STYLE(' ',(#1236));
#1246=SURFACE_STYLE_USAGE(.BOTH.,#1241);
#1251=PRESENTATION_STYLE_ASSIGNMENT((#1246));
#1256=STYLED_ITEM(' ',(#1251),#581);
#1261=COLOUR_RGB('1261',0.,1.,0.);
#1266=FILL_AREA_STYLE_COLOUR(' ',#1261);
#1271=FILL_AREA_STYLE(' ',(#1266));
#1276=SURFACE_STYLE_FILL_AREA(#1271);
#1281=SURFACE_SIDE_STYLE(' ',(#1276));
#1286=SURFACE_STYLE_USAGE(.BOTH.,#1281);
#1291=PRESENTATION_STYLE_ASSIGNMENT((#1286));
#1296=STYLED_ITEM(' ',(#1291),#741);
#1301=COLOUR_RGB('1301',0.,1.,0.);
#1306=FILL_AREA_STYLE_COLOUR(' ',#1301);
#1311=FILL_AREA_STYLE(' ',(#1306));
#1316=SURFACE_STYLE_FILL_AREA(#1311);
#1321=SURFACE_SIDE_STYLE(' ',(#1316));
#1326=SURFACE_STYLE_USAGE(.BOTH.,#1321);
#1331=PRESENTATION_STYLE_ASSIGNMENT((#1326));
#1336=STYLED_ITEM(' ',(#1331),#926);
#1341=COLOUR_RGB('1341',0.,1.,0.);
#1346=FILL_AREA_STYLE_COLOUR(' ',#1341);
#1351=FILL_AREA_STYLE(' ',(#1346));
#1356=SURFACE_STYLE_FILL_AREA(#1351);
#1361=SURFACE_SIDE_STYLE(' ',(#1356));
#1366=SURFACE_STYLE_USAGE(.BOTH.,#1361);
#1371=PRESENTATION_STYLE_ASSIGNMENT((#1366));
#1376=STYLED_ITEM(' ',(#1371),#1086);
#1381=COLOUR_RGB('1381',0.,1.,0.);
#1386=FILL_AREA_STYLE_COLOUR(' ',#1381);
#1391=FILL_AREA_STYLE(' ',(#1386));
#1396=SURFACE_STYLE_FILL_AREA(#1391);
#1401=SURFACE_SIDE_STYLE(' ',(#1396));
#1406=SURFACE_STYLE_USAGE(.BOTH.,#1401);
#1411=PRESENTATION_STYLE_ASSIGNMENT((#1406));
#1416=STYLED_ITEM(' ',(#1411),#1166);
#106=ADVANCED_BREP_SHAPE_REPRESENTATION('Model',(#1176),#96);
#1436=CARTESIAN_POINT(' ',(0.,8.021436534415E-16,0.));
#1441=DIRECTION(' ',(-0.,0.,1.));
#1446=DIRECTION(' ',(1.,-6.123233995737E-17,0.));
#1451=AXIS2_PLACEMENT_3D(' ',#1436,#1441,#1446);
#1456=CIRCLE('Model.2',#1451,1.31E+01);
#1461=COLOUR_RGB('1461',0.,1.,0.);
#1466=DRAUGHTING_PRE_DEFINED_CURVE_FONT('continuous');
#1471=CURVE_STYLE(' ',#1466,POSITIVE_LENGTH_MEASURE(0.2),#1461);
#1476=PRESENTATION_STYLE_ASSIGNMENT((#1471));
#1481=STYLED_ITEM(' ',(#1476),#1456);
#1486=CARTESIAN_POINT(' ',(0.,1.484884243966E-15,0.));
#1491=DIRECTION(' ',(-0.,0.,1.));
#1496=DIRECTION(' ',(1.,-6.123233995737E-17,0.));
#1501=AXIS2_PLACEMENT_3D(' ',#1486,#1491,#1496);
#1506=CIRCLE('Model.3',#1501,2.425E+01);
#1511=COLOUR_RGB('1511',0.,1.,0.);
#1516=DRAUGHTING_PRE_DEFINED_CURVE_FONT('continuous');
#1521=CURVE_STYLE(' ',#1516,POSITIVE_LENGTH_MEASURE(0.2),#1511);
#1526=PRESENTATION_STYLE_ASSIGNMENT((#1521));
#1531=STYLED_ITEM(' ',(#1526),#1506);
#1536=GEOMETRIC_SET(' ',( #1456,#1506 ) );
#1541=GEOMETRICALLY_BOUNDED_SURFACE_SHAPE_REPRESENTATION('Model',( #1536),#96);
#101=SHAPE_REPRESENTATION('Model',( #26),#96);
#1546=SHAPE_DEFINITION_REPRESENTATION(#56,#101);
#1551=SHAPE_REPRESENTATION_RELATIONSHIP(' ',' ',#106,#101);
#1556=SHAPE_REPRESENTATION_RELATIONSHIP(' ',' ',#1541,#101);
#1561=PRODUCT_CATEGORY('part',$ );
#1566=PRODUCT_RELATED_PRODUCT_CATEGORY('detail',$,( #41 ) );
#1571=PRODUCT_CATEGORY_RELATIONSHIP(' ',' ',#1561,#1566);
#1576=MECHANICAL_DESIGN_GEOMETRIC_PRESENTATION_REPRESENTATION('',(#1216,#1256,#1296,#1336,#1376,#1416,#1481,#1531),#96);
ENDSEC;
END-ISO-10303-21;
