ISO-10303-21;
HEADER;
FILE_DESCRIPTION (( 'STEP AP214' ),
    '1' );
FILE_NAME ('AV2_P1_USI_RF005.STEP',
    '2021-01-13T14:22:42',
    ( '' ),
    ( '' ),
    'SwSTEP 2.0',
    'SolidWorks 2016',
    '' );
FILE_SCHEMA (( 'AUTOMOTIVE_DESIGN' ));
ENDSEC;

DATA;
#1 = CARTESIAN_POINT ( 'NONE',  ( 0.0000000000000000000, 31.50000000000000000, 0.0000000000000000000 ) ) ;
#2 = DIRECTION ( 'NONE',  ( 0.0000000000000000000, 0.0000000000000000000, -1.000000000000000000 ) ) ;
#3 = UNCERTAINTY_MEASURE_WITH_UNIT (LENGTH_MEASURE( 1.000000000000000100E-005 ), #194, 'distance_accuracy_value', 'NONE');
#4 = DIRECTION ( 'NONE',  ( 0.0000000000000000000, 0.0000000000000000000, -1.000000000000000000 ) ) ;
#5 = CYLINDRICAL_SURFACE ( 'NONE', #94, 8.000000000000005300 ) ;
#6 = VERTEX_POINT ( 'NONE', #160 ) ;
#7 = CARTESIAN_POINT ( 'NONE',  ( 0.0000000000000000000, 0.0000000000000000000, 0.0000000000000000000 ) ) ;
#8 = AXIS2_PLACEMENT_3D ( 'NONE', #312, #199, #171 ) ;
#9 = CARTESIAN_POINT ( 'NONE',  ( 9.797174393178827600E-016, 31.50000000000000000, 8.000000000000001800 ) ) ;
#10 = EDGE_CURVE ( 'NONE', #96, #99, #120, .T. ) ;
#11 = FACE_BOUND ( 'NONE', #327, .T. ) ;
#12 = ORIENTED_EDGE ( 'NONE', *, *, #306, .F. ) ;
#13 = CARTESIAN_POINT ( 'NONE',  ( 8.572527594031478100E-016, 4.500000000000000000, 7.000000000000005300 ) ) ;
#14 = AXIS2_PLACEMENT_3D ( 'NONE', #38, #323, #185 ) ;
#15 = CARTESIAN_POINT ( 'NONE',  ( 0.0000000000000000000, 0.0000000000000000000, 0.0000000000000000000 ) ) ;
#16 = CARTESIAN_POINT ( 'NONE',  ( 8.572527594031475200E-016, 31.50000000000000000, 7.000000000000001800 ) ) ;
#17 = CARTESIAN_POINT ( 'NONE',  ( 9.797174393178833500E-016, 4.500000000000000000, 8.000000000000005300 ) ) ;
#18 = DIRECTION ( 'NONE',  ( -0.0000000000000000000, -1.000000000000000000, -0.0000000000000000000 ) ) ;
#19 = ORIENTED_EDGE ( 'NONE', *, *, #285, .F. ) ;
#20 = CARTESIAN_POINT ( 'NONE',  ( 0.0000000000000000000, 31.50000000000000000, 0.0000000000000000000 ) ) ;
#21 =( NAMED_UNIT ( * ) PLANE_ANGLE_UNIT ( ) SI_UNIT ( $, .RADIAN. ) );
#22 = AXIS2_PLACEMENT_3D ( 'NONE', #325, #239, #214 ) ;
#23 = DIRECTION ( 'NONE',  ( 0.0000000000000000000, 0.0000000000000000000, -1.000000000000000000 ) ) ;
#24 = CYLINDRICAL_SURFACE ( 'NONE', #310, 8.000000000000005300 ) ;
#25 = ORIENTED_EDGE ( 'NONE', *, *, #88, .F. ) ;
#26 = EDGE_CURVE ( 'NONE', #311, #298, #202, .T. ) ;
#27 = VERTEX_POINT ( 'NONE', #158 ) ;
#28 = EDGE_CURVE ( 'NONE', #27, #44, #374, .T. ) ;
#29 = CYLINDRICAL_SURFACE ( 'NONE', #22, 8.000000000000000000 ) ;
#30 = VERTEX_POINT ( 'NONE', #336 ) ;
#31 = DIRECTION ( 'NONE',  ( 0.0000000000000000000, 0.0000000000000000000, -1.000000000000000000 ) ) ;
#32 = DIRECTION ( 'NONE',  ( -0.0000000000000000000, -1.000000000000000000, -0.0000000000000000000 ) ) ;
#33 = UNCERTAINTY_MEASURE_WITH_UNIT (LENGTH_MEASURE( 1.000000000000000100E-005 ), #248, 'distance_accuracy_value', 'NONE');
#34 = FACE_OUTER_BOUND ( 'NONE', #226, .T. ) ;
#35 = EDGE_LOOP ( 'NONE', ( #286, #93 ) ) ;
#36 = ORIENTED_EDGE ( 'NONE', *, *, #256, .T. ) ;
#37 =( GEOMETRIC_REPRESENTATION_CONTEXT ( 3 ) GLOBAL_UNCERTAINTY_ASSIGNED_CONTEXT ( ( #168 ) ) GLOBAL_UNIT_ASSIGNED_CONTEXT ( ( #300, #167, #303 ) ) REPRESENTATION_CONTEXT ( 'NONE', 'WORKASPACE' ) );
#38 = CARTESIAN_POINT ( 'NONE',  ( 0.0000000000000000000, 0.0000000000000000000, 0.0000000000000000000 ) ) ;
#39 = DIRECTION ( 'NONE',  ( 0.0000000000000000000, 0.0000000000000000000, -1.000000000000000000 ) ) ;
#40 = EDGE_LOOP ( 'NONE', ( #238, #206 ) ) ;
#41 =( GEOMETRIC_REPRESENTATION_CONTEXT ( 3 ) GLOBAL_UNCERTAINTY_ASSIGNED_CONTEXT ( ( #33 ) ) GLOBAL_UNIT_ASSIGNED_CONTEXT ( ( #248, #21, #162 ) ) REPRESENTATION_CONTEXT ( 'NONE', 'WORKASPACE' ) );
#42 = DIRECTION ( 'NONE',  ( -0.0000000000000000000, -1.000000000000000000, -0.0000000000000000000 ) ) ;
#43 = VECTOR ( 'NONE', #189, 1000.000000000000000 ) ;
#44 = VERTEX_POINT ( 'NONE', #17 ) ;
#45 = DIRECTION ( 'NONE',  ( -0.0000000000000000000, -1.000000000000000000, -0.0000000000000000000 ) ) ;
#46 = EDGE_LOOP ( 'NONE', ( #369, #333 ) ) ;
#47 = FILL_AREA_STYLE_COLOUR ( '', #153 ) ;
#48 = DIRECTION ( 'NONE',  ( -0.0000000000000000000, -1.000000000000000000, -0.0000000000000000000 ) ) ;
#49 = PLANE ( 'NONE',  #324 ) ;
#50 =( NAMED_UNIT ( * ) SI_UNIT ( $, .STERADIAN. ) SOLID_ANGLE_UNIT ( ) );
#51 = DIRECTION ( 'NONE',  ( -0.0000000000000000000, -1.000000000000000000, -0.0000000000000000000 ) ) ;
#52 = SURFACE_STYLE_FILL_AREA ( #365 ) ;
#53 = EDGE_CURVE ( 'NONE', #99, #6, #183, .T. ) ;
#54 = PRESENTATION_STYLE_ASSIGNMENT (( #111 ) ) ;
#55 = DIRECTION ( 'NONE',  ( -0.0000000000000000000, -1.000000000000000000, -0.0000000000000000000 ) ) ;
#56 = SURFACE_STYLE_USAGE ( .BOTH. , #137 ) ;
#57 = CARTESIAN_POINT ( 'NONE',  ( 8.572527594031476100E-016, 0.0000000000000000000, 7.000000000000003600 ) ) ;
#58 = ADVANCED_FACE ( 'NONE', ( #127, #266 ), #49, .T. ) ;
#59 = ADVANCED_FACE ( 'NONE', ( #92 ), #5, .F. ) ;
#60 =( GEOMETRIC_REPRESENTATION_CONTEXT ( 3 ) GLOBAL_UNCERTAINTY_ASSIGNED_CONTEXT ( ( #3 ) ) GLOBAL_UNIT_ASSIGNED_CONTEXT ( ( #194, #307, #50 ) ) REPRESENTATION_CONTEXT ( 'NONE', 'WORKASPACE' ) );
#61 = FACE_OUTER_BOUND ( 'NONE', #357, .T. ) ;
#62 = ORIENTED_EDGE ( 'NONE', *, *, #228, .F. ) ;
#63 = EDGE_CURVE ( 'NONE', #6, #99, #82, .T. ) ;
#64 = ORIENTED_EDGE ( 'NONE', *, *, #88, .T. ) ;
#65 = AXIS2_PLACEMENT_3D ( 'NONE', #78, #358, #39 ) ;
#66 = FACE_BOUND ( 'NONE', #154, .T. ) ;
#67 = ORIENTED_EDGE ( 'NONE', *, *, #10, .F. ) ;
#68 = MANIFOLD_SOLID_BREP ( 'Révolution1', #166 ) ;
#69 = DIRECTION ( 'NONE',  ( 0.0000000000000000000, 0.0000000000000000000, -1.000000000000000000 ) ) ;
#70 = CARTESIAN_POINT ( 'NONE',  ( 8.000000000000005300, 0.0000000000000000000, 0.0000000000000000000 ) ) ;
#71 = ORIENTED_EDGE ( 'NONE', *, *, #135, .F. ) ;
#72 = ORIENTED_EDGE ( 'NONE', *, *, #26, .F. ) ;
#73 = DIRECTION ( 'NONE',  ( 0.0000000000000000000, -0.0000000000000000000, 1.000000000000000000 ) ) ;
#74 = EDGE_CURVE ( 'NONE', #44, #27, #370, .T. ) ;
#75 = CARTESIAN_POINT ( 'NONE',  ( 7.000000000000005300, 4.500000000000000000, 0.0000000000000000000 ) ) ;
#76 = CARTESIAN_POINT ( 'NONE',  ( 9.797174393178825700E-016, 36.00000000000000000, 8.000000000000000000 ) ) ;
#77 = FACE_OUTER_BOUND ( 'NONE', #110, .T. ) ;
#78 = CARTESIAN_POINT ( 'NONE',  ( 0.0000000000000000000, 4.500000000000000000, 0.0000000000000000000 ) ) ;
#79 = DIRECTION ( 'NONE',  ( 0.0000000000000000000, 0.0000000000000000000, 1.000000000000000000 ) ) ;
#80 = AXIS2_PLACEMENT_3D ( 'NONE', #20, #86, #283 ) ;
#81 = SURFACE_SIDE_STYLE ('',( #292 ) ) ;
#82 = CIRCLE ( 'NONE', #177, 10.00000000000000000 ) ;
#83 = ORIENTED_EDGE ( 'NONE', *, *, #224, .T. ) ;
#84 = DIRECTION ( 'NONE',  ( 0.0000000000000000000, 0.0000000000000000000, -1.000000000000000000 ) ) ;
#85 = AXIS2_PLACEMENT_3D ( 'NONE', #107, #328, #106 ) ;
#86 = DIRECTION ( 'NONE',  ( -0.0000000000000000000, -1.000000000000000000, -0.0000000000000000000 ) ) ;
#87 = CIRCLE ( 'NONE', #263, 10.00000000000000000 ) ;
#88 = EDGE_CURVE ( 'NONE', #298, #211, #147, .T. ) ;
#89 = CARTESIAN_POINT ( 'NONE',  ( 0.0000000000000000000, 31.50000000000000000, 0.0000000000000000000 ) ) ;
#90 = ORIENTED_EDGE ( 'NONE', *, *, #231, .T. ) ;
#91 = CIRCLE ( 'NONE', #179, 10.00000000000000000 ) ;
#92 = FACE_OUTER_BOUND ( 'NONE', #280, .T. ) ;
#93 = ORIENTED_EDGE ( 'NONE', *, *, #187, .F. ) ;
#94 = AXIS2_PLACEMENT_3D ( 'NONE', #241, #195, #23 ) ;
#95 = VECTOR ( 'NONE', #51, 1000.000000000000000 ) ;
#96 = VERTEX_POINT ( 'NONE', #221 ) ;
#97 = AXIS2_PLACEMENT_3D ( 'NONE', #282, #79, #244 ) ;
#98 = VECTOR ( 'NONE', #45, 1000.000000000000000 ) ;
#99 = VERTEX_POINT ( 'NONE', #278 ) ;
#100 = AXIS2_PLACEMENT_3D ( 'NONE', #337, #55, #339 ) ;
#101 = DIRECTION ( 'NONE',  ( 0.0000000000000000000, 1.000000000000000000, 0.0000000000000000000 ) ) ;
#102 = PRODUCT_DEFINITION_SHAPE ( 'NONE', 'NONE',  #117 ) ;
#103 = DIRECTION ( 'NONE',  ( -0.0000000000000000000, -1.000000000000000000, -0.0000000000000000000 ) ) ;
#104 = AXIS2_PLACEMENT_3D ( 'NONE', #1, #32, #69 ) ;
#105 = LINE ( 'NONE', #261, #233 ) ;
#106 = DIRECTION ( 'NONE',  ( 0.0000000000000000000, 0.0000000000000000000, -1.000000000000000000 ) ) ;
#107 = CARTESIAN_POINT ( 'NONE',  ( 0.0000000000000000000, 0.0000000000000000000, 0.0000000000000000000 ) ) ;
#108 = CIRCLE ( 'NONE', #157, 7.000000000000005300 ) ;
#109 = ORIENTED_EDGE ( 'NONE', *, *, #354, .F. ) ;
#110 = EDGE_LOOP ( 'NONE', ( #191, #255 ) ) ;
#111 = SURFACE_STYLE_USAGE ( .BOTH. , #81 ) ;
#112 = DIRECTION ( 'NONE',  ( -0.0000000000000000000, -1.000000000000000000, -0.0000000000000000000 ) ) ;
#113 = EDGE_CURVE ( 'NONE', #30, #242, #249, .T. ) ;
#114 = CYLINDRICAL_SURFACE ( 'NONE', #367, 7.000000000000003600 ) ;
#115 = CARTESIAN_POINT ( 'NONE',  ( 0.0000000000000000000, 36.00000000000000000, -8.000000000000000000 ) ) ;
#116 = DIRECTION ( 'NONE',  ( -0.0000000000000000000, -1.000000000000000000, -0.0000000000000000000 ) ) ;
#117 = PRODUCT_DEFINITION ( 'UNKNOWN', '', #131, #366 ) ;
#118 = PRESENTATION_STYLE_ASSIGNMENT (( #56 ) ) ;
#119 = LINE ( 'NONE', #290, #159 ) ;
#120 = LINE ( 'NONE', #269, #253 ) ;
#121 = EDGE_CURVE ( 'NONE', #298, #311, #175, .T. ) ;
#122 = AXIS2_PLACEMENT_3D ( 'NONE', #15, #42, #275 ) ;
#123 = ORIENTED_EDGE ( 'NONE', *, *, #306, .T. ) ;
#124 = CARTESIAN_POINT ( 'NONE',  ( 8.000000000000001800, 31.50000000000000000, 0.0000000000000000000 ) ) ;
#125 = DIRECTION ( 'NONE',  ( -0.0000000000000000000, -1.000000000000000000, -0.0000000000000000000 ) ) ;
#126 = CARTESIAN_POINT ( 'NONE',  ( 0.0000000000000000000, 0.0000000000000000000, 0.0000000000000000000 ) ) ;
#127 = FACE_BOUND ( 'NONE', #46, .T. ) ;
#128 = EDGE_CURVE ( 'NONE', #351, #287, #309, .T. ) ;
#129 = CARTESIAN_POINT ( 'NONE',  ( 0.0000000000000000000, 36.00000000000000000, 0.0000000000000000000 ) ) ;
#130 = CARTESIAN_POINT ( 'NONE',  ( 0.0000000000000000000, 0.0000000000000000000, -8.000000000000000000 ) ) ;
#131 = PRODUCT_DEFINITION_FORMATION_WITH_SPECIFIED_SOURCE ( 'ANY', '', #192, .NOT_KNOWN. ) ;
#132 = CYLINDRICAL_SURFACE ( 'NONE', #14, 7.000000000000003600 ) ;
#133 = ORIENTED_EDGE ( 'NONE', *, *, #28, .F. ) ;
#134 = CARTESIAN_POINT ( 'NONE',  ( 0.0000000000000000000, 31.50000000000000000, -8.000000000000001800 ) ) ;
#135 = EDGE_CURVE ( 'NONE', #144, #96, #87, .T. ) ;
#136 = ORIENTED_EDGE ( 'NONE', *, *, #63, .F. ) ;
#137 = SURFACE_SIDE_STYLE ('',( #52 ) ) ;
#138 = ADVANCED_FACE ( 'NONE', ( #338 ), #297, .T. ) ;
#139 = APPLICATION_PROTOCOL_DEFINITION ( 'draft international standard', 'automotive_design', 1998, #281 ) ;
#140 = DIRECTION ( 'NONE',  ( 0.0000000000000000000, 0.0000000000000000000, -1.000000000000000000 ) ) ;
#141 = CIRCLE ( 'NONE', #104, 8.000000000000001800 ) ;
#142 = ORIENTED_EDGE ( 'NONE', *, *, #28, .T. ) ;
#143 = EDGE_LOOP ( 'NONE', ( #142, #219 ) ) ;
#144 = VERTEX_POINT ( 'NONE', #151 ) ;
#145 = EDGE_CURVE ( 'NONE', #27, #30, #105, .T. ) ;
#146 = ADVANCED_FACE ( 'NONE', ( #77, #11 ), #184, .T. ) ;
#147 = LINE ( 'NONE', #57, #95 ) ;
#148 = CARTESIAN_POINT ( 'NONE',  ( 0.0000000000000000000, 31.50000000000000000, 0.0000000000000000000 ) ) ;
#149 = ORIENTED_EDGE ( 'NONE', *, *, #113, .T. ) ;
#150 = AXIS2_PLACEMENT_3D ( 'NONE', #7, #262, #2 ) ;
#151 = CARTESIAN_POINT ( 'NONE',  ( 1.224646799147353300E-015, 36.00000000000000000, 10.00000000000000000 ) ) ;
#152 = AXIS2_PLACEMENT_3D ( 'NONE', #360, #246, #218 ) ;
#153 = COLOUR_RGB ( '',0.7921568627450980000, 0.8196078431372548800, 0.9333333333333333500 ) ;
#154 = EDGE_LOOP ( 'NONE', ( #12, #350 ) ) ;
#155 = DIRECTION ( 'NONE',  ( 0.0000000000000000000, 0.0000000000000000000, -1.000000000000000000 ) ) ;
#156 = DIRECTION ( 'NONE',  ( 0.0000000000000000000, 0.0000000000000000000, -1.000000000000000000 ) ) ;
#157 = AXIS2_PLACEMENT_3D ( 'NONE', #355, #352, #272 ) ;
#158 = CARTESIAN_POINT ( 'NONE',  ( 0.0000000000000000000, 4.500000000000000000, -8.000000000000005300 ) ) ;
#159 = VECTOR ( 'NONE', #125, 1000.000000000000000 ) ;
#160 = CARTESIAN_POINT ( 'NONE',  ( 1.224646799147353300E-015, 0.0000000000000000000, 10.00000000000000000 ) ) ;
#161 = DIRECTION ( 'NONE',  ( 0.0000000000000000000, 1.000000000000000000, 0.0000000000000000000 ) ) ;
#162 =( NAMED_UNIT ( * ) SI_UNIT ( $, .STERADIAN. ) SOLID_ANGLE_UNIT ( ) );
#163 = FACE_OUTER_BOUND ( 'NONE', #216, .T. ) ;
#164 = ORIENTED_EDGE ( 'NONE', *, *, #203, .T. ) ;
#165 = APPLICATION_PROTOCOL_DEFINITION ( 'draft international standard', 'automotive_design', 1998, #277 ) ;
#166 = CLOSED_SHELL ( 'NONE', ( #59, #346, #173, #247, #146, #138, #58, #223, #180, #204, #251, #196 ) ) ;
#167 =( NAMED_UNIT ( * ) PLANE_ANGLE_UNIT ( ) SI_UNIT ( $, .RADIAN. ) );
#168 = UNCERTAINTY_MEASURE_WITH_UNIT (LENGTH_MEASURE( 1.000000000000000100E-005 ), #300, 'distance_accuracy_value', 'NONE');
#169 = EDGE_CURVE ( 'NONE', #144, #6, #119, .T. ) ;
#170 = DIRECTION ( 'NONE',  ( 0.0000000000000000000, 0.0000000000000000000, -1.000000000000000000 ) ) ;
#171 = DIRECTION ( 'NONE',  ( 0.0000000000000000000, 0.0000000000000000000, -1.000000000000000000 ) ) ;
#172 = ORIENTED_EDGE ( 'NONE', *, *, #187, .T. ) ;
#173 = ADVANCED_FACE ( 'NONE', ( #368 ), #288, .F. ) ;
#174 = PRESENTATION_LAYER_ASSIGNMENT (  '', '', ( #213 ) ) ;
#175 = CIRCLE ( 'NONE', #344, 7.000000000000001800 ) ;
#176 = ORIENTED_EDGE ( 'NONE', *, *, #145, .T. ) ;
#177 = AXIS2_PLACEMENT_3D ( 'NONE', #359, #243, #84 ) ;
#178 = FACE_BOUND ( 'NONE', #40, .T. ) ;
#179 = AXIS2_PLACEMENT_3D ( 'NONE', #341, #48, #170 ) ;
#180 = ADVANCED_FACE ( 'NONE', ( #178, #237 ), #258, .T. ) ;
#181 = CARTESIAN_POINT ( 'NONE',  ( 0.0000000000000000000, 0.0000000000000000000, 0.0000000000000000000 ) ) ;
#182 = VECTOR ( 'NONE', #364, 1000.000000000000000 ) ;
#183 = CIRCLE ( 'NONE', #100, 10.00000000000000000 ) ;
#184 = PLANE ( 'NONE',  #271 ) ;
#185 = DIRECTION ( 'NONE',  ( 0.0000000000000000000, 0.0000000000000000000, -1.000000000000000000 ) ) ;
#186 = PLANE ( 'NONE',  #198 ) ;
#187 = EDGE_CURVE ( 'NONE', #293, #340, #373, .T. ) ;
#188 = ORIENTED_EDGE ( 'NONE', *, *, #135, .T. ) ;
#189 = DIRECTION ( 'NONE',  ( -0.0000000000000000000, -1.000000000000000000, -0.0000000000000000000 ) ) ;
#190 = AXIS2_PLACEMENT_3D ( 'NONE', #129, #18, #301 ) ;
#191 = ORIENTED_EDGE ( 'NONE', *, *, #53, .T. ) ;
#192 = PRODUCT ( 'AV2_P1_USI_RF005', 'AV2_P1_USI_RF005', '', ( #197 ) ) ;
#193 = STYLED_ITEM ( 'NONE', ( #54 ), #68 ) ;
#194 =( LENGTH_UNIT ( ) NAMED_UNIT ( * ) SI_UNIT ( .MILLI., .METRE. ) );
#195 = DIRECTION ( 'NONE',  ( -0.0000000000000000000, -1.000000000000000000, -0.0000000000000000000 ) ) ;
#196 = ADVANCED_FACE ( 'NONE', ( #215 ), #24, .F. ) ;
#197 = PRODUCT_CONTEXT ( 'NONE', #281, 'mechanical' ) ;
#198 = AXIS2_PLACEMENT_3D ( 'NONE', #75, #212, #156 ) ;
#199 = DIRECTION ( 'NONE',  ( -0.0000000000000000000, -1.000000000000000000, -0.0000000000000000000 ) ) ;
#200 = CIRCLE ( 'NONE', #190, 8.000000000000000000 ) ;
#201 = EDGE_LOOP ( 'NONE', ( #25, #72, #343, #123 ) ) ;
#202 = CIRCLE ( 'NONE', #80, 7.000000000000001800 ) ;
#203 = EDGE_CURVE ( 'NONE', #340, #293, #141, .T. ) ;
#204 = ADVANCED_FACE ( 'NONE', ( #316 ), #132, .F. ) ;
#205 = LINE ( 'NONE', #236, #43 ) ;
#206 = ORIENTED_EDGE ( 'NONE', *, *, #121, .T. ) ;
#207 = DIRECTION ( 'NONE',  ( -0.0000000000000000000, -1.000000000000000000, -0.0000000000000000000 ) ) ;
#208 = CARTESIAN_POINT ( 'NONE',  ( 0.0000000000000000000, 36.00000000000000000, 0.0000000000000000000 ) ) ;
#209 = PRESENTATION_LAYER_ASSIGNMENT (  '', '', ( #193 ) ) ;
#210 = ORIENTED_EDGE ( 'NONE', *, *, #256, .F. ) ;
#211 = VERTEX_POINT ( 'NONE', #13 ) ;
#212 = DIRECTION ( 'NONE',  ( 0.0000000000000000000, -1.000000000000000000, -0.0000000000000000000 ) ) ;
#213 = STYLED_ITEM ( 'NONE', ( #118 ), #295 ) ;
#214 = DIRECTION ( 'NONE',  ( 0.0000000000000000000, 0.0000000000000000000, -1.000000000000000000 ) ) ;
#215 = FACE_OUTER_BOUND ( 'NONE', #334, .T. ) ;
#216 = EDGE_LOOP ( 'NONE', ( #302, #64, #83, #109 ) ) ;
#217 = CARTESIAN_POINT ( 'NONE',  ( 9.797174393178833500E-016, 0.0000000000000000000, 8.000000000000005300 ) ) ;
#218 = DIRECTION ( 'NONE',  ( 0.0000000000000000000, 0.0000000000000000000, -1.000000000000000000 ) ) ;
#219 = ORIENTED_EDGE ( 'NONE', *, *, #74, .T. ) ;
#220 = FILL_AREA_STYLE_COLOUR ( '', #225 ) ;
#221 = CARTESIAN_POINT ( 'NONE',  ( 0.0000000000000000000, 36.00000000000000000, -10.00000000000000000 ) ) ;
#222 = DIRECTION ( 'NONE',  ( 0.0000000000000000000, 0.0000000000000000000, -1.000000000000000000 ) ) ;
#223 = ADVANCED_FACE ( 'NONE', ( #34 ), #29, .F. ) ;
#224 = EDGE_CURVE ( 'NONE', #211, #284, #108, .T. ) ;
#225 = COLOUR_RGB ( '',0.7921568627450980000, 0.8196078431372548800, 0.9333333333333333500 ) ;
#226 = EDGE_LOOP ( 'NONE', ( #19, #314, #90, #164 ) ) ;
#227 = AXIS2_PLACEMENT_3D ( 'NONE', #279, #112, #305 ) ;
#228 = EDGE_CURVE ( 'NONE', #242, #30, #252, .T. ) ;
#229 = MECHANICAL_DESIGN_GEOMETRIC_PRESENTATION_REPRESENTATION (  '', ( #213 ), #41 ) ;
#230 = PRODUCT_RELATED_PRODUCT_CATEGORY ( 'part', '', ( #192 ) ) ;
#231 = EDGE_CURVE ( 'NONE', #351, #340, #347, .T. ) ;
#232 = DIRECTION ( 'NONE',  ( 0.0000000000000000000, 0.0000000000000000000, -1.000000000000000000 ) ) ;
#233 = VECTOR ( 'NONE', #322, 1000.000000000000000 ) ;
#234 = EDGE_LOOP ( 'NONE', ( #315, #188, #320, #136 ) ) ;
#235 = MECHANICAL_DESIGN_GEOMETRIC_PRESENTATION_REPRESENTATION (  '', ( #193 ), #37 ) ;
#236 = CARTESIAN_POINT ( 'NONE',  ( 9.797174393178825700E-016, 0.0000000000000000000, 8.000000000000000000 ) ) ;
#237 = FACE_OUTER_BOUND ( 'NONE', #35, .T. ) ;
#238 = ORIENTED_EDGE ( 'NONE', *, *, #26, .T. ) ;
#239 = DIRECTION ( 'NONE',  ( -0.0000000000000000000, -1.000000000000000000, -0.0000000000000000000 ) ) ;
#240 = CARTESIAN_POINT ( 'NONE',  ( 0.0000000000000000000, 4.500000000000000000, -7.000000000000005300 ) ) ;
#241 = CARTESIAN_POINT ( 'NONE',  ( 0.0000000000000000000, 0.0000000000000000000, 0.0000000000000000000 ) ) ;
#242 = VERTEX_POINT ( 'NONE', #217 ) ;
#243 = DIRECTION ( 'NONE',  ( -0.0000000000000000000, -1.000000000000000000, -0.0000000000000000000 ) ) ;
#244 = DIRECTION ( 'NONE',  ( 1.000000000000000000, 0.0000000000000000000, 0.0000000000000000000 ) ) ;
#245 = AXIS2_PLACEMENT_3D ( 'NONE', #208, #103, #232 ) ;
#246 = DIRECTION ( 'NONE',  ( -0.0000000000000000000, -1.000000000000000000, -0.0000000000000000000 ) ) ;
#247 = ADVANCED_FACE ( 'NONE', ( #61 ), #332, .T. ) ;
#248 =( LENGTH_UNIT ( ) NAMED_UNIT ( * ) SI_UNIT ( .MILLI., .METRE. ) );
#249 = CIRCLE ( 'NONE', #8, 8.000000000000005300 ) ;
#250 = CARTESIAN_POINT ( 'NONE',  ( 0.0000000000000000000, 0.0000000000000000000, -7.000000000000003600 ) ) ;
#251 = ADVANCED_FACE ( 'NONE', ( #313, #66 ), #186, .T. ) ;
#252 = CIRCLE ( 'NONE', #85, 8.000000000000005300 ) ;
#253 = VECTOR ( 'NONE', #296, 1000.000000000000000 ) ;
#254 = LINE ( 'NONE', #331, #98 ) ;
#255 = ORIENTED_EDGE ( 'NONE', *, *, #63, .T. ) ;
#256 = EDGE_CURVE ( 'NONE', #44, #242, #254, .T. ) ;
#257 = DIRECTION ( 'NONE',  ( 0.0000000000000000000, 0.0000000000000000000, -1.000000000000000000 ) ) ;
#258 = PLANE ( 'NONE',  #353 ) ;
#259 = ORIENTED_EDGE ( 'NONE', *, *, #326, .F. ) ;
#260 = ORIENTED_EDGE ( 'NONE', *, *, #362, .T. ) ;
#261 = CARTESIAN_POINT ( 'NONE',  ( 0.0000000000000000000, 0.0000000000000000000, -8.000000000000005300 ) ) ;
#262 = DIRECTION ( 'NONE',  ( -0.0000000000000000000, -1.000000000000000000, -0.0000000000000000000 ) ) ;
#263 = AXIS2_PLACEMENT_3D ( 'NONE', #319, #207, #257 ) ;
#264 = DIRECTION ( 'NONE',  ( 0.0000000000000000000, 0.0000000000000000000, -1.000000000000000000 ) ) ;
#265 = SHAPE_DEFINITION_REPRESENTATION ( #102, #295 ) ;
#266 = FACE_OUTER_BOUND ( 'NONE', #321, .T. ) ;
#267 = ORIENTED_EDGE ( 'NONE', *, *, #362, .F. ) ;
#268 = CARTESIAN_POINT ( 'NONE',  ( 0.0000000000000000000, 0.0000000000000000000, 0.0000000000000000000 ) ) ;
#269 = CARTESIAN_POINT ( 'NONE',  ( 0.0000000000000000000, 0.0000000000000000000, -10.00000000000000000 ) ) ;
#270 = DIRECTION ( 'NONE',  ( -0.0000000000000000000, -1.000000000000000000, -0.0000000000000000000 ) ) ;
#271 = AXIS2_PLACEMENT_3D ( 'NONE', #70, #294, #155 ) ;
#272 = DIRECTION ( 'NONE',  ( 0.0000000000000000000, 0.0000000000000000000, -1.000000000000000000 ) ) ;
#273 = CIRCLE ( 'NONE', #65, 7.000000000000005300 ) ;
#274 = ORIENTED_EDGE ( 'NONE', *, *, #169, .T. ) ;
#275 = DIRECTION ( 'NONE',  ( 0.0000000000000000000, 0.0000000000000000000, -1.000000000000000000 ) ) ;
#276 = FILL_AREA_STYLE ('',( #47 ) ) ;
#277 = APPLICATION_CONTEXT ( 'automotive_design' ) ;
#278 = CARTESIAN_POINT ( 'NONE',  ( 0.0000000000000000000, 0.0000000000000000000, -10.00000000000000000 ) ) ;
#279 = CARTESIAN_POINT ( 'NONE',  ( 0.0000000000000000000, 4.500000000000000000, 0.0000000000000000000 ) ) ;
#280 = EDGE_LOOP ( 'NONE', ( #304, #36, #371, #317 ) ) ;
#281 = APPLICATION_CONTEXT ( 'automotive_design' ) ;
#282 = CARTESIAN_POINT ( 'NONE',  ( 0.0000000000000000000, 0.0000000000000000000, 0.0000000000000000000 ) ) ;
#283 = DIRECTION ( 'NONE',  ( 0.0000000000000000000, 0.0000000000000000000, -1.000000000000000000 ) ) ;
#284 = VERTEX_POINT ( 'NONE', #240 ) ;
#285 = EDGE_CURVE ( 'NONE', #287, #293, #205, .T. ) ;
#286 = ORIENTED_EDGE ( 'NONE', *, *, #203, .F. ) ;
#287 = VERTEX_POINT ( 'NONE', #76 ) ;
#288 = CYLINDRICAL_SURFACE ( 'NONE', #329, 8.000000000000000000 ) ;
#289 = ORIENTED_EDGE ( 'NONE', *, *, #113, .F. ) ;
#290 = CARTESIAN_POINT ( 'NONE',  ( 1.224646799147353300E-015, 0.0000000000000000000, 10.00000000000000000 ) ) ;
#291 = DIRECTION ( 'NONE',  ( -0.0000000000000000000, -1.000000000000000000, -0.0000000000000000000 ) ) ;
#292 = SURFACE_STYLE_FILL_AREA ( #276 ) ;
#293 = VERTEX_POINT ( 'NONE', #9 ) ;
#294 = DIRECTION ( 'NONE',  ( 0.0000000000000000000, -1.000000000000000000, -0.0000000000000000000 ) ) ;
#295 = ADVANCED_BREP_SHAPE_REPRESENTATION ( 'AV2_P1_USI_RF005', ( #68, #97 ), #60 ) ;
#296 = DIRECTION ( 'NONE',  ( -0.0000000000000000000, -1.000000000000000000, -0.0000000000000000000 ) ) ;
#297 = CYLINDRICAL_SURFACE ( 'NONE', #150, 10.00000000000000000 ) ;
#298 = VERTEX_POINT ( 'NONE', #16 ) ;
#299 = CARTESIAN_POINT ( 'NONE',  ( 0.0000000000000000000, 31.50000000000000000, -7.000000000000001800 ) ) ;
#300 =( LENGTH_UNIT ( ) NAMED_UNIT ( * ) SI_UNIT ( .MILLI., .METRE. ) );
#301 = DIRECTION ( 'NONE',  ( 0.0000000000000000000, 0.0000000000000000000, -1.000000000000000000 ) ) ;
#302 = ORIENTED_EDGE ( 'NONE', *, *, #121, .F. ) ;
#303 =( NAMED_UNIT ( * ) SI_UNIT ( $, .STERADIAN. ) SOLID_ANGLE_UNIT ( ) );
#304 = ORIENTED_EDGE ( 'NONE', *, *, #74, .F. ) ;
#305 = DIRECTION ( 'NONE',  ( 0.0000000000000000000, 0.0000000000000000000, -1.000000000000000000 ) ) ;
#306 = EDGE_CURVE ( 'NONE', #284, #211, #273, .T. ) ;
#307 =( NAMED_UNIT ( * ) PLANE_ANGLE_UNIT ( ) SI_UNIT ( $, .RADIAN. ) );
#308 = CARTESIAN_POINT ( 'NONE',  ( 10.00000000000000000, 36.00000000000000000, 0.0000000000000000000 ) ) ;
#309 = CIRCLE ( 'NONE', #245, 8.000000000000000000 ) ;
#310 = AXIS2_PLACEMENT_3D ( 'NONE', #126, #349, #31 ) ;
#311 = VERTEX_POINT ( 'NONE', #299 ) ;
#312 = CARTESIAN_POINT ( 'NONE',  ( 0.0000000000000000000, 0.0000000000000000000, 0.0000000000000000000 ) ) ;
#313 = FACE_OUTER_BOUND ( 'NONE', #143, .T. ) ;
#314 = ORIENTED_EDGE ( 'NONE', *, *, #128, .F. ) ;
#315 = ORIENTED_EDGE ( 'NONE', *, *, #169, .F. ) ;
#316 = FACE_OUTER_BOUND ( 'NONE', #201, .T. ) ;
#317 = ORIENTED_EDGE ( 'NONE', *, *, #145, .F. ) ;
#318 = DIRECTION ( 'NONE',  ( -0.0000000000000000000, -1.000000000000000000, -0.0000000000000000000 ) ) ;
#319 = CARTESIAN_POINT ( 'NONE',  ( 0.0000000000000000000, 36.00000000000000000, 0.0000000000000000000 ) ) ;
#320 = ORIENTED_EDGE ( 'NONE', *, *, #10, .T. ) ;
#321 = EDGE_LOOP ( 'NONE', ( #267, #71 ) ) ;
#322 = DIRECTION ( 'NONE',  ( -0.0000000000000000000, -1.000000000000000000, -0.0000000000000000000 ) ) ;
#323 = DIRECTION ( 'NONE',  ( -0.0000000000000000000, -1.000000000000000000, -0.0000000000000000000 ) ) ;
#324 = AXIS2_PLACEMENT_3D ( 'NONE', #308, #161, #335 ) ;
#325 = CARTESIAN_POINT ( 'NONE',  ( 0.0000000000000000000, 0.0000000000000000000, 0.0000000000000000000 ) ) ;
#326 = EDGE_CURVE ( 'NONE', #287, #351, #200, .T. ) ;
#327 = EDGE_LOOP ( 'NONE', ( #289, #62 ) ) ;
#328 = DIRECTION ( 'NONE',  ( -0.0000000000000000000, -1.000000000000000000, -0.0000000000000000000 ) ) ;
#329 = AXIS2_PLACEMENT_3D ( 'NONE', #181, #318, #4 ) ;
#330 = DIRECTION ( 'NONE',  ( -0.0000000000000000000, -1.000000000000000000, -0.0000000000000000000 ) ) ;
#331 = CARTESIAN_POINT ( 'NONE',  ( 9.797174393178833500E-016, 0.0000000000000000000, 8.000000000000005300 ) ) ;
#332 = CYLINDRICAL_SURFACE ( 'NONE', #122, 10.00000000000000000 ) ;
#333 = ORIENTED_EDGE ( 'NONE', *, *, #326, .T. ) ;
#334 = EDGE_LOOP ( 'NONE', ( #210, #133, #176, #149 ) ) ;
#335 = DIRECTION ( 'NONE',  ( 0.0000000000000000000, -0.0000000000000000000, 1.000000000000000000 ) ) ;
#336 = CARTESIAN_POINT ( 'NONE',  ( 0.0000000000000000000, 0.0000000000000000000, -8.000000000000005300 ) ) ;
#337 = CARTESIAN_POINT ( 'NONE',  ( 0.0000000000000000000, 0.0000000000000000000, 0.0000000000000000000 ) ) ;
#338 = FACE_OUTER_BOUND ( 'NONE', #234, .T. ) ;
#339 = DIRECTION ( 'NONE',  ( 0.0000000000000000000, 0.0000000000000000000, -1.000000000000000000 ) ) ;
#340 = VERTEX_POINT ( 'NONE', #134 ) ;
#341 = CARTESIAN_POINT ( 'NONE',  ( 0.0000000000000000000, 36.00000000000000000, 0.0000000000000000000 ) ) ;
#342 = LINE ( 'NONE', #250, #182 ) ;
#343 = ORIENTED_EDGE ( 'NONE', *, *, #354, .T. ) ;
#344 = AXIS2_PLACEMENT_3D ( 'NONE', #89, #116, #140 ) ;
#345 = ORIENTED_EDGE ( 'NONE', *, *, #285, .T. ) ;
#346 = ADVANCED_FACE ( 'NONE', ( #163 ), #114, .F. ) ;
#347 = LINE ( 'NONE', #130, #356 ) ;
#348 = ORIENTED_EDGE ( 'NONE', *, *, #53, .F. ) ;
#349 = DIRECTION ( 'NONE',  ( -0.0000000000000000000, -1.000000000000000000, -0.0000000000000000000 ) ) ;
#350 = ORIENTED_EDGE ( 'NONE', *, *, #224, .F. ) ;
#351 = VERTEX_POINT ( 'NONE', #115 ) ;
#352 = DIRECTION ( 'NONE',  ( -0.0000000000000000000, -1.000000000000000000, -0.0000000000000000000 ) ) ;
#353 = AXIS2_PLACEMENT_3D ( 'NONE', #124, #101, #73 ) ;
#354 = EDGE_CURVE ( 'NONE', #311, #284, #342, .T. ) ;
#355 = CARTESIAN_POINT ( 'NONE',  ( 0.0000000000000000000, 4.500000000000000000, 0.0000000000000000000 ) ) ;
#356 = VECTOR ( 'NONE', #330, 1000.000000000000000 ) ;
#357 = EDGE_LOOP ( 'NONE', ( #260, #274, #348, #67 ) ) ;
#358 = DIRECTION ( 'NONE',  ( -0.0000000000000000000, -1.000000000000000000, -0.0000000000000000000 ) ) ;
#359 = CARTESIAN_POINT ( 'NONE',  ( 0.0000000000000000000, 0.0000000000000000000, 0.0000000000000000000 ) ) ;
#360 = CARTESIAN_POINT ( 'NONE',  ( 0.0000000000000000000, 4.500000000000000000, 0.0000000000000000000 ) ) ;
#361 = EDGE_LOOP ( 'NONE', ( #259, #345, #172, #363 ) ) ;
#362 = EDGE_CURVE ( 'NONE', #96, #144, #91, .T. ) ;
#363 = ORIENTED_EDGE ( 'NONE', *, *, #231, .F. ) ;
#364 = DIRECTION ( 'NONE',  ( -0.0000000000000000000, -1.000000000000000000, -0.0000000000000000000 ) ) ;
#365 = FILL_AREA_STYLE ('',( #220 ) ) ;
#366 = PRODUCT_DEFINITION_CONTEXT ( 'detailed design', #277, 'design' ) ;
#367 = AXIS2_PLACEMENT_3D ( 'NONE', #268, #270, #222 ) ;
#368 = FACE_OUTER_BOUND ( 'NONE', #361, .T. ) ;
#369 = ORIENTED_EDGE ( 'NONE', *, *, #128, .T. ) ;
#370 = CIRCLE ( 'NONE', #227, 8.000000000000005300 ) ;
#371 = ORIENTED_EDGE ( 'NONE', *, *, #228, .T. ) ;
#372 = AXIS2_PLACEMENT_3D ( 'NONE', #148, #291, #264 ) ;
#373 = CIRCLE ( 'NONE', #372, 8.000000000000001800 ) ;
#374 = CIRCLE ( 'NONE', #152, 8.000000000000005300 ) ;
ENDSEC;
END-ISO-10303-21;
