ISO-10303-21;
HEADER;
FILE_DESCRIPTION(('CATIA V5 STEP Exchange'),'2;1');

FILE_NAME('D:\\Piece 3D\\Embout main courante\\Embout main courante.stp','2021-01-31T17:57:45+00:00',('none'),('none'),'CATIA Version 5 Release 20 GA (IN-10)','CATIA V5 STEP AP203','none');

FILE_SCHEMA(('CONFIG_CONTROL_DESIGN'));

ENDSEC;
/* file written by CATIA V5R20 */
DATA;
#5=PRODUCT('Pi\X2\00E8\X0\ce1','','',(#2)) ;
#1=APPLICATION_CONTEXT('configuration controlled 3D design of mechanical parts and assemblies') ;
#14=PRODUCT_DEFINITION('',' ',#6,#3) ;
#16=SECURITY_CLASSIFICATION(' ',' ',#15) ;
#15=SECURITY_CLASSIFICATION_LEVEL('unclassified') ;
#47=CARTESIAN_POINT(' ',(0.,0.,0.)) ;
#52=CARTESIAN_POINT('Axis2P3D Location',(2.9,-25.5,0.)) ;
#57=CARTESIAN_POINT('Line Origine',(1.5,-23.65707662,-1.00679363107)) ;
#61=CARTESIAN_POINT('Vertex',(-4.4408920985E-016,-23.65707662,-1.00679363107)) ;
#63=CARTESIAN_POINT('Vertex',(3.,-23.65707662,-1.00679363107)) ;
#66=CARTESIAN_POINT('Axis2P3D Location',(0.,-25.5,0.)) ;
#70=CARTESIAN_POINT('Vertex',(-4.4408920985E-016,-27.34292338,1.00679363107)) ;
#73=CARTESIAN_POINT('Line Origine',(1.5,-27.34292338,1.00679363107)) ;
#77=CARTESIAN_POINT('Vertex',(3.,-27.34292338,1.00679363107)) ;
#80=CARTESIAN_POINT('Axis2P3D Location',(3.,-25.5,0.)) ;
#92=CARTESIAN_POINT('Axis2P3D Location',(3.,0.,0.)) ;
#97=CARTESIAN_POINT('Axis2P3D Location',(3.,-15.,0.)) ;
#101=CARTESIAN_POINT('Vertex',(3.,-15.,15.)) ;
#103=CARTESIAN_POINT('Vertex',(3.,-15.,-15.)) ;
#106=CARTESIAN_POINT('Line Origine',(3.,0.,-15.)) ;
#110=CARTESIAN_POINT('Vertex',(3.,15.,-15.)) ;
#113=CARTESIAN_POINT('Axis2P3D Location',(3.,15.,0.)) ;
#117=CARTESIAN_POINT('Vertex',(3.,15.,15.)) ;
#120=CARTESIAN_POINT('Line Origine',(3.,0.,15.)) ;
#131=CARTESIAN_POINT('Axis2P3D Location',(3.,-25.5,0.)) ;
#140=CARTESIAN_POINT('Axis2P3D Location',(3.,25.5,-4.4408920985E-016)) ;
#144=CARTESIAN_POINT('Vertex',(3.,23.65707662,1.00679363107)) ;
#146=CARTESIAN_POINT('Vertex',(3.,27.34292338,-1.00679363107)) ;
#149=CARTESIAN_POINT('Axis2P3D Location',(3.,25.5,1.33226762955E-015)) ;
#158=CARTESIAN_POINT('Axis2P3D Location',(3.,0.,0.)) ;
#162=CARTESIAN_POINT('Vertex',(3.,-2.25,2.7553642961E-016)) ;
#164=CARTESIAN_POINT('Vertex',(3.,2.25,0.)) ;
#167=CARTESIAN_POINT('Axis2P3D Location',(3.,0.,0.)) ;
#177=CARTESIAN_POINT('Axis2P3D Location',(0.,-25.5,0.)) ;
#189=CARTESIAN_POINT('Axis2P3D Location',(1.5,-15.,0.)) ;
#194=CARTESIAN_POINT('Line Origine',(1.5,-15.,15.)) ;
#198=CARTESIAN_POINT('Vertex',(0.,-15.,15.)) ;
#201=CARTESIAN_POINT('Axis2P3D Location',(0.,-15.,0.)) ;
#205=CARTESIAN_POINT('Vertex',(0.,-15.,-15.)) ;
#208=CARTESIAN_POINT('Line Origine',(1.5,-15.,-15.)) ;
#220=CARTESIAN_POINT('Axis2P3D Location',(0.,15.,-15.)) ;
#225=CARTESIAN_POINT('Line Origine',(0.,0.,-15.)) ;
#229=CARTESIAN_POINT('Vertex',(0.,15.,-15.)) ;
#232=CARTESIAN_POINT('Line Origine',(1.5,15.,-15.)) ;
#244=CARTESIAN_POINT('Axis2P3D Location',(1.5,15.,0.)) ;
#249=CARTESIAN_POINT('Axis2P3D Location',(0.,15.,0.)) ;
#253=CARTESIAN_POINT('Vertex',(0.,15.,15.)) ;
#256=CARTESIAN_POINT('Line Origine',(1.5,15.,15.)) ;
#268=CARTESIAN_POINT('Axis2P3D Location',(0.,-15.,15.)) ;
#273=CARTESIAN_POINT('Line Origine',(0.,0.,15.)) ;
#285=CARTESIAN_POINT('Axis2P3D Location',(1.5,0.,0.)) ;
#290=CARTESIAN_POINT('Line Origine',(1.5,-2.25,2.7553642961E-016)) ;
#294=CARTESIAN_POINT('Vertex',(0.,-2.25,2.7553642961E-016)) ;
#297=CARTESIAN_POINT('Axis2P3D Location',(0.,0.,0.)) ;
#301=CARTESIAN_POINT('Vertex',(0.,2.25,0.)) ;
#304=CARTESIAN_POINT('Line Origine',(1.5,2.25,0.)) ;
#316=CARTESIAN_POINT('Axis2P3D Location',(0.,0.,0.)) ;
#328=CARTESIAN_POINT('Axis2P3D Location',(2.9,25.5,0.)) ;
#333=CARTESIAN_POINT('Line Origine',(1.5,23.65707662,1.00679363107)) ;
#337=CARTESIAN_POINT('Vertex',(-4.4408920985E-016,23.65707662,1.00679363107)) ;
#340=CARTESIAN_POINT('Axis2P3D Location',(0.,25.5,0.)) ;
#344=CARTESIAN_POINT('Vertex',(-4.4408920985E-016,27.34292338,-1.00679363107)) ;
#347=CARTESIAN_POINT('Line Origine',(1.5,27.34292338,-1.00679363107)) ;
#359=CARTESIAN_POINT('Axis2P3D Location',(0.,25.5,0.)) ;
#371=CARTESIAN_POINT('Axis2P3D Location',(0.,0.,0.)) ;
#398=CARTESIAN_POINT('Esquisse.2',(3.,25.5,0.)) ;
#402=CARTESIAN_POINT('Esquisse.2',(3.,-25.5,0.)) ;
#53=DIRECTION('Axis2P3D Direction',(-1.,0.,0.)) ;
#54=DIRECTION('Axis2P3D XDirection',(-0.,-0.87758256189,0.479425538604)) ;
#58=DIRECTION('Vector Direction',(-1.,0.,0.)) ;
#67=DIRECTION('Axis2P3D Direction',(-1.,0.,0.)) ;
#74=DIRECTION('Vector Direction',(-1.,0.,0.)) ;
#81=DIRECTION('Axis2P3D Direction',(-1.,0.,0.)) ;
#93=DIRECTION('Axis2P3D Direction',(1.,0.,0.)) ;
#94=DIRECTION('Axis2P3D XDirection',(0.,1.,0.)) ;
#98=DIRECTION('Axis2P3D Direction',(1.,0.,0.)) ;
#107=DIRECTION('Vector Direction',(0.,-1.,0.)) ;
#114=DIRECTION('Axis2P3D Direction',(1.,0.,0.)) ;
#121=DIRECTION('Vector Direction',(0.,1.,0.)) ;
#132=DIRECTION('Axis2P3D Direction',(1.,0.,0.)) ;
#141=DIRECTION('Axis2P3D Direction',(1.,0.,0.)) ;
#150=DIRECTION('Axis2P3D Direction',(1.,0.,0.)) ;
#159=DIRECTION('Axis2P3D Direction',(1.,0.,0.)) ;
#168=DIRECTION('Axis2P3D Direction',(1.,0.,0.)) ;
#178=DIRECTION('Axis2P3D Direction',(-1.,0.,0.)) ;
#190=DIRECTION('Axis2P3D Direction',(1.,0.,0.)) ;
#191=DIRECTION('Axis2P3D XDirection',(0.,2.05963176202E-015,1.)) ;
#195=DIRECTION('Vector Direction',(1.,0.,0.)) ;
#202=DIRECTION('Axis2P3D Direction',(1.,0.,0.)) ;
#209=DIRECTION('Vector Direction',(1.,0.,0.)) ;
#221=DIRECTION('Axis2P3D Direction',(-0.,0.,1.)) ;
#222=DIRECTION('Axis2P3D XDirection',(0.,-1.,0.)) ;
#226=DIRECTION('Vector Direction',(0.,-1.,0.)) ;
#233=DIRECTION('Vector Direction',(1.,0.,0.)) ;
#245=DIRECTION('Axis2P3D Direction',(1.,0.,0.)) ;
#246=DIRECTION('Axis2P3D XDirection',(0.,3.36902272573E-015,-1.)) ;
#250=DIRECTION('Axis2P3D Direction',(1.,0.,0.)) ;
#257=DIRECTION('Vector Direction',(1.,0.,0.)) ;
#269=DIRECTION('Axis2P3D Direction',(0.,0.,-1.)) ;
#270=DIRECTION('Axis2P3D XDirection',(0.,1.,0.)) ;
#274=DIRECTION('Vector Direction',(0.,1.,0.)) ;
#286=DIRECTION('Axis2P3D Direction',(1.,0.,0.)) ;
#287=DIRECTION('Axis2P3D XDirection',(0.,1.,0.)) ;
#291=DIRECTION('Vector Direction',(1.,0.,0.)) ;
#298=DIRECTION('Axis2P3D Direction',(1.,0.,0.)) ;
#305=DIRECTION('Vector Direction',(1.,0.,0.)) ;
#317=DIRECTION('Axis2P3D Direction',(1.,0.,0.)) ;
#329=DIRECTION('Axis2P3D Direction',(-1.,0.,-0.)) ;
#330=DIRECTION('Axis2P3D XDirection',(0.,0.87758256189,-0.479425538604)) ;
#334=DIRECTION('Vector Direction',(-1.,0.,0.)) ;
#341=DIRECTION('Axis2P3D Direction',(-1.,0.,-0.)) ;
#348=DIRECTION('Vector Direction',(-1.,0.,0.)) ;
#360=DIRECTION('Axis2P3D Direction',(-1.,0.,-0.)) ;
#372=DIRECTION('Axis2P3D Direction',(1.,0.,0.)) ;
#373=DIRECTION('Axis2P3D XDirection',(0.,1.,0.)) ;
#48=AXIS2_PLACEMENT_3D(' ',#47,$,$) ;
#55=AXIS2_PLACEMENT_3D('Cylinder Axis2P3D',#52,#53,#54) ;
#68=AXIS2_PLACEMENT_3D('Circle Axis2P3D',#66,#67,$) ;
#82=AXIS2_PLACEMENT_3D('Circle Axis2P3D',#80,#81,$) ;
#95=AXIS2_PLACEMENT_3D('Plane Axis2P3D',#92,#93,#94) ;
#99=AXIS2_PLACEMENT_3D('Circle Axis2P3D',#97,#98,$) ;
#115=AXIS2_PLACEMENT_3D('Circle Axis2P3D',#113,#114,$) ;
#133=AXIS2_PLACEMENT_3D('Circle Axis2P3D',#131,#132,$) ;
#142=AXIS2_PLACEMENT_3D('Circle Axis2P3D',#140,#141,$) ;
#151=AXIS2_PLACEMENT_3D('Circle Axis2P3D',#149,#150,$) ;
#160=AXIS2_PLACEMENT_3D('Circle Axis2P3D',#158,#159,$) ;
#169=AXIS2_PLACEMENT_3D('Circle Axis2P3D',#167,#168,$) ;
#179=AXIS2_PLACEMENT_3D('Circle Axis2P3D',#177,#178,$) ;
#192=AXIS2_PLACEMENT_3D('Cylinder Axis2P3D',#189,#190,#191) ;
#203=AXIS2_PLACEMENT_3D('Circle Axis2P3D',#201,#202,$) ;
#223=AXIS2_PLACEMENT_3D('Plane Axis2P3D',#220,#221,#222) ;
#247=AXIS2_PLACEMENT_3D('Cylinder Axis2P3D',#244,#245,#246) ;
#251=AXIS2_PLACEMENT_3D('Circle Axis2P3D',#249,#250,$) ;
#271=AXIS2_PLACEMENT_3D('Plane Axis2P3D',#268,#269,#270) ;
#288=AXIS2_PLACEMENT_3D('Cylinder Axis2P3D',#285,#286,#287) ;
#299=AXIS2_PLACEMENT_3D('Circle Axis2P3D',#297,#298,$) ;
#318=AXIS2_PLACEMENT_3D('Circle Axis2P3D',#316,#317,$) ;
#331=AXIS2_PLACEMENT_3D('Cylinder Axis2P3D',#328,#329,#330) ;
#342=AXIS2_PLACEMENT_3D('Circle Axis2P3D',#340,#341,$) ;
#361=AXIS2_PLACEMENT_3D('Circle Axis2P3D',#359,#360,$) ;
#374=AXIS2_PLACEMENT_3D('Plane Axis2P3D',#371,#372,#373) ;
#40=PRODUCT_DEFINITION_SHAPE(' ',' ',#14) ;
#31=APPROVAL_PERSON_ORGANIZATION(#25,#21,#19) ;
#25=PERSON_AND_ORGANIZATION(#22,#23) ;
#22=PERSON(' ',' ',' ',$,$,$) ;
#23=ORGANIZATION(' ',' ',' ') ;
#21=APPROVAL(#20,' ') ;
#20=APPROVAL_STATUS('not_yet_approved') ;
#19=APPROVAL_ROLE('APPROVER') ;
#13=DATE_AND_TIME(#11,#12) ;
#12=LOCAL_TIME(18,57,45.,#10) ;
#10=COORDINATED_UNIVERSAL_TIME_OFFSET(0,0,.AHEAD.) ;
#86=ORIENTED_EDGE('',*,*,#65,.F.) ;
#87=ORIENTED_EDGE('',*,*,#72,.F.) ;
#88=ORIENTED_EDGE('',*,*,#79,.T.) ;
#89=ORIENTED_EDGE('',*,*,#84,.T.) ;
#126=ORIENTED_EDGE('',*,*,#105,.T.) ;
#127=ORIENTED_EDGE('',*,*,#112,.T.) ;
#128=ORIENTED_EDGE('',*,*,#119,.T.) ;
#129=ORIENTED_EDGE('',*,*,#124,.T.) ;
#137=ORIENTED_EDGE('',*,*,#135,.F.) ;
#138=ORIENTED_EDGE('',*,*,#84,.F.) ;
#155=ORIENTED_EDGE('',*,*,#148,.F.) ;
#156=ORIENTED_EDGE('',*,*,#153,.F.) ;
#173=ORIENTED_EDGE('',*,*,#166,.F.) ;
#174=ORIENTED_EDGE('',*,*,#171,.F.) ;
#183=ORIENTED_EDGE('',*,*,#79,.F.) ;
#184=ORIENTED_EDGE('',*,*,#181,.F.) ;
#185=ORIENTED_EDGE('',*,*,#65,.T.) ;
#186=ORIENTED_EDGE('',*,*,#135,.T.) ;
#214=ORIENTED_EDGE('',*,*,#200,.F.) ;
#215=ORIENTED_EDGE('',*,*,#207,.T.) ;
#216=ORIENTED_EDGE('',*,*,#212,.T.) ;
#217=ORIENTED_EDGE('',*,*,#105,.F.) ;
#238=ORIENTED_EDGE('',*,*,#212,.F.) ;
#239=ORIENTED_EDGE('',*,*,#231,.T.) ;
#240=ORIENTED_EDGE('',*,*,#236,.T.) ;
#241=ORIENTED_EDGE('',*,*,#112,.F.) ;
#262=ORIENTED_EDGE('',*,*,#236,.F.) ;
#263=ORIENTED_EDGE('',*,*,#255,.T.) ;
#264=ORIENTED_EDGE('',*,*,#260,.T.) ;
#265=ORIENTED_EDGE('',*,*,#119,.F.) ;
#279=ORIENTED_EDGE('',*,*,#260,.F.) ;
#280=ORIENTED_EDGE('',*,*,#277,.T.) ;
#281=ORIENTED_EDGE('',*,*,#200,.T.) ;
#282=ORIENTED_EDGE('',*,*,#124,.F.) ;
#310=ORIENTED_EDGE('',*,*,#171,.T.) ;
#311=ORIENTED_EDGE('',*,*,#296,.F.) ;
#312=ORIENTED_EDGE('',*,*,#303,.F.) ;
#313=ORIENTED_EDGE('',*,*,#308,.T.) ;
#322=ORIENTED_EDGE('',*,*,#166,.T.) ;
#323=ORIENTED_EDGE('',*,*,#308,.F.) ;
#324=ORIENTED_EDGE('',*,*,#320,.F.) ;
#325=ORIENTED_EDGE('',*,*,#296,.T.) ;
#353=ORIENTED_EDGE('',*,*,#339,.F.) ;
#354=ORIENTED_EDGE('',*,*,#346,.F.) ;
#355=ORIENTED_EDGE('',*,*,#351,.T.) ;
#356=ORIENTED_EDGE('',*,*,#153,.T.) ;
#365=ORIENTED_EDGE('',*,*,#351,.F.) ;
#366=ORIENTED_EDGE('',*,*,#363,.F.) ;
#367=ORIENTED_EDGE('',*,*,#339,.T.) ;
#368=ORIENTED_EDGE('',*,*,#148,.T.) ;
#377=ORIENTED_EDGE('',*,*,#277,.F.) ;
#378=ORIENTED_EDGE('',*,*,#255,.F.) ;
#379=ORIENTED_EDGE('',*,*,#231,.F.) ;
#380=ORIENTED_EDGE('',*,*,#207,.F.) ;
#383=ORIENTED_EDGE('',*,*,#72,.T.) ;
#384=ORIENTED_EDGE('',*,*,#181,.T.) ;
#387=ORIENTED_EDGE('',*,*,#346,.T.) ;
#388=ORIENTED_EDGE('',*,*,#363,.T.) ;
#391=ORIENTED_EDGE('',*,*,#303,.T.) ;
#392=ORIENTED_EDGE('',*,*,#320,.T.) ;
#139=FACE_BOUND('',#136,.T.) ;
#157=FACE_BOUND('',#154,.T.) ;
#175=FACE_BOUND('',#172,.T.) ;
#385=FACE_BOUND('',#382,.T.) ;
#389=FACE_BOUND('',#386,.T.) ;
#393=FACE_BOUND('',#390,.T.) ;
#51=CLOSED_SHELL('Closed Shell',(#91,#176,#188,#219,#243,#267,#284,#315,#327,#358,#370,#394)) ;
#59=VECTOR('Line Direction',#58,1.) ;
#75=VECTOR('Line Direction',#74,1.) ;
#108=VECTOR('Line Direction',#107,1.) ;
#122=VECTOR('Line Direction',#121,1.) ;
#196=VECTOR('Line Direction',#195,1.) ;
#210=VECTOR('Line Direction',#209,1.) ;
#227=VECTOR('Line Direction',#226,1.) ;
#234=VECTOR('Line Direction',#233,1.) ;
#258=VECTOR('Line Direction',#257,1.) ;
#275=VECTOR('Line Direction',#274,1.) ;
#292=VECTOR('Line Direction',#291,1.) ;
#306=VECTOR('Line Direction',#305,1.) ;
#335=VECTOR('Line Direction',#334,1.) ;
#349=VECTOR('Line Direction',#348,1.) ;
#396=ADVANCED_BREP_SHAPE_REPRESENTATION('NONE',(#395),#46) ;
#49=SHAPE_REPRESENTATION(' ',(#48),#46) ;
#91=ADVANCED_FACE('Corps principal',(#90),#56,.F.) ;
#176=ADVANCED_FACE('Corps principal',(#130,#139,#157,#175),#96,.T.) ;
#188=ADVANCED_FACE('Corps principal',(#187),#56,.F.) ;
#219=ADVANCED_FACE('Corps principal',(#218),#193,.T.) ;
#243=ADVANCED_FACE('Corps principal',(#242),#224,.F.) ;
#267=ADVANCED_FACE('Corps principal',(#266),#248,.T.) ;
#284=ADVANCED_FACE('Corps principal',(#283),#272,.F.) ;
#315=ADVANCED_FACE('Corps principal',(#314),#289,.F.) ;
#327=ADVANCED_FACE('Corps principal',(#326),#289,.F.) ;
#358=ADVANCED_FACE('Corps principal',(#357),#332,.F.) ;
#370=ADVANCED_FACE('Corps principal',(#369),#332,.F.) ;
#394=ADVANCED_FACE('Corps principal',(#381,#385,#389,#393),#375,.F.) ;
#4=APPLICATION_PROTOCOL_DEFINITION('international standard','config_control_design',1994,#1) ;
#32=APPROVAL_DATE_TIME(#13,#21) ;
#395=MANIFOLD_SOLID_BREP('Corps principal',#51) ;
#11=CALENDAR_DATE(2021,31,1) ;
#30=CC_DESIGN_APPROVAL(#21,(#16,#6,#14)) ;
#18=CC_DESIGN_DATE_AND_TIME_ASSIGNMENT(#13,#17,(#16)) ;
#29=CC_DESIGN_DATE_AND_TIME_ASSIGNMENT(#13,#28,(#14)) ;
#17=DATE_TIME_ROLE('classification_date') ;
#28=DATE_TIME_ROLE('creation_date') ;
#27=CC_DESIGN_PERSON_AND_ORGANIZATION_ASSIGNMENT(#25,#26,(#16)) ;
#33=CC_DESIGN_PERSON_AND_ORGANIZATION_ASSIGNMENT(#25,#34,(#6)) ;
#35=CC_DESIGN_PERSON_AND_ORGANIZATION_ASSIGNMENT(#25,#36,(#6,#14)) ;
#37=CC_DESIGN_PERSON_AND_ORGANIZATION_ASSIGNMENT(#25,#38,(#5)) ;
#26=PERSON_AND_ORGANIZATION_ROLE('classification_officer') ;
#34=PERSON_AND_ORGANIZATION_ROLE('design_supplier') ;
#36=PERSON_AND_ORGANIZATION_ROLE('creator') ;
#38=PERSON_AND_ORGANIZATION_ROLE('design_owner') ;
#39=CC_DESIGN_SECURITY_CLASSIFICATION(#16,(#6)) ;
#69=CIRCLE('generated circle',#68,2.1) ;
#83=CIRCLE('generated circle',#82,2.1) ;
#100=CIRCLE('generated circle',#99,15.) ;
#116=CIRCLE('generated circle',#115,15.) ;
#134=CIRCLE('generated circle',#133,2.1) ;
#143=CIRCLE('generated circle',#142,2.1) ;
#152=CIRCLE('generated circle',#151,2.1) ;
#161=CIRCLE('generated circle',#160,2.25) ;
#170=CIRCLE('generated circle',#169,2.25) ;
#180=CIRCLE('generated circle',#179,2.1) ;
#204=CIRCLE('generated circle',#203,15.) ;
#252=CIRCLE('generated circle',#251,15.) ;
#300=CIRCLE('generated circle',#299,2.25) ;
#319=CIRCLE('generated circle',#318,2.25) ;
#343=CIRCLE('generated circle',#342,2.1) ;
#362=CIRCLE('generated circle',#361,2.1) ;
#397=SHAPE_REPRESENTATION_RELATIONSHIP(' ',' ',#49,#396) ;
#401=SHAPE_REPRESENTATION_RELATIONSHIP(' ',' ',#49,#399) ;
#56=CYLINDRICAL_SURFACE('generated cylinder',#55,2.1) ;
#193=CYLINDRICAL_SURFACE('generated cylinder',#192,15.) ;
#248=CYLINDRICAL_SURFACE('generated cylinder',#247,15.) ;
#289=CYLINDRICAL_SURFACE('generated cylinder',#288,2.25) ;
#332=CYLINDRICAL_SURFACE('generated cylinder',#331,2.1) ;
#3=DESIGN_CONTEXT(' ',#1,'design') ;
#65=EDGE_CURVE('',#62,#64,#60,.F.) ;
#72=EDGE_CURVE('',#71,#62,#69,.F.) ;
#79=EDGE_CURVE('',#71,#78,#76,.F.) ;
#84=EDGE_CURVE('',#78,#64,#83,.F.) ;
#105=EDGE_CURVE('',#102,#104,#100,.T.) ;
#112=EDGE_CURVE('',#104,#111,#109,.F.) ;
#119=EDGE_CURVE('',#111,#118,#116,.T.) ;
#124=EDGE_CURVE('',#118,#102,#123,.F.) ;
#135=EDGE_CURVE('',#64,#78,#134,.T.) ;
#148=EDGE_CURVE('',#145,#147,#143,.T.) ;
#153=EDGE_CURVE('',#147,#145,#152,.T.) ;
#166=EDGE_CURVE('',#163,#165,#161,.T.) ;
#171=EDGE_CURVE('',#165,#163,#170,.T.) ;
#181=EDGE_CURVE('',#62,#71,#180,.F.) ;
#200=EDGE_CURVE('',#199,#102,#197,.T.) ;
#207=EDGE_CURVE('',#199,#206,#204,.T.) ;
#212=EDGE_CURVE('',#206,#104,#211,.T.) ;
#231=EDGE_CURVE('',#206,#230,#228,.F.) ;
#236=EDGE_CURVE('',#230,#111,#235,.T.) ;
#255=EDGE_CURVE('',#230,#254,#252,.T.) ;
#260=EDGE_CURVE('',#254,#118,#259,.T.) ;
#277=EDGE_CURVE('',#254,#199,#276,.F.) ;
#296=EDGE_CURVE('',#295,#163,#293,.T.) ;
#303=EDGE_CURVE('',#302,#295,#300,.T.) ;
#308=EDGE_CURVE('',#302,#165,#307,.T.) ;
#320=EDGE_CURVE('',#295,#302,#319,.T.) ;
#339=EDGE_CURVE('',#338,#145,#336,.F.) ;
#346=EDGE_CURVE('',#345,#338,#343,.F.) ;
#351=EDGE_CURVE('',#345,#147,#350,.F.) ;
#363=EDGE_CURVE('',#338,#345,#362,.F.) ;
#85=EDGE_LOOP('',(#86,#87,#88,#89)) ;
#125=EDGE_LOOP('',(#126,#127,#128,#129)) ;
#136=EDGE_LOOP('',(#137,#138)) ;
#154=EDGE_LOOP('',(#155,#156)) ;
#172=EDGE_LOOP('',(#173,#174)) ;
#182=EDGE_LOOP('',(#183,#184,#185,#186)) ;
#213=EDGE_LOOP('',(#214,#215,#216,#217)) ;
#237=EDGE_LOOP('',(#238,#239,#240,#241)) ;
#261=EDGE_LOOP('',(#262,#263,#264,#265)) ;
#278=EDGE_LOOP('',(#279,#280,#281,#282)) ;
#309=EDGE_LOOP('',(#310,#311,#312,#313)) ;
#321=EDGE_LOOP('',(#322,#323,#324,#325)) ;
#352=EDGE_LOOP('',(#353,#354,#355,#356)) ;
#364=EDGE_LOOP('',(#365,#366,#367,#368)) ;
#376=EDGE_LOOP('',(#377,#378,#379,#380)) ;
#382=EDGE_LOOP('',(#383,#384)) ;
#386=EDGE_LOOP('',(#387,#388)) ;
#390=EDGE_LOOP('',(#391,#392)) ;
#90=FACE_OUTER_BOUND('',#85,.T.) ;
#130=FACE_OUTER_BOUND('',#125,.T.) ;
#187=FACE_OUTER_BOUND('',#182,.T.) ;
#218=FACE_OUTER_BOUND('',#213,.T.) ;
#242=FACE_OUTER_BOUND('',#237,.T.) ;
#266=FACE_OUTER_BOUND('',#261,.T.) ;
#283=FACE_OUTER_BOUND('',#278,.T.) ;
#314=FACE_OUTER_BOUND('',#309,.T.) ;
#326=FACE_OUTER_BOUND('',#321,.T.) ;
#357=FACE_OUTER_BOUND('',#352,.T.) ;
#369=FACE_OUTER_BOUND('',#364,.T.) ;
#381=FACE_OUTER_BOUND('',#376,.T.) ;
#400=GEOMETRIC_SET('NONE',(#398,#402)) ;
#399=GEOMETRICALLY_BOUNDED_SURFACE_SHAPE_REPRESENTATION('NONE',(#400),#46) ;
#45=UNCERTAINTY_MEASURE_WITH_UNIT(LENGTH_MEASURE(0.005),#41,'distance_accuracy_value','CONFUSED CURVE UNCERTAINTY') ;
#60=LINE('Line',#57,#59) ;
#76=LINE('Line',#73,#75) ;
#109=LINE('Line',#106,#108) ;
#123=LINE('Line',#120,#122) ;
#197=LINE('Line',#194,#196) ;
#211=LINE('Line',#208,#210) ;
#228=LINE('Line',#225,#227) ;
#235=LINE('Line',#232,#234) ;
#259=LINE('Line',#256,#258) ;
#276=LINE('Line',#273,#275) ;
#293=LINE('Line',#290,#292) ;
#307=LINE('Line',#304,#306) ;
#336=LINE('Line',#333,#335) ;
#350=LINE('Line',#347,#349) ;
#2=MECHANICAL_CONTEXT(' ',#1,'mechanical') ;
#24=PERSONAL_ADDRESS(' ',' ',' ',' ',' ',' ',' ',' ',' ',' ',' ',' ',(#22),' ') ;
#96=PLANE('Plane',#95) ;
#224=PLANE('Plane',#223) ;
#272=PLANE('Plane',#271) ;
#375=PLANE('Plane',#374) ;
#43=PLANE_ANGLE_MEASURE_WITH_UNIT(PLANE_ANGLE_MEASURE(0.0174532925199),#42) ;
#7=PRODUCT_CATEGORY('part',$) ;
#9=PRODUCT_CATEGORY_RELATIONSHIP(' ',' ',#7,#8) ;
#6=PRODUCT_DEFINITION_FORMATION_WITH_SPECIFIED_SOURCE('',' ',#5,.NOT_KNOWN.) ;
#8=PRODUCT_RELATED_PRODUCT_CATEGORY('detail',$,(#5)) ;
#50=SHAPE_DEFINITION_REPRESENTATION(#40,#49) ;
#62=VERTEX_POINT('',#61) ;
#64=VERTEX_POINT('',#63) ;
#71=VERTEX_POINT('',#70) ;
#78=VERTEX_POINT('',#77) ;
#102=VERTEX_POINT('',#101) ;
#104=VERTEX_POINT('',#103) ;
#111=VERTEX_POINT('',#110) ;
#118=VERTEX_POINT('',#117) ;
#145=VERTEX_POINT('',#144) ;
#147=VERTEX_POINT('',#146) ;
#163=VERTEX_POINT('',#162) ;
#165=VERTEX_POINT('',#164) ;
#199=VERTEX_POINT('',#198) ;
#206=VERTEX_POINT('',#205) ;
#230=VERTEX_POINT('',#229) ;
#254=VERTEX_POINT('',#253) ;
#295=VERTEX_POINT('',#294) ;
#302=VERTEX_POINT('',#301) ;
#338=VERTEX_POINT('',#337) ;
#345=VERTEX_POINT('',#344) ;
#41=(LENGTH_UNIT()NAMED_UNIT(*)SI_UNIT(.MILLI.,.METRE.)) ;
#42=(NAMED_UNIT(*)PLANE_ANGLE_UNIT()SI_UNIT($,.RADIAN.)) ;
#44=(NAMED_UNIT(*)SI_UNIT($,.STERADIAN.)SOLID_ANGLE_UNIT()) ;
#46=(GEOMETRIC_REPRESENTATION_CONTEXT(3)GLOBAL_UNCERTAINTY_ASSIGNED_CONTEXT((#45))GLOBAL_UNIT_ASSIGNED_CONTEXT((#41,#42,#44))REPRESENTATION_CONTEXT(' ',' ')) ;
ENDSEC;
END-ISO-10303-21;
