ISO-10303-21;
HEADER;
FILE_DESCRIPTION( ( 'Unknown' ), '1' );
FILE_NAME( 'Z:/buggy/remorque/Pièce4.stp', 'Unknown', ( 'Unknown' ), ( 'Unknown' ), 'PSStep 10.0', 'Unknown', '  ' );
FILE_SCHEMA( ( 'automotive_design' ) );
ENDSEC;
DATA;
#1 = MECHANICAL_DESIGN_GEOMETRIC_PRESENTATION_REPRESENTATION( ' ', ( #10, #11, #12, #13, #14, #15, #16, #17, #18, #19 ), #6 );
#2 = PRODUCT_DEFINITION_CONTEXT( '', #20, 'design' );
#3 = APPLICATION_PROTOCOL_DEFINITION( 'INTERNATIONAL STANDARD', 'automotive_design', 1994, #20 );
#4 = PRODUCT_CATEGORY_RELATIONSHIP( 'NONE', 'NONE', #21, #22 );
#5 = SHAPE_DEFINITION_REPRESENTATION( #23, #24 );
#6 =  ( GEOMETRIC_REPRESENTATION_CONTEXT( 3 )GLOBAL_UNCERTAINTY_ASSIGNED_CONTEXT( ( #27 ) )GLOBAL_UNIT_ASSIGNED_CONTEXT( ( #29, #30, #31 ) )REPRESENTATION_CONTEXT( 'NONE', 'WORKSPACE' ) );
#10 = STYLED_ITEM( '', ( #33 ), #34 );
#11 = STYLED_ITEM( '', ( #35 ), #36 );
#12 = STYLED_ITEM( '', ( #37 ), #38 );
#13 = STYLED_ITEM( '', ( #39 ), #40 );
#14 = STYLED_ITEM( '', ( #41 ), #42 );
#15 = STYLED_ITEM( '', ( #43 ), #44 );
#16 = STYLED_ITEM( '', ( #45 ), #46 );
#17 = STYLED_ITEM( '', ( #47 ), #48 );
#18 = STYLED_ITEM( '', ( #49 ), #50 );
#19 = STYLED_ITEM( '', ( #51 ), #52 );
#20 = APPLICATION_CONTEXT( ' ' );
#21 = PRODUCT_CATEGORY( 'part', 'NONE' );
#22 = PRODUCT_RELATED_PRODUCT_CATEGORY( 'detail', ' ', ( #53 ) );
#23 = PRODUCT_DEFINITION_SHAPE( 'NONE', 'NONE', #54 );
#24 = ADVANCED_BREP_SHAPE_REPRESENTATION( '1', ( #55, #56 ), #6 );
#27 = UNCERTAINTY_MEASURE_WITH_UNIT( LENGTH_MEASURE( 0.00100000000000000 ), #29, '', '' );
#29 =  ( CONVERSION_BASED_UNIT( 'MILLIMETRE', #59 )LENGTH_UNIT(  )NAMED_UNIT( #62 ) );
#30 =  ( NAMED_UNIT( #64 )PLANE_ANGLE_UNIT(  )SI_UNIT( $, .RADIAN. ) );
#31 =  ( NAMED_UNIT( #64 )SI_UNIT( $, .STERADIAN. )SOLID_ANGLE_UNIT(  ) );
#33 = PRESENTATION_STYLE_ASSIGNMENT( ( #70 ) );
#34 = ADVANCED_FACE( '', ( #71, #72 ), #73, .F. );
#35 = PRESENTATION_STYLE_ASSIGNMENT( ( #74 ) );
#36 = ADVANCED_FACE( '', ( #75, #76, #77 ), #78, .T. );
#37 = PRESENTATION_STYLE_ASSIGNMENT( ( #79 ) );
#38 = ADVANCED_FACE( '', ( #80 ), #81, .F. );
#39 = PRESENTATION_STYLE_ASSIGNMENT( ( #82 ) );
#40 = ADVANCED_FACE( '', ( #83 ), #84, .F. );
#41 = PRESENTATION_STYLE_ASSIGNMENT( ( #85 ) );
#42 = ADVANCED_FACE( '', ( #86 ), #87, .T. );
#43 = PRESENTATION_STYLE_ASSIGNMENT( ( #88 ) );
#44 = ADVANCED_FACE( '', ( #89 ), #90, .F. );
#45 = PRESENTATION_STYLE_ASSIGNMENT( ( #91 ) );
#46 = ADVANCED_FACE( '', ( #92, #93 ), #94, .F. );
#47 = PRESENTATION_STYLE_ASSIGNMENT( ( #95 ) );
#48 = ADVANCED_FACE( '', ( #96, #97, #98 ), #99, .F. );
#49 = PRESENTATION_STYLE_ASSIGNMENT( ( #100 ) );
#50 = ADVANCED_FACE( '', ( #101 ), #102, .F. );
#51 = PRESENTATION_STYLE_ASSIGNMENT( ( #103 ) );
#52 = ADVANCED_FACE( '', ( #104 ), #105, .F. );
#53 = PRODUCT( '1', '1', 'PART-1-DESC', ( #106 ) );
#54 = PRODUCT_DEFINITION( 'NONE', 'NONE', #107, #2 );
#55 = MANIFOLD_SOLID_BREP( '1', #108 );
#56 = AXIS2_PLACEMENT_3D( '', #109, #110, #111 );
#59 = LENGTH_MEASURE_WITH_UNIT( LENGTH_MEASURE( 1.00000000000000 ), #112 );
#62 = DIMENSIONAL_EXPONENTS( 1.00000000000000, 0.000000000000000, 0.000000000000000, 0.000000000000000, 0.000000000000000, 0.000000000000000, 0.000000000000000 );
#64 = DIMENSIONAL_EXPONENTS( 0.000000000000000, 0.000000000000000, 0.000000000000000, 0.000000000000000, 0.000000000000000, 0.000000000000000, 0.000000000000000 );
#70 = SURFACE_STYLE_USAGE( .BOTH., #113 );
#71 = FACE_OUTER_BOUND( '', #114, .T. );
#72 = FACE_OUTER_BOUND( '', #115, .T. );
#73 = CYLINDRICAL_SURFACE( '', #116, 5.50000000000000 );
#74 = SURFACE_STYLE_USAGE( .BOTH., #117 );
#75 = FACE_BOUND( '', #118, .T. );
#76 = FACE_BOUND( '', #119, .T. );
#77 = FACE_OUTER_BOUND( '', #120, .T. );
#78 = PLANE( '', #121 );
#79 = SURFACE_STYLE_USAGE( .BOTH., #122 );
#80 = FACE_OUTER_BOUND( '', #123, .T. );
#81 = CYLINDRICAL_SURFACE( '', #124, 33.0000000000000 );
#82 = SURFACE_STYLE_USAGE( .BOTH., #125 );
#83 = FACE_OUTER_BOUND( '', #126, .T. );
#84 = PLANE( '', #127 );
#85 = SURFACE_STYLE_USAGE( .BOTH., #128 );
#86 = FACE_OUTER_BOUND( '', #129, .T. );
#87 = PLANE( '', #130 );
#88 = SURFACE_STYLE_USAGE( .BOTH., #131 );
#89 = FACE_OUTER_BOUND( '', #132, .T. );
#90 = PLANE( '', #133 );
#91 = SURFACE_STYLE_USAGE( .BOTH., #134 );
#92 = FACE_OUTER_BOUND( '', #135, .T. );
#93 = FACE_OUTER_BOUND( '', #136, .T. );
#94 = CYLINDRICAL_SURFACE( '', #137, 5.50000000000000 );
#95 = SURFACE_STYLE_USAGE( .BOTH., #138 );
#96 = FACE_BOUND( '', #139, .T. );
#97 = FACE_BOUND( '', #140, .T. );
#98 = FACE_OUTER_BOUND( '', #141, .T. );
#99 = PLANE( '', #142 );
#100 = SURFACE_STYLE_USAGE( .BOTH., #143 );
#101 = FACE_OUTER_BOUND( '', #144, .T. );
#102 = PLANE( '', #145 );
#103 = SURFACE_STYLE_USAGE( .BOTH., #146 );
#104 = FACE_OUTER_BOUND( '', #147, .T. );
#105 = PLANE( '', #148 );
#106 = PRODUCT_CONTEXT( '', #20, 'mechanical' );
#107 = PRODUCT_DEFINITION_FORMATION_WITH_SPECIFIED_SOURCE( ' ', 'NONE', #53, .NOT_KNOWN. );
#108 = CLOSED_SHELL( '', ( #36, #52, #42, #50, #38, #48, #40, #44, #34, #46 ) );
#109 = CARTESIAN_POINT( '', ( 0.000000000000000, 0.000000000000000, 0.000000000000000 ) );
#110 = DIRECTION( '', ( 0.000000000000000, 0.000000000000000, 1.00000000000000 ) );
#111 = DIRECTION( '', ( 1.00000000000000, 0.000000000000000, 0.000000000000000 ) );
#112 =  ( LENGTH_UNIT(  )NAMED_UNIT( #62 )SI_UNIT( .MILLI., .METRE. ) );
#113 = SURFACE_SIDE_STYLE( '', ( #150 ) );
#114 = EDGE_LOOP( '', ( #151 ) );
#115 = EDGE_LOOP( '', ( #152 ) );
#116 = AXIS2_PLACEMENT_3D( '', #153, #154, #155 );
#117 = SURFACE_SIDE_STYLE( '', ( #156 ) );
#118 = EDGE_LOOP( '', ( #157 ) );
#119 = EDGE_LOOP( '', ( #158 ) );
#120 = EDGE_LOOP( '', ( #159, #160, #161, #162, #163, #164 ) );
#121 = AXIS2_PLACEMENT_3D( '', #165, #166, #167 );
#122 = SURFACE_SIDE_STYLE( '', ( #168 ) );
#123 = EDGE_LOOP( '', ( #169, #170, #171, #172 ) );
#124 = AXIS2_PLACEMENT_3D( '', #173, #174, #175 );
#125 = SURFACE_SIDE_STYLE( '', ( #176 ) );
#126 = EDGE_LOOP( '', ( #177, #178, #179, #180 ) );
#127 = AXIS2_PLACEMENT_3D( '', #181, #182, #183 );
#128 = SURFACE_SIDE_STYLE( '', ( #184 ) );
#129 = EDGE_LOOP( '', ( #185, #186, #187, #188 ) );
#130 = AXIS2_PLACEMENT_3D( '', #189, #190, #191 );
#131 = SURFACE_SIDE_STYLE( '', ( #192 ) );
#132 = EDGE_LOOP( '', ( #193, #194, #195, #196 ) );
#133 = AXIS2_PLACEMENT_3D( '', #197, #198, #199 );
#134 = SURFACE_SIDE_STYLE( '', ( #200 ) );
#135 = EDGE_LOOP( '', ( #201 ) );
#136 = EDGE_LOOP( '', ( #202 ) );
#137 = AXIS2_PLACEMENT_3D( '', #203, #204, #205 );
#138 = SURFACE_SIDE_STYLE( '', ( #206 ) );
#139 = EDGE_LOOP( '', ( #207 ) );
#140 = EDGE_LOOP( '', ( #208 ) );
#141 = EDGE_LOOP( '', ( #209, #210, #211, #212, #213, #214 ) );
#142 = AXIS2_PLACEMENT_3D( '', #215, #216, #217 );
#143 = SURFACE_SIDE_STYLE( '', ( #218 ) );
#144 = EDGE_LOOP( '', ( #219, #220, #221, #222 ) );
#145 = AXIS2_PLACEMENT_3D( '', #223, #224, #225 );
#146 = SURFACE_SIDE_STYLE( '', ( #226 ) );
#147 = EDGE_LOOP( '', ( #227, #228, #229, #230 ) );
#148 = AXIS2_PLACEMENT_3D( '', #231, #232, #233 );
#150 = SURFACE_STYLE_FILL_AREA( #234 );
#151 = ORIENTED_EDGE( '', *, *, #235, .T. );
#152 = ORIENTED_EDGE( '', *, *, #236, .F. );
#153 = CARTESIAN_POINT( '', ( -50.0000000000000, 127.616175596090, 22.6500000000000 ) );
#154 = DIRECTION( '', ( -0.000000000000000, 1.00000000000000, -0.000000000000000 ) );
#155 = DIRECTION( '', ( 0.000000000000000, 0.000000000000000, -1.00000000000000 ) );
#156 = SURFACE_STYLE_FILL_AREA( #237 );
#157 = ORIENTED_EDGE( '', *, *, #238, .T. );
#158 = ORIENTED_EDGE( '', *, *, #236, .T. );
#159 = ORIENTED_EDGE( '', *, *, #239, .T. );
#160 = ORIENTED_EDGE( '', *, *, #240, .T. );
#161 = ORIENTED_EDGE( '', *, *, #241, .T. );
#162 = ORIENTED_EDGE( '', *, *, #242, .F. );
#163 = ORIENTED_EDGE( '', *, *, #243, .F. );
#164 = ORIENTED_EDGE( '', *, *, #244, .F. );
#165 = CARTESIAN_POINT( '', ( -100.000000000000, -22.0000000000000, -55.0000000000000 ) );
#166 = DIRECTION( '', ( 0.000000000000000, -1.00000000000000, 0.000000000000000 ) );
#167 = DIRECTION( '', ( 0.000000000000000, 0.000000000000000, -1.00000000000000 ) );
#168 = SURFACE_STYLE_FILL_AREA( #245 );
#169 = ORIENTED_EDGE( '', *, *, #243, .T. );
#170 = ORIENTED_EDGE( '', *, *, #246, .T. );
#171 = ORIENTED_EDGE( '', *, *, #247, .F. );
#172 = ORIENTED_EDGE( '', *, *, #248, .T. );
#173 = CARTESIAN_POINT( '', ( 0.000000000000000, 207.312014512978, 15.0000000000000 ) );
#174 = DIRECTION( '', ( -0.000000000000000, 1.00000000000000, -0.000000000000000 ) );
#175 = DIRECTION( '', ( 0.000000000000000, 0.000000000000000, -1.00000000000000 ) );
#176 = SURFACE_STYLE_FILL_AREA( #249 );
#177 = ORIENTED_EDGE( '', *, *, #250, .T. );
#178 = ORIENTED_EDGE( '', *, *, #244, .T. );
#179 = ORIENTED_EDGE( '', *, *, #248, .F. );
#180 = ORIENTED_EDGE( '', *, *, #251, .F. );
#181 = CARTESIAN_POINT( '', ( -33.0000000000000, 207.312014512978, 15.0000000000000 ) );
#182 = DIRECTION( '', ( -1.00000000000000, 0.000000000000000, 0.000000000000000 ) );
#183 = DIRECTION( '', ( 0.000000000000000, 0.000000000000000, 1.00000000000000 ) );
#184 = SURFACE_STYLE_FILL_AREA( #252 );
#185 = ORIENTED_EDGE( '', *, *, #253, .T. );
#186 = ORIENTED_EDGE( '', *, *, #254, .T. );
#187 = ORIENTED_EDGE( '', *, *, #240, .F. );
#188 = ORIENTED_EDGE( '', *, *, #255, .F. );
#189 = CARTESIAN_POINT( '', ( -75.0000000000000, 127.616175596090, -53.5374301675978 ) );
#190 = DIRECTION( '', ( -1.00000000000000, 0.000000000000000, -1.27861768851401E-016 ) );
#191 = DIRECTION( '', ( -1.27861768851401E-016, 0.000000000000000, 1.00000000000000 ) );
#192 = SURFACE_STYLE_FILL_AREA( #256 );
#193 = ORIENTED_EDGE( '', *, *, #257, .F. );
#194 = ORIENTED_EDGE( '', *, *, #246, .F. );
#195 = ORIENTED_EDGE( '', *, *, #242, .T. );
#196 = ORIENTED_EDGE( '', *, *, #258, .F. );
#197 = CARTESIAN_POINT( '', ( -1.00000000000000, 212.519363910843, 15.8877551020408 ) );
#198 = DIRECTION( '', ( -1.00000000000000, 0.000000000000000, -1.22587995825549E-016 ) );
#199 = DIRECTION( '', ( -1.22587995825549E-016, 0.000000000000000, 1.00000000000000 ) );
#200 = SURFACE_STYLE_FILL_AREA( #259 );
#201 = ORIENTED_EDGE( '', *, *, #260, .T. );
#202 = ORIENTED_EDGE( '', *, *, #238, .F. );
#203 = CARTESIAN_POINT( '', ( -38.7479371686083, 127.616175596090, -17.5133797870597 ) );
#204 = DIRECTION( '', ( -0.000000000000000, 1.00000000000000, -0.000000000000000 ) );
#205 = DIRECTION( '', ( 0.000000000000000, 0.000000000000000, -1.00000000000000 ) );
#206 = SURFACE_STYLE_FILL_AREA( #261 );
#207 = ORIENTED_EDGE( '', *, *, #260, .F. );
#208 = ORIENTED_EDGE( '', *, *, #235, .F. );
#209 = ORIENTED_EDGE( '', *, *, #262, .F. );
#210 = ORIENTED_EDGE( '', *, *, #253, .F. );
#211 = ORIENTED_EDGE( '', *, *, #263, .F. );
#212 = ORIENTED_EDGE( '', *, *, #251, .T. );
#213 = ORIENTED_EDGE( '', *, *, #247, .T. );
#214 = ORIENTED_EDGE( '', *, *, #257, .T. );
#215 = CARTESIAN_POINT( '', ( -100.000000000000, 0.000000000000000, -55.0000000000000 ) );
#216 = DIRECTION( '', ( 0.000000000000000, -1.00000000000000, 0.000000000000000 ) );
#217 = DIRECTION( '', ( 0.000000000000000, 0.000000000000000, -1.00000000000000 ) );
#218 = SURFACE_STYLE_FILL_AREA( #264 );
#219 = ORIENTED_EDGE( '', *, *, #263, .T. );
#220 = ORIENTED_EDGE( '', *, *, #255, .T. );
#221 = ORIENTED_EDGE( '', *, *, #239, .F. );
#222 = ORIENTED_EDGE( '', *, *, #250, .F. );
#223 = CARTESIAN_POINT( '', ( 100.000000000000, -22.0000000000000, 55.0000000000000 ) );
#224 = DIRECTION( '', ( 6.93889390390723E-017, 0.000000000000000, -1.00000000000000 ) );
#225 = DIRECTION( '', ( -1.00000000000000, 0.000000000000000, -6.93889390390723E-017 ) );
#226 = SURFACE_STYLE_FILL_AREA( #265 );
#227 = ORIENTED_EDGE( '', *, *, #254, .F. );
#228 = ORIENTED_EDGE( '', *, *, #262, .T. );
#229 = ORIENTED_EDGE( '', *, *, #258, .T. );
#230 = ORIENTED_EDGE( '', *, *, #241, .F. );
#231 = CARTESIAN_POINT( '', ( -100.000000000000, -22.0000000000000, -55.0000000000000 ) );
#232 = DIRECTION( '', ( 6.93889390390723E-017, 0.000000000000000, 1.00000000000000 ) );
#233 = DIRECTION( '', ( 1.00000000000000, 0.000000000000000, -6.93889390390723E-017 ) );
#234 = FILL_AREA_STYLE( '', ( #266 ) );
#235 = EDGE_CURVE( '', #267, #267, #268, .F. );
#236 = EDGE_CURVE( '', #269, #269, #270, .T. );
#237 = FILL_AREA_STYLE( '', ( #271 ) );
#238 = EDGE_CURVE( '', #272, #272, #273, .T. );
#239 = EDGE_CURVE( '', #274, #275, #276, .T. );
#240 = EDGE_CURVE( '', #275, #277, #278, .T. );
#241 = EDGE_CURVE( '', #277, #279, #280, .T. );
#242 = EDGE_CURVE( '', #281, #279, #282, .T. );
#243 = EDGE_CURVE( '', #283, #281, #284, .T. );
#244 = EDGE_CURVE( '', #274, #283, #285, .T. );
#245 = FILL_AREA_STYLE( '', ( #286 ) );
#246 = EDGE_CURVE( '', #281, #287, #288, .F. );
#247 = EDGE_CURVE( '', #289, #287, #290, .T. );
#248 = EDGE_CURVE( '', #289, #283, #291, .T. );
#249 = FILL_AREA_STYLE( '', ( #292 ) );
#250 = EDGE_CURVE( '', #293, #274, #294, .T. );
#251 = EDGE_CURVE( '', #293, #289, #295, .T. );
#252 = FILL_AREA_STYLE( '', ( #296 ) );
#253 = EDGE_CURVE( '', #297, #298, #299, .T. );
#254 = EDGE_CURVE( '', #298, #277, #300, .T. );
#255 = EDGE_CURVE( '', #297, #275, #301, .T. );
#256 = FILL_AREA_STYLE( '', ( #302 ) );
#257 = EDGE_CURVE( '', #287, #303, #304, .T. );
#258 = EDGE_CURVE( '', #303, #279, #305, .T. );
#259 = FILL_AREA_STYLE( '', ( #306 ) );
#260 = EDGE_CURVE( '', #307, #307, #308, .F. );
#261 = FILL_AREA_STYLE( '', ( #309 ) );
#262 = EDGE_CURVE( '', #298, #303, #310, .T. );
#263 = EDGE_CURVE( '', #293, #297, #311, .T. );
#264 = FILL_AREA_STYLE( '', ( #312 ) );
#265 = FILL_AREA_STYLE( '', ( #313 ) );
#266 = FILL_AREA_STYLE_COLOUR( '', #314 );
#267 = VERTEX_POINT( '', #315 );
#268 = CIRCLE( '', #316, 5.50000000000000 );
#269 = VERTEX_POINT( '', #317 );
#270 = CIRCLE( '', #318, 5.50000000000000 );
#271 = FILL_AREA_STYLE_COLOUR( '', #319 );
#272 = VERTEX_POINT( '', #320 );
#273 = CIRCLE( '', #321, 5.50000000000000 );
#274 = VERTEX_POINT( '', #322 );
#275 = VERTEX_POINT( '', #323 );
#276 = LINE( '', #324, #325 );
#277 = VERTEX_POINT( '', #326 );
#278 = LINE( '', #327, #328 );
#279 = VERTEX_POINT( '', #329 );
#280 = LINE( '', #330, #331 );
#281 = VERTEX_POINT( '', #332 );
#282 = LINE( '', #333, #334 );
#283 = VERTEX_POINT( '', #335 );
#284 = CIRCLE( '', #336, 33.0000000000000 );
#285 = LINE( '', #337, #338 );
#286 = FILL_AREA_STYLE_COLOUR( '', #339 );
#287 = VERTEX_POINT( '', #340 );
#288 = LINE( '', #341, #342 );
#289 = VERTEX_POINT( '', #343 );
#290 = CIRCLE( '', #344, 33.0000000000000 );
#291 = LINE( '', #345, #346 );
#292 = FILL_AREA_STYLE_COLOUR( '', #347 );
#293 = VERTEX_POINT( '', #348 );
#294 = LINE( '', #349, #350 );
#295 = LINE( '', #351, #352 );
#296 = FILL_AREA_STYLE_COLOUR( '', #353 );
#297 = VERTEX_POINT( '', #354 );
#298 = VERTEX_POINT( '', #355 );
#299 = LINE( '', #356, #357 );
#300 = LINE( '', #358, #359 );
#301 = LINE( '', #360, #361 );
#302 = FILL_AREA_STYLE_COLOUR( '', #362 );
#303 = VERTEX_POINT( '', #363 );
#304 = LINE( '', #364, #365 );
#305 = LINE( '', #366, #367 );
#306 = FILL_AREA_STYLE_COLOUR( '', #368 );
#307 = VERTEX_POINT( '', #369 );
#308 = CIRCLE( '', #370, 5.50000000000000 );
#309 = FILL_AREA_STYLE_COLOUR( '', #371 );
#310 = LINE( '', #372, #373 );
#311 = LINE( '', #374, #375 );
#312 = FILL_AREA_STYLE_COLOUR( '', #376 );
#313 = FILL_AREA_STYLE_COLOUR( '', #377 );
#314 = COLOUR_RGB( '', 0.968627452850342, 0.729411780834198, 0.109803922474384 );
#315 = CARTESIAN_POINT( '', ( -50.0000000000000, 0.000000000000000, 17.1500000000000 ) );
#316 = AXIS2_PLACEMENT_3D( '', #378, #379, #380 );
#317 = CARTESIAN_POINT( '', ( -44.5000000000000, -22.0000000000000, 22.6500000000000 ) );
#318 = AXIS2_PLACEMENT_3D( '', #381, #382, #383 );
#319 = COLOUR_RGB( '', 0.968627452850342, 0.729411780834198, 0.109803922474384 );
#320 = CARTESIAN_POINT( '', ( -33.2479371686083, -22.0000000000000, -17.5133797870597 ) );
#321 = AXIS2_PLACEMENT_3D( '', #384, #385, #386 );
#322 = CARTESIAN_POINT( '', ( -33.0000000000000, -22.0000000000000, 55.0000000000000 ) );
#323 = CARTESIAN_POINT( '', ( -75.0000000000000, -22.0000000000000, 55.0000000000000 ) );
#324 = CARTESIAN_POINT( '', ( 100.000000000000, -22.0000000000000, 55.0000000000000 ) );
#325 = VECTOR( '', #387, 1000.00000000000 );
#326 = CARTESIAN_POINT( '', ( -75.0000000000000, -22.0000000000000, -55.0000000000000 ) );
#327 = CARTESIAN_POINT( '', ( -75.0000000000000, -22.0000000000000, -53.5374301675978 ) );
#328 = VECTOR( '', #388, 1000.00000000000 );
#329 = CARTESIAN_POINT( '', ( -1.00000000000000, -22.0000000000000, -55.0000000000000 ) );
#330 = CARTESIAN_POINT( '', ( -100.000000000000, -22.0000000000000, -55.0000000000000 ) );
#331 = VECTOR( '', #389, 1000.00000000000 );
#332 = CARTESIAN_POINT( '', ( -1.00000000000000, -22.0000000000000, -17.9848450049413 ) );
#333 = CARTESIAN_POINT( '', ( -1.00000000000000, -22.0000000000000, 15.8877551020408 ) );
#334 = VECTOR( '', #390, 1000.00000000000 );
#335 = CARTESIAN_POINT( '', ( -33.0000000000000, -22.0000000000000, 15.0000000000000 ) );
#336 = AXIS2_PLACEMENT_3D( '', #391, #392, #393 );
#337 = CARTESIAN_POINT( '', ( -33.0000000000000, -22.0000000000000, 15.0000000000000 ) );
#338 = VECTOR( '', #394, 1000.00000000000 );
#339 = COLOUR_RGB( '', 0.968627452850342, 0.729411780834198, 0.109803922474384 );
#340 = CARTESIAN_POINT( '', ( -1.00000000000000, 2.77555756156289E-014, -17.9848450049413 ) );
#341 = CARTESIAN_POINT( '', ( -1.00000000000000, 207.312014512978, -17.9848450049413 ) );
#342 = VECTOR( '', #395, 1000.00000000000 );
#343 = CARTESIAN_POINT( '', ( -33.0000000000000, 5.55111512312578E-014, 15.0000000000000 ) );
#344 = AXIS2_PLACEMENT_3D( '', #396, #397, #398 );
#345 = CARTESIAN_POINT( '', ( -33.0000000000000, 207.312014512978, 15.0000000000000 ) );
#346 = VECTOR( '', #399, 1000.00000000000 );
#347 = COLOUR_RGB( '', 0.968627452850342, 0.729411780834198, 0.109803922474384 );
#348 = CARTESIAN_POINT( '', ( -33.0000000000000, 0.000000000000000, 55.0000000000000 ) );
#349 = CARTESIAN_POINT( '', ( -33.0000000000000, 207.312014512978, 55.0000000000000 ) );
#350 = VECTOR( '', #400, 1000.00000000000 );
#351 = CARTESIAN_POINT( '', ( -33.0000000000000, 0.000000000000000, -55.0000000000000 ) );
#352 = VECTOR( '', #401, 1000.00000000000 );
#353 = COLOUR_RGB( '', 0.968627452850342, 0.729411780834198, 0.109803922474384 );
#354 = CARTESIAN_POINT( '', ( -75.0000000000000, 0.000000000000000, 55.0000000000000 ) );
#355 = CARTESIAN_POINT( '', ( -75.0000000000000, 0.000000000000000, -55.0000000000000 ) );
#356 = CARTESIAN_POINT( '', ( -75.0000000000000, 0.000000000000000, -55.0000000000000 ) );
#357 = VECTOR( '', #402, 1000.00000000000 );
#358 = CARTESIAN_POINT( '', ( -75.0000000000000, -22.0000000000000, -55.0000000000000 ) );
#359 = VECTOR( '', #403, 1000.00000000000 );
#360 = CARTESIAN_POINT( '', ( -75.0000000000000, -22.0000000000000, 55.0000000000000 ) );
#361 = VECTOR( '', #404, 1000.00000000000 );
#362 = COLOUR_RGB( '', 0.968627452850342, 0.729411780834198, 0.109803922474384 );
#363 = CARTESIAN_POINT( '', ( -1.00000000000000, 0.000000000000000, -55.0000000000000 ) );
#364 = CARTESIAN_POINT( '', ( -1.00000000000000, 0.000000000000000, -55.0000000000000 ) );
#365 = VECTOR( '', #405, 1000.00000000000 );
#366 = CARTESIAN_POINT( '', ( -1.00000000000000, -22.0000000000000, -55.0000000000000 ) );
#367 = VECTOR( '', #406, 1000.00000000000 );
#368 = COLOUR_RGB( '', 0.968627452850342, 0.729411780834198, 0.109803922474384 );
#369 = CARTESIAN_POINT( '', ( -38.7479371686083, 0.000000000000000, -23.0133797870597 ) );
#370 = AXIS2_PLACEMENT_3D( '', #407, #408, #409 );
#371 = COLOUR_RGB( '', 0.968627452850342, 0.729411780834198, 0.109803922474384 );
#372 = CARTESIAN_POINT( '', ( -100.000000000000, 0.000000000000000, -55.0000000000000 ) );
#373 = VECTOR( '', #410, 1000.00000000000 );
#374 = CARTESIAN_POINT( '', ( 100.000000000000, 0.000000000000000, 55.0000000000000 ) );
#375 = VECTOR( '', #411, 1000.00000000000 );
#376 = COLOUR_RGB( '', 0.968627452850342, 0.729411780834198, 0.109803922474384 );
#377 = COLOUR_RGB( '', 0.968627452850342, 0.729411780834198, 0.109803922474384 );
#378 = CARTESIAN_POINT( '', ( -50.0000000000000, 0.000000000000000, 22.6500000000000 ) );
#379 = DIRECTION( '', ( 0.000000000000000, -1.00000000000000, 0.000000000000000 ) );
#380 = DIRECTION( '', ( 0.000000000000000, 0.000000000000000, -1.00000000000000 ) );
#381 = CARTESIAN_POINT( '', ( -50.0000000000000, -22.0000000000000, 22.6500000000000 ) );
#382 = DIRECTION( '', ( -0.000000000000000, 1.00000000000000, 0.000000000000000 ) );
#383 = DIRECTION( '', ( 1.00000000000000, 0.000000000000000, 0.000000000000000 ) );
#384 = CARTESIAN_POINT( '', ( -38.7479371686083, -22.0000000000000, -17.5133797870597 ) );
#385 = DIRECTION( '', ( -0.000000000000000, 1.00000000000000, 0.000000000000000 ) );
#386 = DIRECTION( '', ( 1.00000000000000, 0.000000000000000, 0.000000000000000 ) );
#387 = DIRECTION( '', ( -1.00000000000000, 0.000000000000000, -6.93889390390723E-017 ) );
#388 = DIRECTION( '', ( 1.27861768851401E-016, 0.000000000000000, -1.00000000000000 ) );
#389 = DIRECTION( '', ( 1.00000000000000, 0.000000000000000, -6.93889390390723E-017 ) );
#390 = DIRECTION( '', ( 1.22587995825549E-016, 0.000000000000000, -1.00000000000000 ) );
#391 = CARTESIAN_POINT( '', ( 0.000000000000000, -22.0000000000000, 15.0000000000000 ) );
#392 = DIRECTION( '', ( 0.000000000000000, -1.00000000000000, 0.000000000000000 ) );
#393 = DIRECTION( '', ( -1.00000000000000, 0.000000000000000, 0.000000000000000 ) );
#394 = DIRECTION( '', ( 0.000000000000000, 0.000000000000000, -1.00000000000000 ) );
#395 = DIRECTION( '', ( 0.000000000000000, -1.00000000000000, 0.000000000000000 ) );
#396 = CARTESIAN_POINT( '', ( 0.000000000000000, 0.000000000000000, 15.0000000000000 ) );
#397 = DIRECTION( '', ( 0.000000000000000, -1.00000000000000, 0.000000000000000 ) );
#398 = DIRECTION( '', ( 0.000000000000000, 0.000000000000000, -1.00000000000000 ) );
#399 = DIRECTION( '', ( 0.000000000000000, -1.00000000000000, 0.000000000000000 ) );
#400 = DIRECTION( '', ( 0.000000000000000, -1.00000000000000, 0.000000000000000 ) );
#401 = DIRECTION( '', ( 0.000000000000000, 0.000000000000000, -1.00000000000000 ) );
#402 = DIRECTION( '', ( 1.27861768851401E-016, 0.000000000000000, -1.00000000000000 ) );
#403 = DIRECTION( '', ( 0.000000000000000, -1.00000000000000, 0.000000000000000 ) );
#404 = DIRECTION( '', ( 0.000000000000000, -1.00000000000000, 0.000000000000000 ) );
#405 = DIRECTION( '', ( 1.22587995825549E-016, 0.000000000000000, -1.00000000000000 ) );
#406 = DIRECTION( '', ( 0.000000000000000, -1.00000000000000, 0.000000000000000 ) );
#407 = CARTESIAN_POINT( '', ( -38.7479371686083, 0.000000000000000, -17.5133797870597 ) );
#408 = DIRECTION( '', ( 0.000000000000000, -1.00000000000000, 0.000000000000000 ) );
#409 = DIRECTION( '', ( 0.000000000000000, 0.000000000000000, -1.00000000000000 ) );
#410 = DIRECTION( '', ( 1.00000000000000, 0.000000000000000, -6.93889390390723E-017 ) );
#411 = DIRECTION( '', ( -1.00000000000000, 0.000000000000000, -6.93889390390723E-017 ) );
ENDSEC;
END-ISO-10303-21;
