ISO-10303-21;
HEADER;
/* Generated by software containing ST-Developer
 * from STEP Tools, Inc. (www.steptools.com) 
 */

FILE_DESCRIPTION(
/* description */ ('Alibre Inc.'),
/* implementation_level */ '2;1');

FILE_NAME(
/* name */ 'export0',
/* time_stamp */ '2021-01-13T14:50:32+01:00',
/* author */ (''),
/* organization */ (''),
/* preprocessor_version */ 'ST-DEVELOPER v14',
/* originating_system */ 'Alibre',
/* authorisation */ '');

FILE_SCHEMA (('CONFIG_CONTROL_DESIGN'));
ENDSEC;

DATA;
#10=MECHANICAL_CONTEXT('detailed design',#18,'mechanical');
#11=PRODUCT_RELATED_PRODUCT_CATEGORY('d\X\E9tail','',(#98));
#12=CC_DESIGN_SECURITY_CLASSIFICATION(#14,(#97));
#13=SECURITY_CLASSIFICATION_LEVEL('unclassified');
#14=SECURITY_CLASSIFICATION('nom','Niveau de s\X\E9curit\X\E9 pour la v
ersion',#13);
#15=SHAPE_DEFINITION_REPRESENTATION(#16,#190);
#16=PRODUCT_DEFINITION_SHAPE('','Desc. D\X\E9finition',#96);
#17=APPLICATION_PROTOCOL_DEFINITION('AP definition status',
'config_control_design',1994,#18);
#18=APPLICATION_CONTEXT(
'control the configuration of three dimensional design');
#19=DESIGN_CONTEXT('detailed design',#18,'design');
#20=PERSON_AND_ORGANIZATION_ROLE('creator');
#21=PERSON_AND_ORGANIZATION_ROLE('classification_officer');
#22=PERSON_AND_ORGANIZATION_ROLE('creator');
#23=PERSON_AND_ORGANIZATION_ROLE('design_supplier');
#24=PERSON_AND_ORGANIZATION_ROLE('design_owner');
#25=CC_DESIGN_PERSON_AND_ORGANIZATION_ASSIGNMENT(#57,#20,(#96));
#26=CC_DESIGN_PERSON_AND_ORGANIZATION_ASSIGNMENT(#60,#21,(#14));
#27=CC_DESIGN_PERSON_AND_ORGANIZATION_ASSIGNMENT(#61,#22,(#97));
#28=CC_DESIGN_PERSON_AND_ORGANIZATION_ASSIGNMENT(#62,#23,(#97));
#29=CC_DESIGN_PERSON_AND_ORGANIZATION_ASSIGNMENT(#63,#24,(#98));
#30=DATE_TIME_ROLE('creation_date');
#31=DATE_TIME_ROLE('classification_date');
#32=CC_DESIGN_DATE_AND_TIME_ASSIGNMENT(#86,#30,(#96));
#33=CC_DESIGN_DATE_AND_TIME_ASSIGNMENT(#89,#31,(#14));
#34=CC_DESIGN_APPROVAL(#93,(#96));
#35=CC_DESIGN_APPROVAL(#94,(#97));
#36=CC_DESIGN_APPROVAL(#95,(#14));
#37=APPROVAL_PERSON_ORGANIZATION(#56,#93,#64);
#38=APPROVAL_PERSON_ORGANIZATION(#58,#94,#65);
#39=APPROVAL_PERSON_ORGANIZATION(#59,#95,#66);
#40=ORGANIZATION('DEFINITION_APPROVEDBY_ORG_ID',
'DEFINITION_APPROVEDBY_ORG_NAME','DEFINITION_APPROVEDBY_ORG_DESCR');
#41=ORGANIZATION('DEF_CREATOR_ORG_ID','DEF_CREATOR_ORG_NAME',
'DEF_CREATOR_ORG_DESCR');
#42=ORGANIZATION('ID_ORG_APPROBATEUR','NOM_ORG_APPROBATEUR',
'DESCR_ORG_APPROBATEUR');
#43=ORGANIZATION('SECURITY_APPROVEDBY_ORG_ID',
'SECURITY_APPROVEDBY_ORG_NAME','SECURITY_APPROVEDBY_ORG_DESCR');
#44=ORGANIZATION('CLASSOFFICER_ORG_ID','CLASSOFFICER_ORG_NAME',
'CLASSOFFICER_ORG_DESCR');
#45=ORGANIZATION('CODE_SOCIETE_CREATEUR','NOM_SOCIETE_CREATEUR',
'DESCRIPTION_SOCIETE_CREATEUR');
#46=ORGANIZATION('SUPPLIER_ORG_ID','SUPPLIER_ORG_NAME',
'SUPPLIER_ORG_DESCR');
#47=ORGANIZATION('PROPRIETAIRE_SOCIETE_ID','PROPRIETAIRE_SOCIETE_NOM',
'PROPRIETAIRE_SOCIETE_DESCRIPTION');
#48=PERSON('ID_Validateur D\X\E9finition',
'DEFINITION_APPROVEDBY_LASTNAME','DEFINITION_APPROVEDBY_FIRSTNAME',$,$,$);
#49=PERSON('DEF_createrID','DEF_CREATOR_LASTNAME',
'DEF_CREATOR_FIRSTNAME',$,$,$);
#50=PERSON('ID Validateur','NOM_APPROBATEUR','PRENOM_APPROBATEUR',$,$,$);
#51=PERSON('SECURITY_approverID','SECURITY_LASTNAME',
'SECURITY_APPROVEDBY_FIRSTNAME',$,$,$);
#52=PERSON('classifierID','CLASSOFFICER_LASTNAME',
'CLASSOFFICER_FIRSTNAME',$,$,$);
#53=PERSON('Code cr\X\E9ateur','NOM_CREATEUR','PRENOM_CREATEUR',$,$,$);
#54=PERSON('Code fournisseur','SUPPLIER_LASTNAME','SUPPLIER_FIRSTNAME',$,
$,$);
#55=PERSON('ID propri\X\E9taire','PROPRIETAIRE_NOM',
'PROPRIETAIRE_PRENOM',$,$,$);
#56=PERSON_AND_ORGANIZATION(#48,#40);
#57=PERSON_AND_ORGANIZATION(#49,#41);
#58=PERSON_AND_ORGANIZATION(#50,#42);
#59=PERSON_AND_ORGANIZATION(#51,#43);
#60=PERSON_AND_ORGANIZATION(#52,#44);
#61=PERSON_AND_ORGANIZATION(#53,#45);
#62=PERSON_AND_ORGANIZATION(#54,#46);
#63=PERSON_AND_ORGANIZATION(#55,#47);
#64=APPROVAL_ROLE('definition_approval');
#65=APPROVAL_ROLE('version_approval');
#66=APPROVAL_ROLE('security_approval');
#67=APPROVAL_DATE_TIME(#85,#93);
#68=APPROVAL_DATE_TIME(#87,#94);
#69=APPROVAL_DATE_TIME(#88,#95);
#70=COORDINATED_UNIVERSAL_TIME_OFFSET(1,0,.AHEAD.);
#71=COORDINATED_UNIVERSAL_TIME_OFFSET(1,0,.AHEAD.);
#72=COORDINATED_UNIVERSAL_TIME_OFFSET(1,0,.AHEAD.);
#73=COORDINATED_UNIVERSAL_TIME_OFFSET(1,0,.AHEAD.);
#74=COORDINATED_UNIVERSAL_TIME_OFFSET(1,0,.AHEAD.);
#75=LOCAL_TIME(16,39,22.,#70);
#76=LOCAL_TIME(16,39,22.,#71);
#77=LOCAL_TIME(16,39,22.,#72);
#78=LOCAL_TIME(16,39,22.,#73);
#79=LOCAL_TIME(16,39,22.,#74);
#80=CALENDAR_DATE(2021,12,1);
#81=CALENDAR_DATE(2021,12,1);
#82=CALENDAR_DATE(2021,12,1);
#83=CALENDAR_DATE(2021,12,1);
#84=CALENDAR_DATE(2021,12,1);
#85=DATE_AND_TIME(#80,#75);
#86=DATE_AND_TIME(#81,#76);
#87=DATE_AND_TIME(#82,#77);
#88=DATE_AND_TIME(#83,#78);
#89=DATE_AND_TIME(#84,#79);
#90=APPROVAL_STATUS('not_yet_approved');
#91=APPROVAL_STATUS('not_yet_approved');
#92=APPROVAL_STATUS('not_yet_approved');
#93=APPROVAL(#90,'Concept valid\X\E9');
#94=APPROVAL(#91,'version approuv\X\E9e');
#95=APPROVAL(#92,'security approval');
#96=PRODUCT_DEFINITION('ID D\X\E9finition','Desc. D\X\E9finition',#97,#19);
#97=PRODUCT_DEFINITION_FORMATION_WITH_SPECIFIED_SOURCE(
'REFERENCE_PRODUIT','DESCR_VERSION_PRODUIT',#98,.NOT_KNOWN.);
#98=PRODUCT('ID_1','TIGE POIGNEE','',(#10));
#99=(
LENGTH_UNIT()
NAMED_UNIT(*)
SI_UNIT(.CENTI.,.METRE.)
);
#100=(
NAMED_UNIT(*)
PLANE_ANGLE_UNIT()
SI_UNIT($,.RADIAN.)
);
#101=(
NAMED_UNIT(*)
SI_UNIT($,.STERADIAN.)
SOLID_ANGLE_UNIT()
);
#102=UNCERTAINTY_MEASURE_WITH_UNIT(LENGTH_MEASURE(1.E-006),#99,
'DISTANCE_ACCURACY_VALUE',
'Maximum model space distance between geometric entities at asserted co
nnectivities');
#103=(
GEOMETRIC_REPRESENTATION_CONTEXT(3)
GLOBAL_UNCERTAINTY_ASSIGNED_CONTEXT((#102))
GLOBAL_UNIT_ASSIGNED_CONTEXT((#101,#100,#99))
REPRESENTATION_CONTEXT('ID1','3D')
);
#104=PLANE('',#153);
#105=PLANE('',#156);
#106=CYLINDRICAL_SURFACE('',#151,0.3);
#107=VERTEX_POINT('',#159);
#108=VERTEX_POINT('',#161);
#109=VERTEX_POINT('',#164);
#110=VERTEX_POINT('',#168);
#111=CIRCLE('',#149,0.24455);
#112=CIRCLE('',#150,0.3);
#113=CIRCLE('',#152,0.3);
#114=CIRCLE('',#155,0.24455);
#115=EDGE_CURVE('',#107,#107,#111,.T.);
#116=EDGE_CURVE('',#108,#108,#112,.T.);
#117=EDGE_CURVE('',#109,#109,#113,.T.);
#118=EDGE_CURVE('',#110,#110,#114,.T.);
#119=ORIENTED_EDGE('',*,*,#115,.T.);
#120=ORIENTED_EDGE('',*,*,#116,.T.);
#121=ORIENTED_EDGE('',*,*,#117,.F.);
#122=ORIENTED_EDGE('',*,*,#116,.F.);
#123=ORIENTED_EDGE('',*,*,#115,.F.);
#124=ORIENTED_EDGE('',*,*,#118,.T.);
#125=ORIENTED_EDGE('',*,*,#117,.T.);
#126=ORIENTED_EDGE('',*,*,#118,.F.);
#127=EDGE_LOOP('',(#119));
#128=EDGE_LOOP('',(#120));
#129=EDGE_LOOP('',(#121));
#130=EDGE_LOOP('',(#122));
#131=EDGE_LOOP('',(#123));
#132=EDGE_LOOP('',(#124));
#133=EDGE_LOOP('',(#125));
#134=EDGE_LOOP('',(#126));
#135=FACE_BOUND('',#127,.T.);
#136=FACE_BOUND('',#128,.T.);
#137=FACE_BOUND('',#129,.T.);
#138=FACE_BOUND('',#130,.T.);
#139=FACE_BOUND('',#131,.T.);
#140=FACE_BOUND('',#132,.T.);
#141=FACE_BOUND('',#133,.T.);
#142=FACE_BOUND('',#134,.T.);
#143=ADVANCED_FACE('',(#135,#136),#186,.T.);
#144=ADVANCED_FACE('',(#137,#138),#106,.T.);
#145=ADVANCED_FACE('',(#139),#104,.F.);
#146=ADVANCED_FACE('',(#140,#141),#187,.T.);
#147=ADVANCED_FACE('',(#142),#105,.T.);
#148=AXIS2_PLACEMENT_3D('',#157,#170,#171);
#149=AXIS2_PLACEMENT_3D('',#158,#172,#173);
#150=AXIS2_PLACEMENT_3D('',#160,#174,#175);
#151=AXIS2_PLACEMENT_3D('',#162,#176,#177);
#152=AXIS2_PLACEMENT_3D('',#163,#178,#179);
#153=AXIS2_PLACEMENT_3D('',#165,#180,$);
#154=AXIS2_PLACEMENT_3D('',#166,#181,#182);
#155=AXIS2_PLACEMENT_3D('',#167,#183,#184);
#156=AXIS2_PLACEMENT_3D('',#169,#185,$);
#157=CARTESIAN_POINT('',(0.,0.,0.));
#158=CARTESIAN_POINT('',(0.,0.,0.));
#159=CARTESIAN_POINT('',(0.24455,2.99487374731485E-017,0.));
#160=CARTESIAN_POINT('',(0.,0.,0.05545));
#161=CARTESIAN_POINT('',(0.3,-3.67394039744206E-017,0.05545));
#162=CARTESIAN_POINT('',(0.,0.,0.));
#163=CARTESIAN_POINT('',(0.,0.,3.44455));
#164=CARTESIAN_POINT('',(0.3,3.67394039744206E-017,3.44455));
#165=CARTESIAN_POINT('',(0.,0.,0.));
#166=CARTESIAN_POINT('',(0.,0.,3.5));
#167=CARTESIAN_POINT('',(0.,0.,3.5));
#168=CARTESIAN_POINT('',(0.24455,-2.99487374731485E-017,3.5));
#169=CARTESIAN_POINT('',(0.,0.,3.5));
#170=DIRECTION('',(0.,0.,1.));
#171=DIRECTION('',(-0.24455,0.,0.));
#172=DIRECTION('',(0.,0.,1.));
#173=DIRECTION('',(-0.24455,0.,0.));
#174=DIRECTION('',(0.,0.,-1.));
#175=DIRECTION('',(-0.3,0.,0.));
#176=DIRECTION('',(0.,0.,1.));
#177=DIRECTION('',(0.3,0.,0.));
#178=DIRECTION('',(0.,0.,1.));
#179=DIRECTION('',(-0.3,0.,0.));
#180=DIRECTION('',(0.,0.,1.));
#181=DIRECTION('',(0.,0.,-1.));
#182=DIRECTION('',(-0.24455,0.,0.));
#183=DIRECTION('',(0.,0.,-1.));
#184=DIRECTION('',(-0.24455,0.,0.));
#185=DIRECTION('',(0.,0.,1.));
#186=CONICAL_SURFACE('',#148,0.24455,0.785398163397448);
#187=CONICAL_SURFACE('',#154,0.24455,0.785398163397448);
#188=CLOSED_SHELL('',(#143,#144,#145,#146,#147));
#189=MANIFOLD_SOLID_BREP('',#188);
#190=ADVANCED_BREP_SHAPE_REPRESENTATION('',(#189),#103);
ENDSEC;
END-ISO-10303-21;
