ISO-10303-21;
HEADER;
/* Generated by software containing ST-Developer
 * from STEP Tools, Inc. (www.steptools.com) 
 */

FILE_DESCRIPTION(
/* description */ ('Alibre Inc.'),
/* implementation_level */ '2;1');

FILE_NAME(
/* name */ 'export0',
/* time_stamp */ '2021-01-13T09:10:23+01:00',
/* author */ (''),
/* organization */ (''),
/* preprocessor_version */ 'ST-DEVELOPER v14',
/* originating_system */ 'Alibre',
/* authorisation */ '');

FILE_SCHEMA (('CONFIG_CONTROL_DESIGN'));
ENDSEC;

DATA;
#10=MECHANICAL_CONTEXT('detailed design',#18,'mechanical');
#11=PRODUCT_RELATED_PRODUCT_CATEGORY('d\X\E9tail','',(#98));
#12=CC_DESIGN_SECURITY_CLASSIFICATION(#14,(#97));
#13=SECURITY_CLASSIFICATION_LEVEL('unclassified');
#14=SECURITY_CLASSIFICATION('nom','Niveau de s\X\E9curit\X\E9 pour la v
ersion',#13);
#15=SHAPE_DEFINITION_REPRESENTATION(#16,#407);
#16=PRODUCT_DEFINITION_SHAPE('','Desc. D\X\E9finition',#96);
#17=APPLICATION_PROTOCOL_DEFINITION('AP definition status',
'config_control_design',1994,#18);
#18=APPLICATION_CONTEXT(
'control the configuration of three dimensional design');
#19=DESIGN_CONTEXT('detailed design',#18,'design');
#20=PERSON_AND_ORGANIZATION_ROLE('creator');
#21=PERSON_AND_ORGANIZATION_ROLE('classification_officer');
#22=PERSON_AND_ORGANIZATION_ROLE('creator');
#23=PERSON_AND_ORGANIZATION_ROLE('design_supplier');
#24=PERSON_AND_ORGANIZATION_ROLE('design_owner');
#25=CC_DESIGN_PERSON_AND_ORGANIZATION_ASSIGNMENT(#57,#20,(#96));
#26=CC_DESIGN_PERSON_AND_ORGANIZATION_ASSIGNMENT(#60,#21,(#14));
#27=CC_DESIGN_PERSON_AND_ORGANIZATION_ASSIGNMENT(#61,#22,(#97));
#28=CC_DESIGN_PERSON_AND_ORGANIZATION_ASSIGNMENT(#62,#23,(#97));
#29=CC_DESIGN_PERSON_AND_ORGANIZATION_ASSIGNMENT(#63,#24,(#98));
#30=DATE_TIME_ROLE('creation_date');
#31=DATE_TIME_ROLE('classification_date');
#32=CC_DESIGN_DATE_AND_TIME_ASSIGNMENT(#86,#30,(#96));
#33=CC_DESIGN_DATE_AND_TIME_ASSIGNMENT(#89,#31,(#14));
#34=CC_DESIGN_APPROVAL(#93,(#96));
#35=CC_DESIGN_APPROVAL(#94,(#97));
#36=CC_DESIGN_APPROVAL(#95,(#14));
#37=APPROVAL_PERSON_ORGANIZATION(#56,#93,#64);
#38=APPROVAL_PERSON_ORGANIZATION(#58,#94,#65);
#39=APPROVAL_PERSON_ORGANIZATION(#59,#95,#66);
#40=ORGANIZATION('DEFINITION_APPROVEDBY_ORG_ID',
'DEFINITION_APPROVEDBY_ORG_NAME','DEFINITION_APPROVEDBY_ORG_DESCR');
#41=ORGANIZATION('DEF_CREATOR_ORG_ID','DEF_CREATOR_ORG_NAME',
'DEF_CREATOR_ORG_DESCR');
#42=ORGANIZATION('ID_ORG_APPROBATEUR','NOM_ORG_APPROBATEUR',
'DESCR_ORG_APPROBATEUR');
#43=ORGANIZATION('SECURITY_APPROVEDBY_ORG_ID',
'SECURITY_APPROVEDBY_ORG_NAME','SECURITY_APPROVEDBY_ORG_DESCR');
#44=ORGANIZATION('CLASSOFFICER_ORG_ID','CLASSOFFICER_ORG_NAME',
'CLASSOFFICER_ORG_DESCR');
#45=ORGANIZATION('CODE_SOCIETE_CREATEUR','NOM_SOCIETE_CREATEUR',
'DESCRIPTION_SOCIETE_CREATEUR');
#46=ORGANIZATION('SUPPLIER_ORG_ID','SUPPLIER_ORG_NAME',
'SUPPLIER_ORG_DESCR');
#47=ORGANIZATION('PROPRIETAIRE_SOCIETE_ID','PROPRIETAIRE_SOCIETE_NOM',
'PROPRIETAIRE_SOCIETE_DESCRIPTION');
#48=PERSON('ID_Validateur D\X\E9finition',
'DEFINITION_APPROVEDBY_LASTNAME','DEFINITION_APPROVEDBY_FIRSTNAME',$,$,$);
#49=PERSON('DEF_createrID','DEF_CREATOR_LASTNAME',
'DEF_CREATOR_FIRSTNAME',$,$,$);
#50=PERSON('ID Validateur','NOM_APPROBATEUR','PRENOM_APPROBATEUR',$,$,$);
#51=PERSON('SECURITY_approverID','SECURITY_LASTNAME',
'SECURITY_APPROVEDBY_FIRSTNAME',$,$,$);
#52=PERSON('classifierID','CLASSOFFICER_LASTNAME',
'CLASSOFFICER_FIRSTNAME',$,$,$);
#53=PERSON('Code cr\X\E9ateur','NOM_CREATEUR','PRENOM_CREATEUR',$,$,$);
#54=PERSON('Code fournisseur','SUPPLIER_LASTNAME','SUPPLIER_FIRSTNAME',$,
$,$);
#55=PERSON('ID propri\X\E9taire','PROPRIETAIRE_NOM',
'PROPRIETAIRE_PRENOM',$,$,$);
#56=PERSON_AND_ORGANIZATION(#48,#40);
#57=PERSON_AND_ORGANIZATION(#49,#41);
#58=PERSON_AND_ORGANIZATION(#50,#42);
#59=PERSON_AND_ORGANIZATION(#51,#43);
#60=PERSON_AND_ORGANIZATION(#52,#44);
#61=PERSON_AND_ORGANIZATION(#53,#45);
#62=PERSON_AND_ORGANIZATION(#54,#46);
#63=PERSON_AND_ORGANIZATION(#55,#47);
#64=APPROVAL_ROLE('definition_approval');
#65=APPROVAL_ROLE('version_approval');
#66=APPROVAL_ROLE('security_approval');
#67=APPROVAL_DATE_TIME(#85,#93);
#68=APPROVAL_DATE_TIME(#87,#94);
#69=APPROVAL_DATE_TIME(#88,#95);
#70=COORDINATED_UNIVERSAL_TIME_OFFSET(1,0,.AHEAD.);
#71=COORDINATED_UNIVERSAL_TIME_OFFSET(1,0,.AHEAD.);
#72=COORDINATED_UNIVERSAL_TIME_OFFSET(1,0,.AHEAD.);
#73=COORDINATED_UNIVERSAL_TIME_OFFSET(1,0,.AHEAD.);
#74=COORDINATED_UNIVERSAL_TIME_OFFSET(1,0,.AHEAD.);
#75=LOCAL_TIME(13,20,30.,#70);
#76=LOCAL_TIME(13,20,30.,#71);
#77=LOCAL_TIME(13,20,30.,#72);
#78=LOCAL_TIME(13,20,30.,#73);
#79=LOCAL_TIME(13,20,30.,#74);
#80=CALENDAR_DATE(2021,12,1);
#81=CALENDAR_DATE(2021,12,1);
#82=CALENDAR_DATE(2021,12,1);
#83=CALENDAR_DATE(2021,12,1);
#84=CALENDAR_DATE(2021,12,1);
#85=DATE_AND_TIME(#80,#75);
#86=DATE_AND_TIME(#81,#76);
#87=DATE_AND_TIME(#82,#77);
#88=DATE_AND_TIME(#83,#78);
#89=DATE_AND_TIME(#84,#79);
#90=APPROVAL_STATUS('not_yet_approved');
#91=APPROVAL_STATUS('not_yet_approved');
#92=APPROVAL_STATUS('not_yet_approved');
#93=APPROVAL(#90,'Concept valid\X\E9');
#94=APPROVAL(#91,'version approuv\X\E9e');
#95=APPROVAL(#92,'security approval');
#96=PRODUCT_DEFINITION('ID D\X\E9finition','Desc. D\X\E9finition',#97,#19);
#97=PRODUCT_DEFINITION_FORMATION_WITH_SPECIFIED_SOURCE(
'REFERENCE_PRODUIT','DESCR_VERSION_PRODUIT',#98,.NOT_KNOWN.);
#98=PRODUCT('ID_1','GOUJON','',(#10));
#99=(
LENGTH_UNIT()
NAMED_UNIT(*)
SI_UNIT(.CENTI.,.METRE.)
);
#100=(
NAMED_UNIT(*)
PLANE_ANGLE_UNIT()
SI_UNIT($,.RADIAN.)
);
#101=(
NAMED_UNIT(*)
SI_UNIT($,.STERADIAN.)
SOLID_ANGLE_UNIT()
);
#102=UNCERTAINTY_MEASURE_WITH_UNIT(LENGTH_MEASURE(1.E-006),#99,
'DISTANCE_ACCURACY_VALUE',
'Maximum model space distance between geometric entities at asserted co
nnectivities');
#103=(
GEOMETRIC_REPRESENTATION_CONTEXT(3)
GLOBAL_UNCERTAINTY_ASSIGNED_CONTEXT((#102))
GLOBAL_UNIT_ASSIGNED_CONTEXT((#101,#100,#99))
REPRESENTATION_CONTEXT('ID1','3D')
);
#104=B_SPLINE_CURVE_WITH_KNOTS('',3,(#364,#365,#366,#367),.UNSPECIFIED.,
 .F.,.U.,(4,4),(0.,1.),.UNSPECIFIED.);
#105=B_SPLINE_SURFACE_WITH_KNOTS('',3,3,((#228,#229,#230,#231),(#232,#233,
#234,#235),(#236,#237,#238,#239),(#240,#241,#242,#243),(#244,#245,#246,#247),
(#248,#249,#250,#251),(#252,#253,#254,#255),(#256,#257,#258,#259),(#260,
#261,#262,#263),(#264,#265,#266,#267),(#268,#269,#270,#271),(#272,#273,#274,
#275),(#276,#277,#278,#279),(#280,#281,#282,#283),(#284,#285,#286,#287),
(#288,#289,#290,#291),(#292,#293,#294,#295),(#296,#297,#298,#299),(#300,
#301,#302,#303),(#304,#305,#306,#307),(#308,#309,#310,#311),(#312,#313,#314,
#315),(#316,#317,#318,#319),(#320,#321,#322,#323),(#324,#325,#326,#327),
(#328,#329,#330,#331),(#332,#333,#334,#335),(#336,#337,#338,#339),(#340,
#341,#342,#343),(#344,#345,#346,#347),(#348,#349,#350,#351),(#352,#353,#354,
#355),(#356,#357,#358,#359),(#360,#361,#362,#363)),.UNSPECIFIED.,.T.,.F.,
 .U.,(4,2,2,2,2,2,2,2,2,2,2,2,2,2,2,2,4),(4,4),(0.,0.09375,0.125,0.1875,
0.25,0.28125,0.375,0.46875,0.5,0.5625,0.625,0.65625,0.75,0.84375,0.875,0.9375,
1.),(0.,1.),.UNSPECIFIED.);
#106=PLANE('',#199);
#107=PLANE('',#205);
#108=PLANE('',#209);
#109=CYLINDRICAL_SURFACE('',#197,0.5);
#110=CYLINDRICAL_SURFACE('',#203,0.4);
#111=CYLINDRICAL_SURFACE('',#207,0.6);
#112=VERTEX_POINT('',#212);
#113=VERTEX_POINT('',#214);
#114=VERTEX_POINT('',#217);
#115=VERTEX_POINT('',#221);
#116=VERTEX_POINT('',#223);
#117=VERTEX_POINT('',#226);
#118=VERTEX_POINT('',#368);
#119=VERTEX_POINT('',#372);
#120=CIRCLE('',#195,0.4172);
#121=CIRCLE('',#196,0.5);
#122=CIRCLE('',#198,0.5);
#123=CIRCLE('',#201,0.33095);
#124=CIRCLE('',#202,0.4);
#125=CIRCLE('',#204,0.4);
#126=CIRCLE('',#206,0.6);
#127=CIRCLE('',#208,0.6);
#128=EDGE_CURVE('',#112,#112,#120,.T.);
#129=EDGE_CURVE('',#113,#113,#121,.T.);
#130=EDGE_CURVE('',#114,#114,#122,.T.);
#131=EDGE_CURVE('',#115,#115,#123,.T.);
#132=EDGE_CURVE('',#116,#116,#124,.T.);
#133=EDGE_CURVE('',#117,#117,#125,.T.);
#134=EDGE_CURVE('',#117,#118,#104,.T.);
#135=EDGE_CURVE('',#118,#118,#126,.T.);
#136=EDGE_CURVE('',#119,#119,#127,.T.);
#137=ORIENTED_EDGE('',*,*,#128,.T.);
#138=ORIENTED_EDGE('',*,*,#129,.T.);
#139=ORIENTED_EDGE('',*,*,#130,.F.);
#140=ORIENTED_EDGE('',*,*,#129,.F.);
#141=ORIENTED_EDGE('',*,*,#128,.F.);
#142=ORIENTED_EDGE('',*,*,#131,.T.);
#143=ORIENTED_EDGE('',*,*,#132,.T.);
#144=ORIENTED_EDGE('',*,*,#133,.T.);
#145=ORIENTED_EDGE('',*,*,#132,.F.);
#146=ORIENTED_EDGE('',*,*,#131,.F.);
#147=ORIENTED_EDGE('',*,*,#133,.F.);
#148=ORIENTED_EDGE('',*,*,#134,.T.);
#149=ORIENTED_EDGE('',*,*,#135,.F.);
#150=ORIENTED_EDGE('',*,*,#134,.F.);
#151=ORIENTED_EDGE('',*,*,#135,.T.);
#152=ORIENTED_EDGE('',*,*,#136,.T.);
#153=ORIENTED_EDGE('',*,*,#130,.T.);
#154=ORIENTED_EDGE('',*,*,#136,.F.);
#155=EDGE_LOOP('',(#137));
#156=EDGE_LOOP('',(#138));
#157=EDGE_LOOP('',(#139));
#158=EDGE_LOOP('',(#140));
#159=EDGE_LOOP('',(#141));
#160=EDGE_LOOP('',(#142));
#161=EDGE_LOOP('',(#143));
#162=EDGE_LOOP('',(#144));
#163=EDGE_LOOP('',(#145));
#164=EDGE_LOOP('',(#146));
#165=EDGE_LOOP('',(#147,#148,#149,#150));
#166=EDGE_LOOP('',(#151));
#167=EDGE_LOOP('',(#152));
#168=EDGE_LOOP('',(#153));
#169=EDGE_LOOP('',(#154));
#170=FACE_BOUND('',#155,.T.);
#171=FACE_BOUND('',#156,.T.);
#172=FACE_BOUND('',#157,.T.);
#173=FACE_BOUND('',#158,.T.);
#174=FACE_BOUND('',#159,.T.);
#175=FACE_BOUND('',#160,.T.);
#176=FACE_BOUND('',#161,.T.);
#177=FACE_BOUND('',#162,.T.);
#178=FACE_BOUND('',#163,.T.);
#179=FACE_BOUND('',#164,.T.);
#180=FACE_BOUND('',#165,.T.);
#181=FACE_BOUND('',#166,.T.);
#182=FACE_BOUND('',#167,.T.);
#183=FACE_BOUND('',#168,.T.);
#184=FACE_BOUND('',#169,.T.);
#185=ADVANCED_FACE('',(#170,#171),#403,.T.);
#186=ADVANCED_FACE('',(#172,#173),#109,.T.);
#187=ADVANCED_FACE('',(#174),#106,.F.);
#188=ADVANCED_FACE('',(#175,#176),#404,.T.);
#189=ADVANCED_FACE('',(#177,#178),#110,.T.);
#190=ADVANCED_FACE('',(#179),#107,.T.);
#191=ADVANCED_FACE('',(#180),#105,.F.);
#192=ADVANCED_FACE('',(#181,#182),#111,.T.);
#193=ADVANCED_FACE('',(#183,#184),#108,.F.);
#194=AXIS2_PLACEMENT_3D('',#210,#374,#375);
#195=AXIS2_PLACEMENT_3D('',#211,#376,#377);
#196=AXIS2_PLACEMENT_3D('',#213,#378,#379);
#197=AXIS2_PLACEMENT_3D('',#215,#380,#381);
#198=AXIS2_PLACEMENT_3D('',#216,#382,#383);
#199=AXIS2_PLACEMENT_3D('',#218,#384,$);
#200=AXIS2_PLACEMENT_3D('',#219,#385,#386);
#201=AXIS2_PLACEMENT_3D('',#220,#387,#388);
#202=AXIS2_PLACEMENT_3D('',#222,#389,#390);
#203=AXIS2_PLACEMENT_3D('',#224,#391,#392);
#204=AXIS2_PLACEMENT_3D('',#225,#393,#394);
#205=AXIS2_PLACEMENT_3D('',#227,#395,$);
#206=AXIS2_PLACEMENT_3D('',#369,#396,#397);
#207=AXIS2_PLACEMENT_3D('',#370,#398,#399);
#208=AXIS2_PLACEMENT_3D('',#371,#400,#401);
#209=AXIS2_PLACEMENT_3D('',#373,#402,$);
#210=CARTESIAN_POINT('',(0.,0.,-1.5));
#211=CARTESIAN_POINT('',(0.,0.,-1.5));
#212=CARTESIAN_POINT('',(0.4172,5.10922644604276E-017,-1.5));
#213=CARTESIAN_POINT('',(0.,0.,-1.4172));
#214=CARTESIAN_POINT('',(0.5,-6.12323399573676E-017,-1.4172));
#215=CARTESIAN_POINT('',(0.,0.,0.));
#216=CARTESIAN_POINT('',(0.,0.,0.));
#217=CARTESIAN_POINT('',(0.5,0.,0.));
#218=CARTESIAN_POINT('',(0.,0.,-1.5));
#219=CARTESIAN_POINT('',(0.,0.,6.6));
#220=CARTESIAN_POINT('',(0.,0.,6.6));
#221=CARTESIAN_POINT('',(0.33095,-4.05296858177816E-017,6.6));
#222=CARTESIAN_POINT('',(0.,0.,6.53095));
#223=CARTESIAN_POINT('',(0.4,4.89858719658941E-017,6.53095));
#224=CARTESIAN_POINT('',(0.,0.,3.6));
#225=CARTESIAN_POINT('',(0.,0.,3.6));
#226=CARTESIAN_POINT('',(0.4,0.,3.6));
#227=CARTESIAN_POINT('',(0.,0.,6.6));
#228=CARTESIAN_POINT('',(0.4,0.,3.6));
#229=CARTESIAN_POINT('',(0.466666666666667,0.,3.43333333333333));
#230=CARTESIAN_POINT('',(0.533333333333333,0.,3.26666666666667));
#231=CARTESIAN_POINT('',(0.6,0.,3.1));
#232=CARTESIAN_POINT('',(0.4,0.0785398163397448,3.6));
#233=CARTESIAN_POINT('',(0.466666666666667,0.0916297857297023,3.43333333333333));
#234=CARTESIAN_POINT('',(0.533333333333333,0.10471975511966,3.26666666666667));
#235=CARTESIAN_POINT('',(0.6,0.117809724509617,3.1));
#236=CARTESIAN_POINT('',(0.376222228986207,0.15692462256552,3.6));
#237=CARTESIAN_POINT('',(0.438925933817241,0.18307872632644,3.43333333333333));
#238=CARTESIAN_POINT('',(0.501629638648276,0.20923283008736,3.26666666666667));
#239=CARTESIAN_POINT('',(0.56433334347931,0.23538693384828,3.1));
#240=CARTESIAN_POINT('',(0.318043050232622,0.243995916755281,3.6));
#241=CARTESIAN_POINT('',(0.371050225271392,0.284661902881161,3.43333333333333));
#242=CARTESIAN_POINT('',(0.424057400310162,0.325327889007042,3.26666666666667));
#243=CARTESIAN_POINT('',(0.477064575348933,0.365993875132922,3.1));
#244=CARTESIAN_POINT('',(0.301354724716946,0.264330700232292,3.6));
#245=CARTESIAN_POINT('',(0.35158051216977,0.308385816937675,3.43333333333333));
#246=CARTESIAN_POINT('',(0.401806299622594,0.352440933643057,3.26666666666667));
#247=CARTESIAN_POINT('',(0.452032087075418,0.396496050348439,3.1));
#248=CARTESIAN_POINT('',(0.245818687989966,0.319866736959272,3.6));
#249=CARTESIAN_POINT('',(0.286788469321627,0.373177859785817,3.43333333333333));
#250=CARTESIAN_POINT('',(0.327758250653288,0.426488982612363,3.26666666666667));
#251=CARTESIAN_POINT('',(0.368728031984949,0.479800105438908,3.1));
#252=CARTESIAN_POINT('',(0.20144759214836,0.349514555341703,3.6));
#253=CARTESIAN_POINT('',(0.235022190839753,0.407766981231987,3.43333333333333));
#254=CARTESIAN_POINT('',(0.268596789531146,0.466019407122271,3.26666666666667));
#255=CARTESIAN_POINT('',(0.30217138822254,0.524271833012555,3.1));
#256=CARTESIAN_POINT('',(0.104699153743712,0.389589070667326,3.6));
#257=CARTESIAN_POINT('',(0.122149012700997,0.454520582445214,3.43333333333333));
#258=CARTESIAN_POINT('',(0.139598871658283,0.519452094223102,3.26666666666667));
#259=CARTESIAN_POINT('',(0.157048730615568,0.584383606000989,3.1));
#260=CARTESIAN_POINT('',(0.0523598775598299,0.4,3.6));
#261=CARTESIAN_POINT('',(0.0610865238198016,0.466666666666667,3.43333333333333));
#262=CARTESIAN_POINT('',(0.0698131700797732,0.533333333333333,3.26666666666667));
#263=CARTESIAN_POINT('',(0.0785398163397449,0.6,3.1));
#264=CARTESIAN_POINT('',(-0.0261799387799149,0.4,3.6));
#265=CARTESIAN_POINT('',(-0.0305432619099007,0.466666666666667,3.43333333333333));
#266=CARTESIAN_POINT('',(-0.0349065850398866,0.533333333333333,3.26666666666667));
#267=CARTESIAN_POINT('',(-0.0392699081698724,0.6,3.1));
#268=CARTESIAN_POINT('',(-0.052359230209253,0.397421564848228,3.6));
#269=CARTESIAN_POINT('',(-0.0610857685774618,0.463658492322933,3.43333333333333));
#270=CARTESIAN_POINT('',(-0.0698123069456707,0.529895419797638,3.26666666666667));
#271=CARTESIAN_POINT('',(-0.0785388453138795,0.596132347272342,3.1));
#272=CARTESIAN_POINT('',(-0.155066824598046,0.376991754100484,3.6));
#273=CARTESIAN_POINT('',(-0.180911295364387,0.439823713117231,3.43333333333333));
#274=CARTESIAN_POINT('',(-0.206755766130728,0.502655672133978,3.26666666666667));
#275=CARTESIAN_POINT('',(-0.232600236897069,0.565487631150726,3.1));
#276=CARTESIAN_POINT('',(-0.227306675747639,0.338378749201599,3.6));
#277=CARTESIAN_POINT('',(-0.265191121705579,0.394775207401865,3.43333333333333));
#278=CARTESIAN_POINT('',(-0.303075567663519,0.451171665602131,3.26666666666667));
#279=CARTESIAN_POINT('',(-0.340960013621459,0.507568123802398,3.1));
#280=CARTESIAN_POINT('',(-0.338378749201599,0.227306675747639,3.6));
#281=CARTESIAN_POINT('',(-0.394775207401865,0.265191121705579,3.43333333333333));
#282=CARTESIAN_POINT('',(-0.451171665602131,0.303075567663519,3.26666666666667));
#283=CARTESIAN_POINT('',(-0.507568123802398,0.340960013621459,3.1));
#284=CARTESIAN_POINT('',(-0.376991754100484,0.155066824598046,3.6));
#285=CARTESIAN_POINT('',(-0.439823713117231,0.180911295364387,3.43333333333333));
#286=CARTESIAN_POINT('',(-0.502655672133978,0.206755766130728,3.26666666666667));
#287=CARTESIAN_POINT('',(-0.565487631150726,0.232600236897069,3.1));
#288=CARTESIAN_POINT('',(-0.397421564848228,0.0523592302092532,3.6));
#289=CARTESIAN_POINT('',(-0.463658492322933,0.061085768577462,3.43333333333333));
#290=CARTESIAN_POINT('',(-0.529895419797638,0.0698123069456709,3.26666666666667));
#291=CARTESIAN_POINT('',(-0.596132347272342,0.0785388453138797,3.1));
#292=CARTESIAN_POINT('',(-0.4,0.026179938779915,3.6));
#293=CARTESIAN_POINT('',(-0.466666666666667,0.0305432619099008,3.43333333333333));
#294=CARTESIAN_POINT('',(-0.533333333333333,0.0349065850398867,3.26666666666667));
#295=CARTESIAN_POINT('',(-0.6,0.0392699081698725,3.1));
#296=CARTESIAN_POINT('',(-0.4,-0.0523598775598298,3.6));
#297=CARTESIAN_POINT('',(-0.466666666666667,-0.0610865238198015,3.43333333333333));
#298=CARTESIAN_POINT('',(-0.533333333333333,-0.0698131700797731,3.26666666666667));
#299=CARTESIAN_POINT('',(-0.6,-0.0785398163397448,3.1));
#300=CARTESIAN_POINT('',(-0.389589070667326,-0.104699153743712,3.6));
#301=CARTESIAN_POINT('',(-0.454520582445214,-0.122149012700997,3.43333333333333));
#302=CARTESIAN_POINT('',(-0.519452094223102,-0.139598871658283,3.26666666666667));
#303=CARTESIAN_POINT('',(-0.584383606000989,-0.157048730615568,3.1));
#304=CARTESIAN_POINT('',(-0.349514555341703,-0.20144759214836,3.6));
#305=CARTESIAN_POINT('',(-0.407766981231987,-0.235022190839753,3.43333333333333));
#306=CARTESIAN_POINT('',(-0.466019407122271,-0.268596789531146,3.26666666666667));
#307=CARTESIAN_POINT('',(-0.524271833012555,-0.30217138822254,3.1));
#308=CARTESIAN_POINT('',(-0.319866736959272,-0.245818687989966,3.6));
#309=CARTESIAN_POINT('',(-0.373177859785817,-0.286788469321627,3.43333333333333));
#310=CARTESIAN_POINT('',(-0.426488982612363,-0.327758250653288,3.26666666666667));
#311=CARTESIAN_POINT('',(-0.479800105438908,-0.368728031984949,3.1));
#312=CARTESIAN_POINT('',(-0.264330700232293,-0.301354724716946,3.6));
#313=CARTESIAN_POINT('',(-0.308385816937675,-0.35158051216977,3.43333333333333));
#314=CARTESIAN_POINT('',(-0.352440933643057,-0.401806299622594,3.26666666666667));
#315=CARTESIAN_POINT('',(-0.396496050348439,-0.452032087075418,3.1));
#316=CARTESIAN_POINT('',(-0.243995916755281,-0.318043050232622,3.6));
#317=CARTESIAN_POINT('',(-0.284661902881161,-0.371050225271392,3.43333333333333));
#318=CARTESIAN_POINT('',(-0.325327889007042,-0.424057400310162,3.26666666666667));
#319=CARTESIAN_POINT('',(-0.365993875132922,-0.477064575348933,3.1));
#320=CARTESIAN_POINT('',(-0.15692462256552,-0.376222228986207,3.6));
#321=CARTESIAN_POINT('',(-0.18307872632644,-0.438925933817241,3.43333333333333));
#322=CARTESIAN_POINT('',(-0.20923283008736,-0.501629638648276,3.26666666666667));
#323=CARTESIAN_POINT('',(-0.23538693384828,-0.56433334347931,3.1));
#324=CARTESIAN_POINT('',(-0.0785398163397449,-0.4,3.6));
#325=CARTESIAN_POINT('',(-0.0916297857297024,-0.466666666666667,3.43333333333333));
#326=CARTESIAN_POINT('',(-0.10471975511966,-0.533333333333333,3.26666666666667));
#327=CARTESIAN_POINT('',(-0.117809724509617,-0.6,3.1));
#328=CARTESIAN_POINT('',(0.0785398163397448,-0.4,3.6));
#329=CARTESIAN_POINT('',(0.0916297857297022,-0.466666666666667,3.43333333333333));
#330=CARTESIAN_POINT('',(0.10471975511966,-0.533333333333333,3.26666666666667));
#331=CARTESIAN_POINT('',(0.117809724509617,-0.6,3.1));
#332=CARTESIAN_POINT('',(0.15692462256552,-0.376222228986207,3.6));
#333=CARTESIAN_POINT('',(0.18307872632644,-0.438925933817241,3.43333333333333));
#334=CARTESIAN_POINT('',(0.20923283008736,-0.501629638648276,3.26666666666667));
#335=CARTESIAN_POINT('',(0.23538693384828,-0.56433334347931,3.1));
#336=CARTESIAN_POINT('',(0.243995916755281,-0.318043050232622,3.6));
#337=CARTESIAN_POINT('',(0.284661902881161,-0.371050225271392,3.43333333333333));
#338=CARTESIAN_POINT('',(0.325327889007041,-0.424057400310163,3.26666666666667));
#339=CARTESIAN_POINT('',(0.365993875132921,-0.477064575348933,3.1));
#340=CARTESIAN_POINT('',(0.264330700232292,-0.301354724716946,3.6));
#341=CARTESIAN_POINT('',(0.308385816937674,-0.35158051216977,3.43333333333333));
#342=CARTESIAN_POINT('',(0.352440933643057,-0.401806299622594,3.26666666666667));
#343=CARTESIAN_POINT('',(0.396496050348439,-0.452032087075418,3.1));
#344=CARTESIAN_POINT('',(0.319866736959272,-0.245818687989966,3.6));
#345=CARTESIAN_POINT('',(0.373177859785817,-0.286788469321627,3.43333333333333));
#346=CARTESIAN_POINT('',(0.426488982612363,-0.327758250653288,3.26666666666667));
#347=CARTESIAN_POINT('',(0.479800105438908,-0.368728031984949,3.1));
#348=CARTESIAN_POINT('',(0.349514555341703,-0.20144759214836,3.6));
#349=CARTESIAN_POINT('',(0.407766981231987,-0.235022190839753,3.43333333333333));
#350=CARTESIAN_POINT('',(0.466019407122271,-0.268596789531147,3.26666666666667));
#351=CARTESIAN_POINT('',(0.524271833012555,-0.30217138822254,3.1));
#352=CARTESIAN_POINT('',(0.389589070667326,-0.104699153743712,3.6));
#353=CARTESIAN_POINT('',(0.454520582445214,-0.122149012700998,3.43333333333333));
#354=CARTESIAN_POINT('',(0.519452094223101,-0.139598871658283,3.26666666666667));
#355=CARTESIAN_POINT('',(0.584383606000989,-0.157048730615568,3.1));
#356=CARTESIAN_POINT('',(0.4,-0.05235987755983,3.6));
#357=CARTESIAN_POINT('',(0.466666666666667,-0.0610865238198016,3.43333333333333));
#358=CARTESIAN_POINT('',(0.533333333333333,-0.0698131700797733,3.26666666666667));
#359=CARTESIAN_POINT('',(0.6,-0.078539816339745,3.1));
#360=CARTESIAN_POINT('',(0.4,-9.79717439317882E-017,3.6));
#361=CARTESIAN_POINT('',(0.466666666666667,-1.1430036792042E-016,3.43333333333333));
#362=CARTESIAN_POINT('',(0.533333333333333,-1.30628991909051E-016,3.26666666666667));
#363=CARTESIAN_POINT('',(0.6,-1.46957615897682E-016,3.1));
#364=CARTESIAN_POINT('',(0.4,0.,3.6));
#365=CARTESIAN_POINT('',(0.466666666666667,0.,3.43333333333333));
#366=CARTESIAN_POINT('',(0.533333333333333,0.,3.26666666666667));
#367=CARTESIAN_POINT('',(0.6,0.,3.1));
#368=CARTESIAN_POINT('',(0.6,0.,3.1));
#369=CARTESIAN_POINT('',(0.,0.,3.1));
#370=CARTESIAN_POINT('',(0.,0.,0.));
#371=CARTESIAN_POINT('',(0.,0.,0.));
#372=CARTESIAN_POINT('',(0.6,0.,0.));
#373=CARTESIAN_POINT('',(0.,0.,0.));
#374=DIRECTION('',(0.,0.,1.));
#375=DIRECTION('',(-0.4172,0.,0.));
#376=DIRECTION('',(0.,0.,1.));
#377=DIRECTION('',(-0.4172,0.,0.));
#378=DIRECTION('',(0.,0.,-1.));
#379=DIRECTION('',(-0.5,0.,0.));
#380=DIRECTION('',(0.,0.,-1.));
#381=DIRECTION('',(0.5,0.,0.));
#382=DIRECTION('',(0.,0.,1.));
#383=DIRECTION('',(0.5,0.,0.));
#384=DIRECTION('',(0.,0.,1.));
#385=DIRECTION('',(0.,0.,-1.));
#386=DIRECTION('',(-0.33095,0.,0.));
#387=DIRECTION('',(0.,0.,-1.));
#388=DIRECTION('',(-0.33095,0.,0.));
#389=DIRECTION('',(0.,0.,1.));
#390=DIRECTION('',(-0.4,0.,0.));
#391=DIRECTION('',(0.,0.,1.));
#392=DIRECTION('',(0.4,0.,0.));
#393=DIRECTION('',(0.,0.,1.));
#394=DIRECTION('',(0.4,0.,0.));
#395=DIRECTION('',(0.,0.,1.));
#396=DIRECTION('',(0.,0.,-1.));
#397=DIRECTION('',(0.6,0.,0.));
#398=DIRECTION('',(0.,0.,1.));
#399=DIRECTION('',(0.6,0.,0.));
#400=DIRECTION('',(0.,0.,1.));
#401=DIRECTION('',(0.6,0.,0.));
#402=DIRECTION('',(0.,0.,1.));
#403=CONICAL_SURFACE('',#194,0.4172,0.785398163397448);
#404=CONICAL_SURFACE('',#200,0.33095,0.785398163397448);
#405=CLOSED_SHELL('',(#185,#186,#187,#188,#189,#190,#191,#192,#193));
#406=MANIFOLD_SOLID_BREP('',#405);
#407=ADVANCED_BREP_SHAPE_REPRESENTATION('',(#406),#103);
ENDSEC;
END-ISO-10303-21;
