ISO-10303-21;
HEADER;
FILE_DESCRIPTION(('CATIA V5 STEP Exchange'),'2;1');

FILE_NAME('C:\\Users\\jeremy\\Desktop\\3D\\Catia\\B12\\Support \X2\00E9\X0\trier ISR\\Entretoise arr gauche.stp','2021-02-25T21:24:15+00:00',('none'),('none'),'CATIA Version 5 Release 20 GA (IN-10)','CATIA V5 STEP AP203','none');

FILE_SCHEMA(('CONFIG_CONTROL_DESIGN'));

ENDSEC;
/* file written by CATIA V5R20 */
DATA;
#5=PRODUCT('Entretoise arr droit','','',(#2)) ;
#1=APPLICATION_CONTEXT('configuration controlled 3D design of mechanical parts and assemblies') ;
#14=PRODUCT_DEFINITION('',' ',#6,#3) ;
#16=SECURITY_CLASSIFICATION(' ',' ',#15) ;
#15=SECURITY_CLASSIFICATION_LEVEL('unclassified') ;
#47=CARTESIAN_POINT(' ',(0.,0.,0.)) ;
#52=CARTESIAN_POINT('Axis2P3D Location',(0.,7.,0.)) ;
#57=CARTESIAN_POINT('Axis2P3D Location',(0.,0.8,0.)) ;
#61=CARTESIAN_POINT('Vertex',(8.77348735646,0.8,16.0597608826)) ;
#63=CARTESIAN_POINT('Vertex',(-8.77348735646,0.8,-16.0597608826)) ;
#66=CARTESIAN_POINT('Line Origine',(8.77348735646,0.4,16.0597608826)) ;
#70=CARTESIAN_POINT('Vertex',(8.77348735646,3.5527136788E-015,16.0597608826)) ;
#73=CARTESIAN_POINT('Axis2P3D Location',(0.,4.4408920985E-015,0.)) ;
#77=CARTESIAN_POINT('Vertex',(-8.77348735646,3.5527136788E-015,-16.0597608826)) ;
#80=CARTESIAN_POINT('Line Origine',(-8.77348735646,0.4,-16.0597608826)) ;
#92=CARTESIAN_POINT('Axis2P3D Location',(0.,0.8,0.)) ;
#97=CARTESIAN_POINT('Axis2P3D Location',(0.,4.4408920985E-015,0.)) ;
#109=CARTESIAN_POINT('Axis2P3D Location',(0.,0.8,18.3)) ;
#118=CARTESIAN_POINT('Axis2P3D Location',(0.,0.8,0.)) ;
#122=CARTESIAN_POINT('Vertex',(8.38994692557,0.8,15.3576948331)) ;
#124=CARTESIAN_POINT('Vertex',(-8.38994692557,0.8,-15.3576948331)) ;
#127=CARTESIAN_POINT('Axis2P3D Location',(0.,0.8,0.)) ;
#137=CARTESIAN_POINT('Axis2P3D Location',(0.,4.28626379702E-015,17.5)) ;
#146=CARTESIAN_POINT('Axis2P3D Location',(0.,4.28626379702E-015,0.)) ;
#150=CARTESIAN_POINT('Vertex',(-8.38994692557,4.28626379702E-015,-15.3576948331)) ;
#152=CARTESIAN_POINT('Vertex',(8.38994692557,4.28626379702E-015,15.3576948331)) ;
#155=CARTESIAN_POINT('Axis2P3D Location',(0.,4.28626379702E-015,0.)) ;
#169=CARTESIAN_POINT('Axis2P3D Location',(-2.6645352591E-015,4.28626379702E-015,0.)) ;
#173=CARTESIAN_POINT('Vertex',(-5.12985313118,4.28626379702E-015,-9.39013348428)) ;
#175=CARTESIAN_POINT('Vertex',(5.12985326306,4.28626379702E-015,9.39013341223)) ;
#178=CARTESIAN_POINT('Axis2P3D Location',(2.22044604925E-016,4.28626379702E-015,3.5527136788E-015)) ;
#188=CARTESIAN_POINT('Axis2P3D Location',(5.43565192856E-014,10.7,5.6132876125E-014)) ;
#193=CARTESIAN_POINT('Line Origine',(-5.00999687841,0.25,-9.17073777175)) ;
#197=CARTESIAN_POINT('Vertex',(-4.89014049376,0.5,-8.95134213128)) ;
#200=CARTESIAN_POINT('Axis2P3D Location',(-3.78653234506E-028,0.5,1.7763568394E-015)) ;
#204=CARTESIAN_POINT('Vertex',(4.89014049376,0.5,8.95134213128)) ;
#207=CARTESIAN_POINT('Line Origine',(5.00999687841,0.25,9.17073777175)) ;
#219=CARTESIAN_POINT('Axis2P3D Location',(9.32587340685E-014,10.7,-1.99840144433E-015)) ;
#224=CARTESIAN_POINT('Axis2P3D Location',(2.6645352591E-015,0.5,-1.99840144433E-015)) ;
#236=CARTESIAN_POINT('Axis2P3D Location',(0.,7.,0.)) ;
#241=CARTESIAN_POINT('Line Origine',(8.38994692557,7.4,15.3576948331)) ;
#245=CARTESIAN_POINT('Vertex',(8.38994692557,12.,15.3576948331)) ;
#248=CARTESIAN_POINT('Line Origine',(-8.38994692557,7.4,-15.3576948331)) ;
#252=CARTESIAN_POINT('Vertex',(-8.38994692557,12.,-15.3576948331)) ;
#255=CARTESIAN_POINT('Axis2P3D Location',(0.,12.,0.)) ;
#267=CARTESIAN_POINT('Axis2P3D Location',(0.,12.,0.)) ;
#279=CARTESIAN_POINT('Axis2P3D Location',(-6.88338275268E-014,29.5,3.44169137634E-014)) ;
#284=CARTESIAN_POINT('Line Origine',(-7.91052138697,13.,-14.4801122712)) ;
#288=CARTESIAN_POINT('Vertex',(-7.43109474037,14.,-13.6025303146)) ;
#291=CARTESIAN_POINT('Line Origine',(7.91052138697,13.,14.4801122712)) ;
#295=CARTESIAN_POINT('Vertex',(7.43109584837,14.,13.6025297093)) ;
#298=CARTESIAN_POINT('Axis2P3D Location',(5.04870979341E-029,14.,-2.52435489671E-029)) ;
#310=CARTESIAN_POINT('Axis2P3D Location',(-5.86197757002E-014,29.5,3.46944695195E-014)) ;
#315=CARTESIAN_POINT('Axis2P3D Location',(-3.5527136788E-015,14.,1.99840144433E-015)) ;
#327=CARTESIAN_POINT('Axis2P3D Location',(0.,7.,0.)) ;
#332=CARTESIAN_POINT('Axis2P3D Location',(0.,13.,0.)) ;
#336=CARTESIAN_POINT('Vertex',(4.89014049376,13.,8.95134213128)) ;
#338=CARTESIAN_POINT('Vertex',(-4.89014049376,13.,-8.95134213128)) ;
#341=CARTESIAN_POINT('Line Origine',(-4.89014049376,7.,-8.95134213128)) ;
#346=CARTESIAN_POINT('Line Origine',(4.89014049376,7.,8.95134213128)) ;
#358=CARTESIAN_POINT('Axis2P3D Location',(0.,13.,0.)) ;
#370=CARTESIAN_POINT('Axis2P3D Location',(0.,14.,10.2)) ;
#379=CARTESIAN_POINT('Axis2P3D Location',(-1.55431223448E-015,14.,1.7763568394E-015)) ;
#383=CARTESIAN_POINT('Vertex',(5.36956603237,14.,9.82892469317)) ;
#385=CARTESIAN_POINT('Vertex',(-5.36956635836,14.,-9.82892451508)) ;
#388=CARTESIAN_POINT('Axis2P3D Location',(2.85882428841E-015,14.,1.7763568394E-015)) ;
#398=CARTESIAN_POINT('Axis2P3D Location',(-2.0783375021E-014,2.8,-3.07309733216E-014)) ;
#403=CARTESIAN_POINT('Line Origine',(-5.12985328855,13.5,-9.39013339831)) ;
#408=CARTESIAN_POINT('Line Origine',(5.12985326306,13.5,9.39013341223)) ;
#420=CARTESIAN_POINT('Axis2P3D Location',(5.96855898038E-014,2.8,-5.0448534239E-014)) ;
#53=DIRECTION('Axis2P3D Direction',(0.,1.,0.)) ;
#54=DIRECTION('Axis2P3D XDirection',(0.479425538604,-0.,0.87758256189)) ;
#58=DIRECTION('Axis2P3D Direction',(0.,1.,0.)) ;
#67=DIRECTION('Vector Direction',(0.,1.,0.)) ;
#74=DIRECTION('Axis2P3D Direction',(0.,1.,0.)) ;
#81=DIRECTION('Vector Direction',(0.,1.,0.)) ;
#93=DIRECTION('Axis2P3D Direction',(0.,1.,0.)) ;
#98=DIRECTION('Axis2P3D Direction',(0.,1.,0.)) ;
#110=DIRECTION('Axis2P3D Direction',(0.,1.,0.)) ;
#111=DIRECTION('Axis2P3D XDirection',(1.,-0.,0.)) ;
#119=DIRECTION('Axis2P3D Direction',(0.,1.,0.)) ;
#128=DIRECTION('Axis2P3D Direction',(0.,1.,0.)) ;
#138=DIRECTION('Axis2P3D Direction',(0.,1.,0.)) ;
#139=DIRECTION('Axis2P3D XDirection',(1.,-0.,0.)) ;
#147=DIRECTION('Axis2P3D Direction',(0.,1.,0.)) ;
#156=DIRECTION('Axis2P3D Direction',(0.,1.,0.)) ;
#170=DIRECTION('Axis2P3D Direction',(0.,1.,0.)) ;
#179=DIRECTION('Axis2P3D Direction',(0.,1.,0.)) ;
#189=DIRECTION('Axis2P3D Direction',(-5.3290705182E-015,-1.,-5.3290705182E-015)) ;
#190=DIRECTION('Axis2P3D XDirection',(-0.359621277897,6.98057178462E-015,-0.93309835306)) ;
#194=DIRECTION('Vector Direction',(-0.339005049421,-0.707106781187,-0.620544580564)) ;
#201=DIRECTION('Axis2P3D Direction',(2.85164166601E-015,1.,-1.09903850615E-015)) ;
#208=DIRECTION('Vector Direction',(0.339005049421,-0.707106781187,0.620544580564)) ;
#220=DIRECTION('Axis2P3D Direction',(-8.881784197E-015,-1.,0.)) ;
#221=DIRECTION('Axis2P3D XDirection',(0.479425538604,-4.21468485109E-015,0.87758256189)) ;
#225=DIRECTION('Axis2P3D Direction',(6.84031633943E-015,1.,-3.73688184755E-015)) ;
#237=DIRECTION('Axis2P3D Direction',(0.,1.,0.)) ;
#238=DIRECTION('Axis2P3D XDirection',(0.479425538604,-0.,0.87758256189)) ;
#242=DIRECTION('Vector Direction',(0.,1.,0.)) ;
#249=DIRECTION('Vector Direction',(0.,1.,0.)) ;
#256=DIRECTION('Axis2P3D Direction',(0.,1.,0.)) ;
#268=DIRECTION('Axis2P3D Direction',(0.,1.,0.)) ;
#280=DIRECTION('Axis2P3D Direction',(4.4408920985E-015,-1.,-2.22044604925E-015)) ;
#281=DIRECTION('Axis2P3D XDirection',(-0.301068085538,7.90253409579E-016,-0.95360264674)) ;
#285=DIRECTION('Vector Direction',(-0.339005049421,-0.707106781187,-0.620544580564)) ;
#292=DIRECTION('Vector Direction',(0.339005049421,-0.707106781187,0.620544580564)) ;
#299=DIRECTION('Axis2P3D Direction',(-4.67584934984E-015,1.,1.47624276929E-015)) ;
#311=DIRECTION('Axis2P3D Direction',(3.5527136788E-015,-1.,-2.10942374679E-015)) ;
#312=DIRECTION('Axis2P3D XDirection',(0.479425538604,-1.31708901597E-016,0.87758256189)) ;
#316=DIRECTION('Axis2P3D Direction',(-3.62363597457E-015,1.,1.97960135519E-015)) ;
#328=DIRECTION('Axis2P3D Direction',(0.,1.,0.)) ;
#329=DIRECTION('Axis2P3D XDirection',(0.479425538604,-0.,0.87758256189)) ;
#333=DIRECTION('Axis2P3D Direction',(0.,1.,0.)) ;
#342=DIRECTION('Vector Direction',(0.,1.,0.)) ;
#347=DIRECTION('Vector Direction',(0.,1.,0.)) ;
#359=DIRECTION('Axis2P3D Direction',(0.,1.,0.)) ;
#371=DIRECTION('Axis2P3D Direction',(0.,1.,0.)) ;
#372=DIRECTION('Axis2P3D XDirection',(1.,-0.,0.)) ;
#380=DIRECTION('Axis2P3D Direction',(0.,1.,0.)) ;
#389=DIRECTION('Axis2P3D Direction',(0.,1.,0.)) ;
#399=DIRECTION('Axis2P3D Direction',(1.7763568394E-015,1.,2.6645352591E-015)) ;
#400=DIRECTION('Axis2P3D XDirection',(0.0098147102131,2.63417803193E-015,-0.999951834572)) ;
#404=DIRECTION('Vector Direction',(-0.339005051105,0.707106781187,-0.620544579644)) ;
#409=DIRECTION('Vector Direction',(0.339005049421,0.707106781187,0.620544580564)) ;
#421=DIRECTION('Axis2P3D Direction',(-5.3290705182E-015,1.,4.66293670343E-015)) ;
#422=DIRECTION('Axis2P3D XDirection',(0.479425538604,-1.58050681916E-015,0.87758256189)) ;
#48=AXIS2_PLACEMENT_3D(' ',#47,$,$) ;
#55=AXIS2_PLACEMENT_3D('Cylinder Axis2P3D',#52,#53,#54) ;
#59=AXIS2_PLACEMENT_3D('Circle Axis2P3D',#57,#58,$) ;
#75=AXIS2_PLACEMENT_3D('Circle Axis2P3D',#73,#74,$) ;
#94=AXIS2_PLACEMENT_3D('Circle Axis2P3D',#92,#93,$) ;
#99=AXIS2_PLACEMENT_3D('Circle Axis2P3D',#97,#98,$) ;
#112=AXIS2_PLACEMENT_3D('Plane Axis2P3D',#109,#110,#111) ;
#120=AXIS2_PLACEMENT_3D('Circle Axis2P3D',#118,#119,$) ;
#129=AXIS2_PLACEMENT_3D('Circle Axis2P3D',#127,#128,$) ;
#140=AXIS2_PLACEMENT_3D('Plane Axis2P3D',#137,#138,#139) ;
#148=AXIS2_PLACEMENT_3D('Circle Axis2P3D',#146,#147,$) ;
#157=AXIS2_PLACEMENT_3D('Circle Axis2P3D',#155,#156,$) ;
#171=AXIS2_PLACEMENT_3D('Circle Axis2P3D',#169,#170,$) ;
#180=AXIS2_PLACEMENT_3D('Circle Axis2P3D',#178,#179,$) ;
#191=AXIS2_PLACEMENT_3D('Cone Axis2P3D',#188,#189,#190) ;
#202=AXIS2_PLACEMENT_3D('Circle Axis2P3D',#200,#201,$) ;
#222=AXIS2_PLACEMENT_3D('Cone Axis2P3D',#219,#220,#221) ;
#226=AXIS2_PLACEMENT_3D('Circle Axis2P3D',#224,#225,$) ;
#239=AXIS2_PLACEMENT_3D('Cylinder Axis2P3D',#236,#237,#238) ;
#257=AXIS2_PLACEMENT_3D('Circle Axis2P3D',#255,#256,$) ;
#269=AXIS2_PLACEMENT_3D('Circle Axis2P3D',#267,#268,$) ;
#282=AXIS2_PLACEMENT_3D('Cone Axis2P3D',#279,#280,#281) ;
#300=AXIS2_PLACEMENT_3D('Circle Axis2P3D',#298,#299,$) ;
#313=AXIS2_PLACEMENT_3D('Cone Axis2P3D',#310,#311,#312) ;
#317=AXIS2_PLACEMENT_3D('Circle Axis2P3D',#315,#316,$) ;
#330=AXIS2_PLACEMENT_3D('Cylinder Axis2P3D',#327,#328,#329) ;
#334=AXIS2_PLACEMENT_3D('Circle Axis2P3D',#332,#333,$) ;
#360=AXIS2_PLACEMENT_3D('Circle Axis2P3D',#358,#359,$) ;
#373=AXIS2_PLACEMENT_3D('Plane Axis2P3D',#370,#371,#372) ;
#381=AXIS2_PLACEMENT_3D('Circle Axis2P3D',#379,#380,$) ;
#390=AXIS2_PLACEMENT_3D('Circle Axis2P3D',#388,#389,$) ;
#401=AXIS2_PLACEMENT_3D('Cone Axis2P3D',#398,#399,#400) ;
#423=AXIS2_PLACEMENT_3D('Cone Axis2P3D',#420,#421,#422) ;
#40=PRODUCT_DEFINITION_SHAPE(' ',' ',#14) ;
#31=APPROVAL_PERSON_ORGANIZATION(#25,#21,#19) ;
#25=PERSON_AND_ORGANIZATION(#22,#23) ;
#22=PERSON(' ',' ',' ',$,$,$) ;
#23=ORGANIZATION(' ',' ',' ') ;
#21=APPROVAL(#20,' ') ;
#20=APPROVAL_STATUS('not_yet_approved') ;
#19=APPROVAL_ROLE('APPROVER') ;
#13=DATE_AND_TIME(#11,#12) ;
#12=LOCAL_TIME(22,24,15.,#10) ;
#10=COORDINATED_UNIVERSAL_TIME_OFFSET(0,0,.AHEAD.) ;
#86=ORIENTED_EDGE('',*,*,#65,.F.) ;
#87=ORIENTED_EDGE('',*,*,#72,.T.) ;
#88=ORIENTED_EDGE('',*,*,#79,.T.) ;
#89=ORIENTED_EDGE('',*,*,#84,.F.) ;
#103=ORIENTED_EDGE('',*,*,#96,.F.) ;
#104=ORIENTED_EDGE('',*,*,#84,.T.) ;
#105=ORIENTED_EDGE('',*,*,#101,.T.) ;
#106=ORIENTED_EDGE('',*,*,#72,.F.) ;
#115=ORIENTED_EDGE('',*,*,#96,.T.) ;
#116=ORIENTED_EDGE('',*,*,#65,.T.) ;
#133=ORIENTED_EDGE('',*,*,#126,.F.) ;
#134=ORIENTED_EDGE('',*,*,#131,.F.) ;
#143=ORIENTED_EDGE('',*,*,#79,.F.) ;
#144=ORIENTED_EDGE('',*,*,#101,.F.) ;
#161=ORIENTED_EDGE('',*,*,#154,.T.) ;
#162=ORIENTED_EDGE('',*,*,#159,.T.) ;
#166=ORIENTED_EDGE('',*,*,#159,.F.) ;
#167=ORIENTED_EDGE('',*,*,#154,.F.) ;
#184=ORIENTED_EDGE('',*,*,#177,.T.) ;
#185=ORIENTED_EDGE('',*,*,#182,.T.) ;
#213=ORIENTED_EDGE('',*,*,#199,.T.) ;
#214=ORIENTED_EDGE('',*,*,#206,.T.) ;
#215=ORIENTED_EDGE('',*,*,#211,.F.) ;
#216=ORIENTED_EDGE('',*,*,#177,.F.) ;
#230=ORIENTED_EDGE('',*,*,#211,.T.) ;
#231=ORIENTED_EDGE('',*,*,#228,.T.) ;
#232=ORIENTED_EDGE('',*,*,#199,.F.) ;
#233=ORIENTED_EDGE('',*,*,#182,.F.) ;
#261=ORIENTED_EDGE('',*,*,#247,.T.) ;
#262=ORIENTED_EDGE('',*,*,#126,.T.) ;
#263=ORIENTED_EDGE('',*,*,#254,.F.) ;
#264=ORIENTED_EDGE('',*,*,#259,.F.) ;
#273=ORIENTED_EDGE('',*,*,#254,.T.) ;
#274=ORIENTED_EDGE('',*,*,#131,.T.) ;
#275=ORIENTED_EDGE('',*,*,#247,.F.) ;
#276=ORIENTED_EDGE('',*,*,#271,.F.) ;
#304=ORIENTED_EDGE('',*,*,#290,.T.) ;
#305=ORIENTED_EDGE('',*,*,#271,.T.) ;
#306=ORIENTED_EDGE('',*,*,#297,.F.) ;
#307=ORIENTED_EDGE('',*,*,#302,.F.) ;
#321=ORIENTED_EDGE('',*,*,#297,.T.) ;
#322=ORIENTED_EDGE('',*,*,#259,.T.) ;
#323=ORIENTED_EDGE('',*,*,#290,.F.) ;
#324=ORIENTED_EDGE('',*,*,#319,.F.) ;
#352=ORIENTED_EDGE('',*,*,#340,.T.) ;
#353=ORIENTED_EDGE('',*,*,#345,.F.) ;
#354=ORIENTED_EDGE('',*,*,#228,.F.) ;
#355=ORIENTED_EDGE('',*,*,#350,.T.) ;
#364=ORIENTED_EDGE('',*,*,#362,.T.) ;
#365=ORIENTED_EDGE('',*,*,#350,.F.) ;
#366=ORIENTED_EDGE('',*,*,#206,.F.) ;
#367=ORIENTED_EDGE('',*,*,#345,.T.) ;
#376=ORIENTED_EDGE('',*,*,#302,.T.) ;
#377=ORIENTED_EDGE('',*,*,#319,.T.) ;
#394=ORIENTED_EDGE('',*,*,#387,.F.) ;
#395=ORIENTED_EDGE('',*,*,#392,.F.) ;
#414=ORIENTED_EDGE('',*,*,#407,.T.) ;
#415=ORIENTED_EDGE('',*,*,#392,.T.) ;
#416=ORIENTED_EDGE('',*,*,#412,.F.) ;
#417=ORIENTED_EDGE('',*,*,#362,.F.) ;
#426=ORIENTED_EDGE('',*,*,#412,.T.) ;
#427=ORIENTED_EDGE('',*,*,#387,.T.) ;
#428=ORIENTED_EDGE('',*,*,#407,.F.) ;
#429=ORIENTED_EDGE('',*,*,#340,.F.) ;
#135=FACE_BOUND('',#132,.T.) ;
#163=FACE_BOUND('',#160,.T.) ;
#186=FACE_BOUND('',#183,.T.) ;
#396=FACE_BOUND('',#393,.T.) ;
#51=CLOSED_SHELL('Closed Shell',(#91,#108,#136,#164,#187,#218,#235,#266,#278,#309,#326,#357,#369,#397,#419,#431)) ;
#68=VECTOR('Line Direction',#67,1.) ;
#82=VECTOR('Line Direction',#81,1.) ;
#195=VECTOR('Line Direction',#194,1.) ;
#209=VECTOR('Line Direction',#208,1.) ;
#243=VECTOR('Line Direction',#242,1.) ;
#250=VECTOR('Line Direction',#249,1.) ;
#286=VECTOR('Line Direction',#285,1.) ;
#293=VECTOR('Line Direction',#292,1.) ;
#343=VECTOR('Line Direction',#342,1.) ;
#348=VECTOR('Line Direction',#347,1.) ;
#405=VECTOR('Line Direction',#404,1.) ;
#410=VECTOR('Line Direction',#409,1.) ;
#433=ADVANCED_BREP_SHAPE_REPRESENTATION('NONE',(#432),#46) ;
#49=SHAPE_REPRESENTATION(' ',(#48),#46) ;
#91=ADVANCED_FACE('Corps principal',(#90),#56,.T.) ;
#108=ADVANCED_FACE('Corps principal',(#107),#56,.T.) ;
#136=ADVANCED_FACE('Corps principal',(#117,#135),#113,.T.) ;
#164=ADVANCED_FACE('Corps principal',(#145,#163),#141,.F.) ;
#187=ADVANCED_FACE('Corps principal',(#168,#186),#141,.F.) ;
#218=ADVANCED_FACE('Corps principal',(#217),#192,.F.) ;
#235=ADVANCED_FACE('Corps principal',(#234),#223,.F.) ;
#266=ADVANCED_FACE('Corps principal',(#265),#240,.T.) ;
#278=ADVANCED_FACE('Corps principal',(#277),#240,.T.) ;
#309=ADVANCED_FACE('Corps principal',(#308),#283,.T.) ;
#326=ADVANCED_FACE('Corps principal',(#325),#314,.T.) ;
#357=ADVANCED_FACE('Corps principal',(#356),#331,.F.) ;
#369=ADVANCED_FACE('Corps principal',(#368),#331,.F.) ;
#397=ADVANCED_FACE('Corps principal',(#378,#396),#374,.T.) ;
#419=ADVANCED_FACE('Corps principal',(#418),#402,.F.) ;
#431=ADVANCED_FACE('Corps principal',(#430),#424,.F.) ;
#4=APPLICATION_PROTOCOL_DEFINITION('international standard','config_control_design',1994,#1) ;
#32=APPROVAL_DATE_TIME(#13,#21) ;
#432=MANIFOLD_SOLID_BREP('Corps principal',#51) ;
#11=CALENDAR_DATE(2021,25,2) ;
#30=CC_DESIGN_APPROVAL(#21,(#16,#6,#14)) ;
#18=CC_DESIGN_DATE_AND_TIME_ASSIGNMENT(#13,#17,(#16)) ;
#29=CC_DESIGN_DATE_AND_TIME_ASSIGNMENT(#13,#28,(#14)) ;
#17=DATE_TIME_ROLE('classification_date') ;
#28=DATE_TIME_ROLE('creation_date') ;
#27=CC_DESIGN_PERSON_AND_ORGANIZATION_ASSIGNMENT(#25,#26,(#16)) ;
#33=CC_DESIGN_PERSON_AND_ORGANIZATION_ASSIGNMENT(#25,#34,(#6)) ;
#35=CC_DESIGN_PERSON_AND_ORGANIZATION_ASSIGNMENT(#25,#36,(#6,#14)) ;
#37=CC_DESIGN_PERSON_AND_ORGANIZATION_ASSIGNMENT(#25,#38,(#5)) ;
#26=PERSON_AND_ORGANIZATION_ROLE('classification_officer') ;
#34=PERSON_AND_ORGANIZATION_ROLE('design_supplier') ;
#36=PERSON_AND_ORGANIZATION_ROLE('creator') ;
#38=PERSON_AND_ORGANIZATION_ROLE('design_owner') ;
#39=CC_DESIGN_SECURITY_CLASSIFICATION(#16,(#6)) ;
#60=CIRCLE('generated circle',#59,18.3) ;
#76=CIRCLE('generated circle',#75,18.3) ;
#95=CIRCLE('generated circle',#94,18.3) ;
#100=CIRCLE('generated circle',#99,18.3) ;
#121=CIRCLE('generated circle',#120,17.5) ;
#130=CIRCLE('generated circle',#129,17.5) ;
#149=CIRCLE('generated circle',#148,17.5) ;
#158=CIRCLE('generated circle',#157,17.5) ;
#172=CIRCLE('generated circle',#171,10.7) ;
#181=CIRCLE('generated circle',#180,10.7) ;
#203=CIRCLE('generated circle',#202,10.2) ;
#227=CIRCLE('generated circle',#226,10.2) ;
#258=CIRCLE('generated circle',#257,17.5) ;
#270=CIRCLE('generated circle',#269,17.5) ;
#301=CIRCLE('generated circle',#300,15.5) ;
#318=CIRCLE('generated circle',#317,15.5) ;
#335=CIRCLE('generated circle',#334,10.2) ;
#361=CIRCLE('generated circle',#360,10.2) ;
#382=CIRCLE('generated circle',#381,11.2) ;
#391=CIRCLE('generated circle',#390,11.2) ;
#192=CONICAL_SURFACE('Cone',#191,0.,0.785398163397) ;
#223=CONICAL_SURFACE('Cone',#222,0.,0.785398163397) ;
#283=CONICAL_SURFACE('Cone',#282,0.,0.785398163397) ;
#314=CONICAL_SURFACE('Cone',#313,0.,0.785398163397) ;
#402=CONICAL_SURFACE('Cone',#401,0.,0.785398163397) ;
#424=CONICAL_SURFACE('Cone',#423,0.,0.785398163397) ;
#434=SHAPE_REPRESENTATION_RELATIONSHIP(' ',' ',#49,#433) ;
#56=CYLINDRICAL_SURFACE('generated cylinder',#55,18.3) ;
#240=CYLINDRICAL_SURFACE('generated cylinder',#239,17.5) ;
#331=CYLINDRICAL_SURFACE('generated cylinder',#330,10.2) ;
#3=DESIGN_CONTEXT(' ',#1,'design') ;
#65=EDGE_CURVE('',#62,#64,#60,.T.) ;
#72=EDGE_CURVE('',#62,#71,#69,.F.) ;
#79=EDGE_CURVE('',#71,#78,#76,.T.) ;
#84=EDGE_CURVE('',#64,#78,#83,.F.) ;
#96=EDGE_CURVE('',#64,#62,#95,.T.) ;
#101=EDGE_CURVE('',#78,#71,#100,.T.) ;
#126=EDGE_CURVE('',#123,#125,#121,.T.) ;
#131=EDGE_CURVE('',#125,#123,#130,.T.) ;
#154=EDGE_CURVE('',#151,#153,#149,.T.) ;
#159=EDGE_CURVE('',#153,#151,#158,.T.) ;
#177=EDGE_CURVE('',#174,#176,#172,.T.) ;
#182=EDGE_CURVE('',#176,#174,#181,.T.) ;
#199=EDGE_CURVE('',#174,#198,#196,.F.) ;
#206=EDGE_CURVE('',#198,#205,#203,.T.) ;
#211=EDGE_CURVE('',#176,#205,#210,.F.) ;
#228=EDGE_CURVE('',#205,#198,#227,.T.) ;
#247=EDGE_CURVE('',#246,#123,#244,.F.) ;
#254=EDGE_CURVE('',#253,#125,#251,.F.) ;
#259=EDGE_CURVE('',#246,#253,#258,.T.) ;
#271=EDGE_CURVE('',#253,#246,#270,.T.) ;
#290=EDGE_CURVE('',#289,#253,#287,.T.) ;
#297=EDGE_CURVE('',#296,#246,#294,.T.) ;
#302=EDGE_CURVE('',#289,#296,#301,.T.) ;
#319=EDGE_CURVE('',#296,#289,#318,.T.) ;
#340=EDGE_CURVE('',#337,#339,#335,.T.) ;
#345=EDGE_CURVE('',#198,#339,#344,.T.) ;
#350=EDGE_CURVE('',#205,#337,#349,.T.) ;
#362=EDGE_CURVE('',#339,#337,#361,.T.) ;
#387=EDGE_CURVE('',#384,#386,#382,.T.) ;
#392=EDGE_CURVE('',#386,#384,#391,.T.) ;
#407=EDGE_CURVE('',#339,#386,#406,.T.) ;
#412=EDGE_CURVE('',#337,#384,#411,.T.) ;
#85=EDGE_LOOP('',(#86,#87,#88,#89)) ;
#102=EDGE_LOOP('',(#103,#104,#105,#106)) ;
#114=EDGE_LOOP('',(#115,#116)) ;
#132=EDGE_LOOP('',(#133,#134)) ;
#142=EDGE_LOOP('',(#143,#144)) ;
#160=EDGE_LOOP('',(#161,#162)) ;
#165=EDGE_LOOP('',(#166,#167)) ;
#183=EDGE_LOOP('',(#184,#185)) ;
#212=EDGE_LOOP('',(#213,#214,#215,#216)) ;
#229=EDGE_LOOP('',(#230,#231,#232,#233)) ;
#260=EDGE_LOOP('',(#261,#262,#263,#264)) ;
#272=EDGE_LOOP('',(#273,#274,#275,#276)) ;
#303=EDGE_LOOP('',(#304,#305,#306,#307)) ;
#320=EDGE_LOOP('',(#321,#322,#323,#324)) ;
#351=EDGE_LOOP('',(#352,#353,#354,#355)) ;
#363=EDGE_LOOP('',(#364,#365,#366,#367)) ;
#375=EDGE_LOOP('',(#376,#377)) ;
#393=EDGE_LOOP('',(#394,#395)) ;
#413=EDGE_LOOP('',(#414,#415,#416,#417)) ;
#425=EDGE_LOOP('',(#426,#427,#428,#429)) ;
#90=FACE_OUTER_BOUND('',#85,.T.) ;
#107=FACE_OUTER_BOUND('',#102,.T.) ;
#117=FACE_OUTER_BOUND('',#114,.T.) ;
#145=FACE_OUTER_BOUND('',#142,.T.) ;
#168=FACE_OUTER_BOUND('',#165,.T.) ;
#217=FACE_OUTER_BOUND('',#212,.T.) ;
#234=FACE_OUTER_BOUND('',#229,.T.) ;
#265=FACE_OUTER_BOUND('',#260,.T.) ;
#277=FACE_OUTER_BOUND('',#272,.T.) ;
#308=FACE_OUTER_BOUND('',#303,.T.) ;
#325=FACE_OUTER_BOUND('',#320,.T.) ;
#356=FACE_OUTER_BOUND('',#351,.T.) ;
#368=FACE_OUTER_BOUND('',#363,.T.) ;
#378=FACE_OUTER_BOUND('',#375,.T.) ;
#418=FACE_OUTER_BOUND('',#413,.T.) ;
#430=FACE_OUTER_BOUND('',#425,.T.) ;
#45=UNCERTAINTY_MEASURE_WITH_UNIT(LENGTH_MEASURE(0.005),#41,'distance_accuracy_value','CONFUSED CURVE UNCERTAINTY') ;
#69=LINE('Line',#66,#68) ;
#83=LINE('Line',#80,#82) ;
#196=LINE('Line',#193,#195) ;
#210=LINE('Line',#207,#209) ;
#244=LINE('Line',#241,#243) ;
#251=LINE('Line',#248,#250) ;
#287=LINE('Line',#284,#286) ;
#294=LINE('Line',#291,#293) ;
#344=LINE('Line',#341,#343) ;
#349=LINE('Line',#346,#348) ;
#406=LINE('Line',#403,#405) ;
#411=LINE('Line',#408,#410) ;
#2=MECHANICAL_CONTEXT(' ',#1,'mechanical') ;
#24=PERSONAL_ADDRESS(' ',' ',' ',' ',' ',' ',' ',' ',' ',' ',' ',' ',(#22),' ') ;
#113=PLANE('Plane',#112) ;
#141=PLANE('Plane',#140) ;
#374=PLANE('Plane',#373) ;
#43=PLANE_ANGLE_MEASURE_WITH_UNIT(PLANE_ANGLE_MEASURE(0.0174532925199),#42) ;
#7=PRODUCT_CATEGORY('part',$) ;
#9=PRODUCT_CATEGORY_RELATIONSHIP(' ',' ',#7,#8) ;
#6=PRODUCT_DEFINITION_FORMATION_WITH_SPECIFIED_SOURCE('',' ',#5,.NOT_KNOWN.) ;
#8=PRODUCT_RELATED_PRODUCT_CATEGORY('detail',$,(#5)) ;
#50=SHAPE_DEFINITION_REPRESENTATION(#40,#49) ;
#62=VERTEX_POINT('',#61) ;
#64=VERTEX_POINT('',#63) ;
#71=VERTEX_POINT('',#70) ;
#78=VERTEX_POINT('',#77) ;
#123=VERTEX_POINT('',#122) ;
#125=VERTEX_POINT('',#124) ;
#151=VERTEX_POINT('',#150) ;
#153=VERTEX_POINT('',#152) ;
#174=VERTEX_POINT('',#173) ;
#176=VERTEX_POINT('',#175) ;
#198=VERTEX_POINT('',#197) ;
#205=VERTEX_POINT('',#204) ;
#246=VERTEX_POINT('',#245) ;
#253=VERTEX_POINT('',#252) ;
#289=VERTEX_POINT('',#288) ;
#296=VERTEX_POINT('',#295) ;
#337=VERTEX_POINT('',#336) ;
#339=VERTEX_POINT('',#338) ;
#384=VERTEX_POINT('',#383) ;
#386=VERTEX_POINT('',#385) ;
#41=(LENGTH_UNIT()NAMED_UNIT(*)SI_UNIT(.MILLI.,.METRE.)) ;
#42=(NAMED_UNIT(*)PLANE_ANGLE_UNIT()SI_UNIT($,.RADIAN.)) ;
#44=(NAMED_UNIT(*)SI_UNIT($,.STERADIAN.)SOLID_ANGLE_UNIT()) ;
#46=(GEOMETRIC_REPRESENTATION_CONTEXT(3)GLOBAL_UNCERTAINTY_ASSIGNED_CONTEXT((#45))GLOBAL_UNIT_ASSIGNED_CONTEXT((#41,#42,#44))REPRESENTATION_CONTEXT(' ',' ')) ;
ENDSEC;
END-ISO-10303-21;
