ISO-10303-21;
HEADER;
FILE_DESCRIPTION (( 'STEP AP203' ),
    '1' );
FILE_NAME ('entretoise3.STEP',
    '2020-12-03T10:41:10',
    ( '' ),
    ( '' ),
    'SwSTEP 2.0',
    'SolidWorks 2019',
    '' );
FILE_SCHEMA (( 'CONFIG_CONTROL_DESIGN' ));
ENDSEC;

DATA;
#1 = DIRECTION ( 'NONE',  ( 0.000000000000000000, 0.000000000000000000, 1.000000000000000000 ) ) ;
#2 = EDGE_CURVE ( 'NONE', #289, #60, #38, .T. ) ;
#3 = CALENDAR_DATE ( 2020, 3, 12 ) ;
#4 = DIRECTION ( 'NONE',  ( -1.000000000000000000, 0.000000000000000000, 0.000000000000000000 ) ) ;
#5 = CC_DESIGN_APPROVAL ( #128, ( #201 ) ) ;
#6 = PERSON_AND_ORGANIZATION_ROLE ( 'design_supplier' ) ;
#7 = DIRECTION ( 'NONE',  ( -0.000000000000000000, -0.000000000000000000, -1.000000000000000000 ) ) ;
#8 = EDGE_CURVE ( 'NONE', #212, #169, #113, .T. ) ;
#9 = CARTESIAN_POINT ( 'NONE',  ( 0.000000000000000000, 25.00000000000000711, 0.000000000000000000 ) ) ;
#10 = DIRECTION ( 'NONE',  ( 0.000000000000000000, 0.000000000000000000, 1.000000000000000000 ) ) ;
#11 = CIRCLE ( 'NONE', #299, 15.00000000000000000 ) ;
#12 = VERTEX_POINT ( 'NONE', #24 ) ;
#13 = EDGE_CURVE ( 'NONE', #135, #181, #235, .T. ) ;
#14 = ORIENTED_EDGE ( 'NONE', *, *, #244, .F. ) ;
#15 = CYLINDRICAL_SURFACE ( 'NONE', #387, 15.00000000000000000 ) ;
#16 = CIRCLE ( 'NONE', #375, 15.00000000000000000 ) ;
#17 = VERTEX_POINT ( 'NONE', #51 ) ;
#18 = ORGANIZATION ( 'UNSPECIFIED', 'UNSPECIFIED', '' ) ;
#19 = PRODUCT_RELATED_PRODUCT_CATEGORY ( 'detail', '', ( #163 ) ) ;
#20 = ORIENTED_EDGE ( 'NONE', *, *, #13, .F. ) ;
#21 = ORIENTED_EDGE ( 'NONE', *, *, #292, .F. ) ;
#22 = CARTESIAN_POINT ( 'NONE',  ( -5.000000000000000888, 25.00000000000000711, 10.00000000000000000 ) ) ;
#23 = CARTESIAN_POINT ( 'NONE',  ( 5.000000000000001776, -25.00000000000000711, 0.000000000000000000 ) ) ;
#24 = CARTESIAN_POINT ( 'NONE',  ( -15.00000000000000000, -25.00000000000000355, 0.000000000000000000 ) ) ;
#25 = DIRECTION ( 'NONE',  ( 0.000000000000000000, -1.000000000000000000, 0.000000000000000000 ) ) ;
#26 = AXIS2_PLACEMENT_3D ( 'NONE', #227, #198, #42 ) ;
#27 = APPROVAL_PERSON_ORGANIZATION ( #137, #130, #45 ) ;
#28 = DATE_AND_TIME ( #3, #348 ) ;
#29 = EDGE_CURVE ( 'NONE', #181, #12, #322, .T. ) ;
#30 = DIRECTION ( 'NONE',  ( 0.000000000000000000, 0.000000000000000000, 1.000000000000000000 ) ) ;
#31 = PERSON_AND_ORGANIZATION ( #103, #18 ) ;
#32 = PLANE ( 'NONE',  #57 ) ;
#33 = DIRECTION ( 'NONE',  ( -0.000000000000000000, 0.000000000000000000, -1.000000000000000000 ) ) ;
#34 = PLANE ( 'NONE',  #65 ) ;
#35 = AXIS2_PLACEMENT_3D ( 'NONE', #127, #279, #331 ) ;
#36 = DIRECTION ( 'NONE',  ( 1.000000000000000000, 0.000000000000000000, 0.000000000000000000 ) ) ;
#37 = CARTESIAN_POINT ( 'NONE',  ( 15.00000000000000000, 25.00000000000000711, 10.00000000000000000 ) ) ;
#38 = CIRCLE ( 'NONE', #225, 5.000000000000001776 ) ;
#39 =( GEOMETRIC_REPRESENTATION_CONTEXT ( 3 ) GLOBAL_UNCERTAINTY_ASSIGNED_CONTEXT ( ( #371 ) ) GLOBAL_UNIT_ASSIGNED_CONTEXT ( ( #55, #140, #242 ) ) REPRESENTATION_CONTEXT ( 'NONE', 'WORKASPACE' ) );
#40 = ORIENTED_EDGE ( 'NONE', *, *, #63, .F. ) ;
#41 = EDGE_LOOP ( 'NONE', ( #123, #98 ) ) ;
#42 = DIRECTION ( 'NONE',  ( 1.000000000000000000, 0.000000000000000000, 0.000000000000000000 ) ) ;
#43 = ORIENTED_EDGE ( 'NONE', *, *, #229, .F. ) ;
#44 = EDGE_CURVE ( 'NONE', #78, #70, #46, .T. ) ;
#45 = APPROVAL_ROLE ( '' ) ;
#46 = CIRCLE ( 'NONE', #50, 5.000000000000001776 ) ;
#47 = EDGE_LOOP ( 'NONE', ( #164, #372, #68, #376 ) ) ;
#48 = ORIENTED_EDGE ( 'NONE', *, *, #229, .T. ) ;
#49 = LINE ( 'NONE', #172, #275 ) ;
#50 = AXIS2_PLACEMENT_3D ( 'NONE', #53, #209, #80 ) ;
#51 = CARTESIAN_POINT ( 'NONE',  ( 15.00000000000000000, -25.00000000000000711, 0.000000000000000000 ) ) ;
#52 = ADVANCED_FACE ( 'NONE', ( #176, #205, #350 ), #264, .T. ) ;
#53 = CARTESIAN_POINT ( 'NONE',  ( 0.000000000000000000, -25.00000000000000711, 10.00000000000000000 ) ) ;
#54 = VERTEX_POINT ( 'NONE', #324 ) ;
#55 =( LENGTH_UNIT ( ) NAMED_UNIT ( * ) SI_UNIT ( .MILLI., .METRE. ) );
#56 = CARTESIAN_POINT ( 'NONE',  ( 0.000000000000000000, -25.00000000000000711, 10.00000000000000000 ) ) ;
#57 = AXIS2_PLACEMENT_3D ( 'NONE', #365, #241, #88 ) ;
#58 = PERSON_AND_ORGANIZATION ( #103, #18 ) ;
#59 = CYLINDRICAL_SURFACE ( 'NONE', #368, 5.000000000000001776 ) ;
#60 = VERTEX_POINT ( 'NONE', #23 ) ;
#61 = CALENDAR_DATE ( 2020, 3, 12 ) ;
#62 = CARTESIAN_POINT ( 'NONE',  ( -15.00000000000000000, 25.00000000000000711, 0.000000000000000000 ) ) ;
#63 = EDGE_CURVE ( 'NONE', #12, #17, #16, .T. ) ;
#64 = FACE_BOUND ( 'NONE', #341, .T. ) ;
#65 = AXIS2_PLACEMENT_3D ( 'NONE', #9, #1, #334 ) ;
#66 = CARTESIAN_POINT ( 'NONE',  ( 15.00000000000000000, -25.00000000000000711, 10.00000000000000000 ) ) ;
#67 = APPROVAL ( #150, 'UNSPECIFIED' ) ;
#68 = ORIENTED_EDGE ( 'NONE', *, *, #285, .T. ) ;
#69 = VECTOR ( 'NONE', #148, 1000.000000000000000 ) ;
#70 = VERTEX_POINT ( 'NONE', #385 ) ;
#71 = LINE ( 'NONE', #277, #115 ) ;
#72 = ORIENTED_EDGE ( 'NONE', *, *, #323, .T. ) ;
#73 = EDGE_CURVE ( 'NONE', #60, #289, #168, .T. ) ;
#74 = DIRECTION ( 'NONE',  ( -0.000000000000000000, -0.000000000000000000, -1.000000000000000000 ) ) ;
#75 = VERTEX_POINT ( 'NONE', #239 ) ;
#76 = AXIS2_PLACEMENT_3D ( 'NONE', #92, #217, #33 ) ;
#77 = AXIS2_PLACEMENT_3D ( 'NONE', #325, #383, #111 ) ;
#78 = VERTEX_POINT ( 'NONE', #326 ) ;
#79 = CC_DESIGN_SECURITY_CLASSIFICATION ( #268, ( #134 ) ) ;
#80 = DIRECTION ( 'NONE',  ( 1.000000000000000000, 0.000000000000000000, 0.000000000000000000 ) ) ;
#81 = CARTESIAN_POINT ( 'NONE',  ( 0.000000000000000000, -25.00000000000000711, 0.000000000000000000 ) ) ;
#82 = AXIS2_PLACEMENT_3D ( 'NONE', #81, #114, #357 ) ;
#83 = EDGE_LOOP ( 'NONE', ( #287, #228, #203, #312 ) ) ;
#84 = DIRECTION ( 'NONE',  ( 1.000000000000000000, 0.000000000000000000, 0.000000000000000000 ) ) ;
#85 = EDGE_CURVE ( 'NONE', #17, #283, #265, .T. ) ;
#86 = PLANE ( 'NONE',  #76 ) ;
#87 = DIRECTION ( 'NONE',  ( -1.000000000000000000, 0.000000000000000000, 0.000000000000000000 ) ) ;
#88 = DIRECTION ( 'NONE',  ( 0.000000000000000000, 0.000000000000000000, 1.000000000000000000 ) ) ;
#89 = AXIS2_PLACEMENT_3D ( 'NONE', #295, #174, #294 ) ;
#90 = DATE_AND_TIME ( #358, #313 ) ;
#91 = CARTESIAN_POINT ( 'NONE',  ( 15.00000000000000000, 25.00000000000000711, 10.00000000000000000 ) ) ;
#92 = CARTESIAN_POINT ( 'NONE',  ( -15.00000000000000000, 25.00000000000000711, 10.00000000000000000 ) ) ;
#93 = CARTESIAN_POINT ( 'NONE',  ( 5.000000000000000888, 25.00000000000000711, 10.00000000000000000 ) ) ;
#94 = DIRECTION ( 'NONE',  ( 0.000000000000000000, -1.000000000000000000, 0.000000000000000000 ) ) ;
#95 = CIRCLE ( 'NONE', #231, 5.000000000000001776 ) ;
#96 = CARTESIAN_POINT ( 'NONE',  ( 0.000000000000000000, 25.00000000000000711, 10.00000000000000000 ) ) ;
#97 = ADVANCED_FACE ( 'NONE', ( #302 ), #269, .F. ) ;
#98 = ORIENTED_EDGE ( 'NONE', *, *, #282, .F. ) ;
#99 = ORIENTED_EDGE ( 'NONE', *, *, #73, .T. ) ;
#100 = APPLICATION_CONTEXT ( 'configuration controlled 3d designs of mechanical parts and assemblies' ) ;
#101 = ORIENTED_EDGE ( 'NONE', *, *, #2, .F. ) ;
#102 = CARTESIAN_POINT ( 'NONE',  ( -15.00000000000000000, 25.00000000000000711, 10.00000000000000000 ) ) ;
#103 = PERSON ( 'UNSPECIFIED', 'UNSPECIFIED', 'UNSPECIFIED', ('UNSPECIFIED'), ('UNSPECIFIED'), ('UNSPECIFIED') ) ;
#104 = EDGE_LOOP ( 'NONE', ( #343, #338 ) ) ;
#105 = MANIFOLD_SOLID_BREP ( 'Boss.-Extru.1', #108 ) ;
#106 = PERSON_AND_ORGANIZATION_ROLE ( 'classification_officer' ) ;
#107 = ORIENTED_EDGE ( 'NONE', *, *, #2, .T. ) ;
#108 = CLOSED_SHELL ( 'NONE', ( #193, #170, #52, #159, #319, #367, #219, #296, #351, #97 ) ) ;
#109 = VECTOR ( 'NONE', #74, 1000.000000000000000 ) ;
#110 = ORIENTED_EDGE ( 'NONE', *, *, #144, .F. ) ;
#111 = DIRECTION ( 'NONE',  ( -1.000000000000000000, 0.000000000000000000, 0.000000000000000000 ) ) ;
#112 = COORDINATED_UNIVERSAL_TIME_OFFSET ( 1, 0, .AHEAD. ) ;
#113 = LINE ( 'NONE', #233, #381 ) ;
#114 = DIRECTION ( 'NONE',  ( 0.000000000000000000, 0.000000000000000000, 1.000000000000000000 ) ) ;
#115 = VECTOR ( 'NONE', #195, 1000.000000000000000 ) ;
#116 = EDGE_CURVE ( 'NONE', #70, #78, #95, .T. ) ;
#117 = ORIENTED_EDGE ( 'NONE', *, *, #263, .F. ) ;
#118 = APPROVAL_PERSON_ORGANIZATION ( #58, #67, #240 ) ;
#119 = DIRECTION ( 'NONE',  ( -0.000000000000000000, -0.000000000000000000, -1.000000000000000000 ) ) ;
#120 = DIRECTION ( 'NONE',  ( 1.000000000000000000, 0.000000000000000000, 0.000000000000000000 ) ) ;
#121 = DIRECTION ( 'NONE',  ( -0.000000000000000000, -0.000000000000000000, -1.000000000000000000 ) ) ;
#122 = AXIS2_PLACEMENT_3D ( 'NONE', #389, #119, #87 ) ;
#123 = ORIENTED_EDGE ( 'NONE', *, *, #190, .F. ) ;
#124 = APPLICATION_PROTOCOL_DEFINITION ( 'international standard', 'config_control_design', 1994, #100 ) ;
#125 = FACE_OUTER_BOUND ( 'NONE', #230, .T. ) ;
#126 = CYLINDRICAL_SURFACE ( 'NONE', #208, 5.000000000000000888 ) ;
#127 = CARTESIAN_POINT ( 'NONE',  ( 0.000000000000000000, 25.00000000000000711, 10.00000000000000000 ) ) ;
#128 = APPROVAL ( #238, 'UNSPECIFIED' ) ;
#129 = ORIENTED_EDGE ( 'NONE', *, *, #323, .F. ) ;
#130 = APPROVAL ( #197, 'UNSPECIFIED' ) ;
#131 = ORIENTED_EDGE ( 'NONE', *, *, #223, .F. ) ;
#132 = CIRCLE ( 'NONE', #200, 5.000000000000000888 ) ;
#133 = DIRECTION ( 'NONE',  ( -0.000000000000000000, -0.000000000000000000, -1.000000000000000000 ) ) ;
#134 = PRODUCT_DEFINITION_FORMATION_WITH_SPECIFIED_SOURCE ( 'ANY', '', #163, .NOT_KNOWN. ) ;
#135 = VERTEX_POINT ( 'NONE', #382 ) ;
#136 = ORIENTED_EDGE ( 'NONE', *, *, #190, .T. ) ;
#137 = PERSON_AND_ORGANIZATION ( #103, #18 ) ;
#138 = ORIENTED_EDGE ( 'NONE', *, *, #292, .T. ) ;
#139 = EDGE_CURVE ( 'NONE', #258, #54, #232, .T. ) ;
#140 =( NAMED_UNIT ( * ) PLANE_ANGLE_UNIT ( ) SI_UNIT ( $, .RADIAN. ) );
#141 = CIRCLE ( 'NONE', #173, 15.00000000000000000 ) ;
#142 = EDGE_LOOP ( 'NONE', ( #117, #254, #40, #43 ) ) ;
#143 = DIRECTION ( 'NONE',  ( -0.000000000000000000, 1.000000000000000000, -0.000000000000000000 ) ) ;
#144 = EDGE_CURVE ( 'NONE', #212, #17, #49, .T. ) ;
#145 = DIRECTION ( 'NONE',  ( 1.000000000000000000, 0.000000000000000000, 0.000000000000000000 ) ) ;
#146 = CIRCLE ( 'NONE', #26, 5.000000000000000888 ) ;
#147 = COORDINATED_UNIVERSAL_TIME_OFFSET ( 1, 0, .AHEAD. ) ;
#148 = DIRECTION ( 'NONE',  ( -0.000000000000000000, 1.000000000000000000, -0.000000000000000000 ) ) ;
#149 = CC_DESIGN_APPROVAL ( #67, ( #134 ) ) ;
#150 = APPROVAL_STATUS ( 'not_yet_approved' ) ;
#151 = DIRECTION ( 'NONE',  ( 1.000000000000000000, 0.000000000000000000, 0.000000000000000000 ) ) ;
#152 = PERSON_AND_ORGANIZATION_ROLE ( 'creator' ) ;
#153 = FACE_OUTER_BOUND ( 'NONE', #373, .T. ) ;
#154 = ORIENTED_EDGE ( 'NONE', *, *, #85, .T. ) ;
#155 = CC_DESIGN_PERSON_AND_ORGANIZATION_ASSIGNMENT ( #261, #327, ( #163 ) ) ;
#156 = DIRECTION ( 'NONE',  ( -0.000000000000000000, -0.000000000000000000, -1.000000000000000000 ) ) ;
#157 = DIRECTION ( 'NONE',  ( -0.000000000000000000, -0.000000000000000000, -1.000000000000000000 ) ) ;
#158 = CARTESIAN_POINT ( 'NONE',  ( 0.000000000000000000, -25.00000000000000711, 10.00000000000000000 ) ) ;
#159 = ADVANCED_FACE ( 'NONE', ( #262, #384, #64 ), #34, .F. ) ;
#160 = CARTESIAN_POINT ( 'NONE',  ( 5.000000000000000888, 25.00000000000000711, 10.00000000000000000 ) ) ;
#161 = DESIGN_CONTEXT ( 'detailed design', #344, 'design' ) ;
#162 = ORIENTED_EDGE ( 'NONE', *, *, #282, .T. ) ;
#163 = PRODUCT ( 'entretoise3', 'entretoise3', '', ( #362 ) ) ;
#164 = ORIENTED_EDGE ( 'NONE', *, *, #361, .F. ) ;
#165 = SHAPE_DEFINITION_REPRESENTATION ( #337, #248 ) ;
#166 = FACE_OUTER_BOUND ( 'NONE', #347, .T. ) ;
#167 = EDGE_LOOP ( 'NONE', ( #184, #129, #207, #192 ) ) ;
#168 = CIRCLE ( 'NONE', #82, 5.000000000000001776 ) ;
#169 = VERTEX_POINT ( 'NONE', #91 ) ;
#170 = ADVANCED_FACE ( 'NONE', ( #213 ), #126, .F. ) ;
#171 = EDGE_LOOP ( 'NONE', ( #48, #316, #20, #72 ) ) ;
#172 = CARTESIAN_POINT ( 'NONE',  ( 15.00000000000000000, -25.00000000000000711, 10.00000000000000000 ) ) ;
#173 = AXIS2_PLACEMENT_3D ( 'NONE', #280, #10, #36 ) ;
#174 = DIRECTION ( 'NONE',  ( 0.000000000000000000, 0.000000000000000000, 1.000000000000000000 ) ) ;
#175 = EDGE_CURVE ( 'NONE', #169, #283, #216, .T. ) ;
#176 = FACE_BOUND ( 'NONE', #41, .T. ) ;
#177 = PERSON_AND_ORGANIZATION_ROLE ( 'creator' ) ;
#178 = CARTESIAN_POINT ( 'NONE',  ( 0.000000000000000000, -25.00000000000000711, 0.000000000000000000 ) ) ;
#179 = CIRCLE ( 'NONE', #281, 5.000000000000000888 ) ;
#180 = DATE_AND_TIME ( #61, #309 ) ;
#181 = VERTEX_POINT ( 'NONE', #328 ) ;
#182 = COORDINATED_UNIVERSAL_TIME_OFFSET ( 1, 0, .AHEAD. ) ;
#183 = LINE ( 'NONE', #188, #339 ) ;
#184 = ORIENTED_EDGE ( 'NONE', *, *, #263, .T. ) ;
#185 = PERSON_AND_ORGANIZATION ( #103, #18 ) ;
#186 = CARTESIAN_POINT ( 'NONE',  ( 0.000000000000000000, 25.00000000000000711, 10.00000000000000000 ) ) ;
#187 = DIRECTION ( 'NONE',  ( 1.000000000000000000, 0.000000000000000000, 0.000000000000000000 ) ) ;
#188 = CARTESIAN_POINT ( 'NONE',  ( -15.00000000000000000, 25.00000000000000711, 0.000000000000000000 ) ) ;
#189 = VECTOR ( 'NONE', #121, 1000.000000000000000 ) ;
#190 = EDGE_CURVE ( 'NONE', #258, #314, #311, .T. ) ;
#191 = CYLINDRICAL_SURFACE ( 'NONE', #266, 15.00000000000000000 ) ;
#192 = ORIENTED_EDGE ( 'NONE', *, *, #175, .T. ) ;
#193 = ADVANCED_FACE ( 'NONE', ( #315 ), #59, .F. ) ;
#194 = ORIENTED_EDGE ( 'NONE', *, *, #29, .T. ) ;
#195 = DIRECTION ( 'NONE',  ( -0.000000000000000000, -0.000000000000000000, -1.000000000000000000 ) ) ;
#196 = ORIENTED_EDGE ( 'NONE', *, *, #8, .F. ) ;
#197 = APPROVAL_STATUS ( 'not_yet_approved' ) ;
#198 = DIRECTION ( 'NONE',  ( 0.000000000000000000, 0.000000000000000000, 1.000000000000000000 ) ) ;
#199 = VERTEX_POINT ( 'NONE', #62 ) ;
#200 = AXIS2_PLACEMENT_3D ( 'NONE', #271, #218, #120 ) ;
#201 = PRODUCT_DEFINITION ( 'UNKNOWN', '', #134, #161 ) ;
#202 = COORDINATED_UNIVERSAL_TIME_OFFSET ( 1, 0, .AHEAD. ) ;
#203 = ORIENTED_EDGE ( 'NONE', *, *, #223, .T. ) ;
#204 = CALENDAR_DATE ( 2020, 3, 12 ) ;
#205 = FACE_OUTER_BOUND ( 'NONE', #83, .T. ) ;
#206 = CC_DESIGN_PERSON_AND_ORGANIZATION_ASSIGNMENT ( #245, #106, ( #268 ) ) ;
#207 = ORIENTED_EDGE ( 'NONE', *, *, #234, .F. ) ;
#208 = AXIS2_PLACEMENT_3D ( 'NONE', #96, #304, #4 ) ;
#209 = DIRECTION ( 'NONE',  ( 0.000000000000000000, 0.000000000000000000, 1.000000000000000000 ) ) ;
#210 = CARTESIAN_POINT ( 'NONE',  ( -15.00000000000000000, 25.00000000000000711, 10.00000000000000000 ) ) ;
#211 = LINE ( 'NONE', #332, #250 ) ;
#212 = VERTEX_POINT ( 'NONE', #66 ) ;
#213 = FACE_OUTER_BOUND ( 'NONE', #355, .T. ) ;
#214 = AXIS2_PLACEMENT_3D ( 'NONE', #364, #354, #187 ) ;
#215 = FACE_OUTER_BOUND ( 'NONE', #171, .T. ) ;
#216 = LINE ( 'NONE', #37, #189 ) ;
#217 = DIRECTION ( 'NONE',  ( 1.000000000000000000, 0.000000000000000000, -0.000000000000000000 ) ) ;
#218 = DIRECTION ( 'NONE',  ( 0.000000000000000000, 0.000000000000000000, 1.000000000000000000 ) ) ;
#219 = ADVANCED_FACE ( 'NONE', ( #125 ), #191, .T. ) ;
#220 = CARTESIAN_POINT ( 'NONE',  ( -5.000000000000000888, 25.00000000000000711, 10.00000000000000000 ) ) ;
#221 = DIRECTION ( 'NONE',  ( 1.000000000000000000, 0.000000000000000000, 0.000000000000000000 ) ) ;
#222 = ORIENTED_EDGE ( 'NONE', *, *, #175, .F. ) ;
#223 = EDGE_CURVE ( 'NONE', #181, #212, #293, .T. ) ;
#224 = ORIENTED_EDGE ( 'NONE', *, *, #330, .F. ) ;
#225 = AXIS2_PLACEMENT_3D ( 'NONE', #178, #298, #84 ) ;
#226 = EDGE_LOOP ( 'NONE', ( #318, #290, #101, #346 ) ) ;
#227 = CARTESIAN_POINT ( 'NONE',  ( 0.000000000000000000, 25.00000000000000711, 0.000000000000000000 ) ) ;
#228 = ORIENTED_EDGE ( 'NONE', *, *, #13, .T. ) ;
#229 = EDGE_CURVE ( 'NONE', #199, #12, #183, .T. ) ;
#230 = EDGE_LOOP ( 'NONE', ( #257, #110, #131, #194 ) ) ;
#231 = AXIS2_PLACEMENT_3D ( 'NONE', #56, #30, #260 ) ;
#232 = LINE ( 'NONE', #22, #255 ) ;
#233 = CARTESIAN_POINT ( 'NONE',  ( 15.00000000000000000, 25.00000000000000711, 10.00000000000000000 ) ) ;
#234 = EDGE_CURVE ( 'NONE', #169, #135, #11, .T. ) ;
#235 = LINE ( 'NONE', #210, #353 ) ;
#236 = VECTOR ( 'NONE', #157, 1000.000000000000000 ) ;
#237 = CARTESIAN_POINT ( 'NONE',  ( 0.000000000000000000, -25.00000000000000711, 0.000000000000000000 ) ) ;
#238 = APPROVAL_STATUS ( 'not_yet_approved' ) ;
#239 = CARTESIAN_POINT ( 'NONE',  ( 5.000000000000000888, 25.00000000000000711, 0.000000000000000000 ) ) ;
#240 = APPROVAL_ROLE ( '' ) ;
#241 = DIRECTION ( 'NONE',  ( -1.000000000000000000, 0.000000000000000000, 0.000000000000000000 ) ) ;
#242 =( NAMED_UNIT ( * ) SI_UNIT ( $, .STERADIAN. ) SOLID_ANGLE_UNIT ( ) );
#243 = DIRECTION ( 'NONE',  ( 0.000000000000000000, 0.000000000000000000, 1.000000000000000000 ) ) ;
#244 = EDGE_CURVE ( 'NONE', #314, #75, #310, .T. ) ;
#245 = PERSON_AND_ORGANIZATION ( #103, #18 ) ;
#246 = CARTESIAN_POINT ( 'NONE',  ( -5.000000000000001776, -25.00000000000000711, 0.000000000000000000 ) ) ;
#247 = CARTESIAN_POINT ( 'NONE',  ( 0.000000000000000000, -25.00000000000000711, 10.00000000000000000 ) ) ;
#248 = ADVANCED_BREP_SHAPE_REPRESENTATION ( 'entretoise3', ( #105, #214 ), #39 ) ;
#249 = CARTESIAN_POINT ( 'NONE',  ( 0.000000000000000000, -25.00000000000000711, 10.00000000000000000 ) ) ;
#250 = VECTOR ( 'NONE', #156, 1000.000000000000000 ) ;
#251 = CC_DESIGN_DATE_AND_TIME_ASSIGNMENT ( #253, #377, ( #268 ) ) ;
#252 = ORIENTED_EDGE ( 'NONE', *, *, #330, .T. ) ;
#253 = DATE_AND_TIME ( #342, #370 ) ;
#254 = ORIENTED_EDGE ( 'NONE', *, *, #85, .F. ) ;
#255 = VECTOR ( 'NONE', #320, 1000.000000000000000 ) ;
#256 = DIRECTION ( 'NONE',  ( -1.000000000000000000, 0.000000000000000000, 0.000000000000000000 ) ) ;
#257 = ORIENTED_EDGE ( 'NONE', *, *, #63, .T. ) ;
#258 = VERTEX_POINT ( 'NONE', #220 ) ;
#259 = DATE_AND_TIME ( #204, #335 ) ;
#260 = DIRECTION ( 'NONE',  ( 1.000000000000000000, 0.000000000000000000, 0.000000000000000000 ) ) ;
#261 = PERSON_AND_ORGANIZATION ( #103, #18 ) ;
#262 = FACE_OUTER_BOUND ( 'NONE', #142, .T. ) ;
#263 = EDGE_CURVE ( 'NONE', #283, #199, #141, .T. ) ;
#264 = PLANE ( 'NONE',  #89 ) ;
#265 = LINE ( 'NONE', #386, #69 ) ;
#266 = AXIS2_PLACEMENT_3D ( 'NONE', #158, #366, #308 ) ;
#267 = PERSON_AND_ORGANIZATION ( #103, #18 ) ;
#268 = SECURITY_CLASSIFICATION ( '', '', #272 ) ;
#269 = CYLINDRICAL_SURFACE ( 'NONE', #122, 5.000000000000001776 ) ;
#270 = DATE_TIME_ROLE ( 'creation_date' ) ;
#271 = CARTESIAN_POINT ( 'NONE',  ( 0.000000000000000000, 25.00000000000000711, 0.000000000000000000 ) ) ;
#272 = SECURITY_CLASSIFICATION_LEVEL ( 'unclassified' ) ;
#273 = FACE_OUTER_BOUND ( 'NONE', #167, .T. ) ;
#274 = CC_DESIGN_PERSON_AND_ORGANIZATION_ASSIGNMENT ( #185, #6, ( #134 ) ) ;
#275 = VECTOR ( 'NONE', #291, 1000.000000000000000 ) ;
#276 = PERSON_AND_ORGANIZATION ( #103, #18 ) ;
#277 = CARTESIAN_POINT ( 'NONE',  ( -5.000000000000001776, -25.00000000000000711, 10.00000000000000000 ) ) ;
#278 = APPROVAL_PERSON_ORGANIZATION ( #267, #128, #297 ) ;
#279 = DIRECTION ( 'NONE',  ( 0.000000000000000000, 0.000000000000000000, 1.000000000000000000 ) ) ;
#280 = CARTESIAN_POINT ( 'NONE',  ( 0.000000000000000000, 25.00000000000000711, 0.000000000000000000 ) ) ;
#281 = AXIS2_PLACEMENT_3D ( 'NONE', #369, #359, #221 ) ;
#282 = EDGE_CURVE ( 'NONE', #314, #258, #179, .T. ) ;
#283 = VERTEX_POINT ( 'NONE', #336 ) ;
#284 = ORIENTED_EDGE ( 'NONE', *, *, #144, .T. ) ;
#285 = EDGE_CURVE ( 'NONE', #70, #289, #71, .T. ) ;
#286 = CYLINDRICAL_SURFACE ( 'NONE', #77, 5.000000000000000888 ) ;
#287 = ORIENTED_EDGE ( 'NONE', *, *, #234, .T. ) ;
#288 = APPROVAL_DATE_TIME ( #259, #130 ) ;
#289 = VERTEX_POINT ( 'NONE', #246 ) ;
#290 = ORIENTED_EDGE ( 'NONE', *, *, #361, .T. ) ;
#291 = DIRECTION ( 'NONE',  ( -0.000000000000000000, -0.000000000000000000, -1.000000000000000000 ) ) ;
#292 = EDGE_CURVE ( 'NONE', #54, #75, #132, .T. ) ;
#293 = CIRCLE ( 'NONE', #360, 15.00000000000000000 ) ;
#294 = DIRECTION ( 'NONE',  ( 1.000000000000000000, 0.000000000000000000, -0.000000000000000000 ) ) ;
#295 = CARTESIAN_POINT ( 'NONE',  ( 0.000000000000000000, 25.00000000000000711, 10.00000000000000000 ) ) ;
#296 = ADVANCED_FACE ( 'NONE', ( #153 ), #32, .F. ) ;
#297 = APPROVAL_ROLE ( '' ) ;
#298 = DIRECTION ( 'NONE',  ( 0.000000000000000000, 0.000000000000000000, 1.000000000000000000 ) ) ;
#299 = AXIS2_PLACEMENT_3D ( 'NONE', #186, #363, #306 ) ;
#300 = VECTOR ( 'NONE', #352, 1000.000000000000000 ) ;
#301 = APPROVAL_DATE_TIME ( #180, #128 ) ;
#302 = FACE_OUTER_BOUND ( 'NONE', #47, .T. ) ;
#303 = APPROVAL_DATE_TIME ( #90, #67 ) ;
#304 = DIRECTION ( 'NONE',  ( -0.000000000000000000, -0.000000000000000000, -1.000000000000000000 ) ) ;
#305 = APPLICATION_PROTOCOL_DEFINITION ( 'international standard', 'config_control_design', 1994, #344 ) ;
#306 = DIRECTION ( 'NONE',  ( 1.000000000000000000, 0.000000000000000000, 0.000000000000000000 ) ) ;
#307 = CC_DESIGN_DATE_AND_TIME_ASSIGNMENT ( #28, #270, ( #201 ) ) ;
#308 = DIRECTION ( 'NONE',  ( -1.000000000000000000, 0.000000000000000000, 0.000000000000000000 ) ) ;
#309 = LOCAL_TIME ( 11, 41, 10.00000000000000000, #356 ) ;
#310 = LINE ( 'NONE', #160, #236 ) ;
#311 = CIRCLE ( 'NONE', #35, 5.000000000000000888 ) ;
#312 = ORIENTED_EDGE ( 'NONE', *, *, #8, .T. ) ;
#313 = LOCAL_TIME ( 11, 41, 10.00000000000000000, #182 ) ;
#314 = VERTEX_POINT ( 'NONE', #93 ) ;
#315 = FACE_OUTER_BOUND ( 'NONE', #226, .T. ) ;
#316 = ORIENTED_EDGE ( 'NONE', *, *, #29, .F. ) ;
#317 = ORIENTED_EDGE ( 'NONE', *, *, #139, .F. ) ;
#318 = ORIENTED_EDGE ( 'NONE', *, *, #116, .T. ) ;
#319 = ADVANCED_FACE ( 'NONE', ( #273 ), #15, .T. ) ;
#320 = DIRECTION ( 'NONE',  ( -0.000000000000000000, -0.000000000000000000, -1.000000000000000000 ) ) ;
#321 = CARTESIAN_POINT ( 'NONE',  ( -15.00000000000000000, -25.00000000000000355, 10.00000000000000000 ) ) ;
#322 = LINE ( 'NONE', #321, #300 ) ;
#323 = EDGE_CURVE ( 'NONE', #135, #199, #378, .T. ) ;
#324 = CARTESIAN_POINT ( 'NONE',  ( -5.000000000000000888, 25.00000000000000711, 0.000000000000000000 ) ) ;
#325 = CARTESIAN_POINT ( 'NONE',  ( 0.000000000000000000, 25.00000000000000711, 10.00000000000000000 ) ) ;
#326 = CARTESIAN_POINT ( 'NONE',  ( 5.000000000000001776, -25.00000000000000711, 10.00000000000000000 ) ) ;
#327 = PERSON_AND_ORGANIZATION_ROLE ( 'design_owner' ) ;
#328 = CARTESIAN_POINT ( 'NONE',  ( -15.00000000000000000, -25.00000000000000355, 10.00000000000000000 ) ) ;
#329 = ORIENTED_EDGE ( 'NONE', *, *, #244, .T. ) ;
#330 = EDGE_CURVE ( 'NONE', #75, #54, #146, .T. ) ;
#331 = DIRECTION ( 'NONE',  ( 1.000000000000000000, 0.000000000000000000, 0.000000000000000000 ) ) ;
#332 = CARTESIAN_POINT ( 'NONE',  ( 5.000000000000001776, -25.00000000000000711, 10.00000000000000000 ) ) ;
#333 = DIRECTION ( 'NONE',  ( -1.000000000000000000, 0.000000000000000000, 0.000000000000000000 ) ) ;
#334 = DIRECTION ( 'NONE',  ( 1.000000000000000000, 0.000000000000000000, -0.000000000000000000 ) ) ;
#335 = LOCAL_TIME ( 11, 41, 10.00000000000000000, #112 ) ;
#336 = CARTESIAN_POINT ( 'NONE',  ( 15.00000000000000000, 25.00000000000000711, 0.000000000000000000 ) ) ;
#337 = PRODUCT_DEFINITION_SHAPE ( 'NONE', 'NONE',  #201 ) ;
#338 = ORIENTED_EDGE ( 'NONE', *, *, #44, .F. ) ;
#339 = VECTOR ( 'NONE', #94, 1000.000000000000000 ) ;
#340 = CC_DESIGN_PERSON_AND_ORGANIZATION_ASSIGNMENT ( #31, #152, ( #134 ) ) ;
#341 = EDGE_LOOP ( 'NONE', ( #107, #99 ) ) ;
#342 = CALENDAR_DATE ( 2020, 3, 12 ) ;
#343 = ORIENTED_EDGE ( 'NONE', *, *, #116, .F. ) ;
#344 = APPLICATION_CONTEXT ( 'configuration controlled 3d designs of mechanical parts and assemblies' ) ;
#345 = CARTESIAN_POINT ( 'NONE',  ( 0.000000000000000000, 25.00000000000000711, 10.00000000000000000 ) ) ;
#346 = ORIENTED_EDGE ( 'NONE', *, *, #285, .F. ) ;
#347 = EDGE_LOOP ( 'NONE', ( #14, #162, #379, #224 ) ) ;
#348 = LOCAL_TIME ( 11, 41, 10.00000000000000000, #147 ) ;
#349 = DIRECTION ( 'NONE',  ( 0.000000000000000000, 0.000000000000000000, 1.000000000000000000 ) ) ;
#350 = FACE_BOUND ( 'NONE', #104, .T. ) ;
#351 = ADVANCED_FACE ( 'NONE', ( #166 ), #286, .F. ) ;
#352 = DIRECTION ( 'NONE',  ( -0.000000000000000000, -0.000000000000000000, -1.000000000000000000 ) ) ;
#353 = VECTOR ( 'NONE', #25, 1000.000000000000000 ) ;
#354 = DIRECTION ( 'NONE',  ( 0.000000000000000000, 0.000000000000000000, 1.000000000000000000 ) ) ;
#355 = EDGE_LOOP ( 'NONE', ( #136, #329, #21, #317 ) ) ;
#356 = COORDINATED_UNIVERSAL_TIME_OFFSET ( 1, 0, .AHEAD. ) ;
#357 = DIRECTION ( 'NONE',  ( 1.000000000000000000, 0.000000000000000000, 0.000000000000000000 ) ) ;
#358 = CALENDAR_DATE ( 2020, 3, 12 ) ;
#359 = DIRECTION ( 'NONE',  ( 0.000000000000000000, 0.000000000000000000, 1.000000000000000000 ) ) ;
#360 = AXIS2_PLACEMENT_3D ( 'NONE', #249, #243, #151 ) ;
#361 = EDGE_CURVE ( 'NONE', #78, #60, #211, .T. ) ;
#362 = MECHANICAL_CONTEXT ( 'NONE', #100, 'mechanical' ) ;
#363 = DIRECTION ( 'NONE',  ( 0.000000000000000000, 0.000000000000000000, 1.000000000000000000 ) ) ;
#364 = CARTESIAN_POINT ( 'NONE',  ( 0.000000000000000000, 0.000000000000000000, 0.000000000000000000 ) ) ;
#365 = CARTESIAN_POINT ( 'NONE',  ( 15.00000000000000000, 25.00000000000000711, 10.00000000000000000 ) ) ;
#366 = DIRECTION ( 'NONE',  ( -0.000000000000000000, -0.000000000000000000, -1.000000000000000000 ) ) ;
#367 = ADVANCED_FACE ( 'NONE', ( #215 ), #86, .F. ) ;
#368 = AXIS2_PLACEMENT_3D ( 'NONE', #247, #7, #333 ) ;
#369 = CARTESIAN_POINT ( 'NONE',  ( 0.000000000000000000, 25.00000000000000711, 10.00000000000000000 ) ) ;
#370 = LOCAL_TIME ( 11, 41, 10.00000000000000000, #202 ) ;
#371 = UNCERTAINTY_MEASURE_WITH_UNIT (LENGTH_MEASURE( 1.000000000000000082E-05 ), #55, 'distance_accuracy_value', 'NONE');
#372 = ORIENTED_EDGE ( 'NONE', *, *, #44, .T. ) ;
#373 = EDGE_LOOP ( 'NONE', ( #154, #222, #196, #284 ) ) ;
#374 = CC_DESIGN_PERSON_AND_ORGANIZATION_ASSIGNMENT ( #276, #177, ( #201 ) ) ;
#375 = AXIS2_PLACEMENT_3D ( 'NONE', #237, #349, #145 ) ;
#376 = ORIENTED_EDGE ( 'NONE', *, *, #73, .F. ) ;
#377 = DATE_TIME_ROLE ( 'classification_date' ) ;
#378 = LINE ( 'NONE', #102, #109 ) ;
#379 = ORIENTED_EDGE ( 'NONE', *, *, #139, .T. ) ;
#380 = EDGE_LOOP ( 'NONE', ( #138, #252 ) ) ;
#381 = VECTOR ( 'NONE', #143, 1000.000000000000000 ) ;
#382 = CARTESIAN_POINT ( 'NONE',  ( -15.00000000000000000, 25.00000000000000711, 10.00000000000000000 ) ) ;
#383 = DIRECTION ( 'NONE',  ( -0.000000000000000000, -0.000000000000000000, -1.000000000000000000 ) ) ;
#384 = FACE_BOUND ( 'NONE', #380, .T. ) ;
#385 = CARTESIAN_POINT ( 'NONE',  ( -5.000000000000001776, -25.00000000000000711, 10.00000000000000000 ) ) ;
#386 = CARTESIAN_POINT ( 'NONE',  ( 15.00000000000000000, 25.00000000000000711, 0.000000000000000000 ) ) ;
#387 = AXIS2_PLACEMENT_3D ( 'NONE', #345, #133, #256 ) ;
#388 = CC_DESIGN_APPROVAL ( #130, ( #268 ) ) ;
#389 = CARTESIAN_POINT ( 'NONE',  ( 0.000000000000000000, -25.00000000000000711, 10.00000000000000000 ) ) ;
ENDSEC;
END-ISO-10303-21;
