ISO-10303-21;
HEADER;
FILE_DESCRIPTION(('CATIA V5 STEP Exchange'),'2;1');

FILE_NAME('C:\\Users\\jeremy\\Desktop\\3D\\Catia\\B12\\Support \X2\00E9\X0\trier ISR\\Entretoise arr droite.stp','2021-02-25T21:24:02+00:00',('none'),('none'),'CATIA Version 5 Release 20 GA (IN-10)','CATIA V5 STEP AP203','none');

FILE_SCHEMA(('CONFIG_CONTROL_DESIGN'));

ENDSEC;
/* file written by CATIA V5R20 */
DATA;
#5=PRODUCT('Entretoise arr droite','','',(#2)) ;
#1=APPLICATION_CONTEXT('configuration controlled 3D design of mechanical parts and assemblies') ;
#14=PRODUCT_DEFINITION('',' ',#6,#3) ;
#16=SECURITY_CLASSIFICATION(' ',' ',#15) ;
#15=SECURITY_CLASSIFICATION_LEVEL('unclassified') ;
#47=CARTESIAN_POINT(' ',(0.,0.,0.)) ;
#52=CARTESIAN_POINT('Axis2P3D Location',(0.,12.25,0.)) ;
#57=CARTESIAN_POINT('Axis2P3D Location',(0.,0.8,0.)) ;
#61=CARTESIAN_POINT('Vertex',(7.09549797134,0.8,12.988221916)) ;
#63=CARTESIAN_POINT('Vertex',(-7.09549797134,0.8,-12.988221916)) ;
#66=CARTESIAN_POINT('Line Origine',(7.09549797134,0.4,12.988221916)) ;
#70=CARTESIAN_POINT('Vertex',(7.09549797134,3.5527136788E-015,12.988221916)) ;
#73=CARTESIAN_POINT('Axis2P3D Location',(0.,3.5527136788E-015,0.)) ;
#77=CARTESIAN_POINT('Vertex',(-7.09549797134,3.5527136788E-015,-12.988221916)) ;
#80=CARTESIAN_POINT('Line Origine',(-7.09549797134,0.4,-12.988221916)) ;
#92=CARTESIAN_POINT('Axis2P3D Location',(0.,0.8,0.)) ;
#97=CARTESIAN_POINT('Axis2P3D Location',(0.,3.5527136788E-015,0.)) ;
#109=CARTESIAN_POINT('Axis2P3D Location',(0.,0.8,14.)) ;
#118=CARTESIAN_POINT('Axis2P3D Location',(0.,0.8,0.)) ;
#122=CARTESIAN_POINT('Vertex',(6.71195754046,0.8,12.2861558665)) ;
#124=CARTESIAN_POINT('Vertex',(-6.71195754046,0.8,-12.2861558665)) ;
#127=CARTESIAN_POINT('Axis2P3D Location',(0.,0.8,0.)) ;
#137=CARTESIAN_POINT('Axis2P3D Location',(0.,0.,14.8)) ;
#146=CARTESIAN_POINT('Axis2P3D Location',(0.,0.,0.)) ;
#150=CARTESIAN_POINT('Vertex',(-6.71195754046,0.,-12.2861558665)) ;
#152=CARTESIAN_POINT('Vertex',(6.71195754046,0.,12.2861558665)) ;
#155=CARTESIAN_POINT('Axis2P3D Location',(0.,0.,0.)) ;
#165=CARTESIAN_POINT('Axis2P3D Location',(0.,12.25,0.)) ;
#170=CARTESIAN_POINT('Line Origine',(6.71195754046,8.4,12.2861558665)) ;
#174=CARTESIAN_POINT('Vertex',(6.71195754046,11.,12.2861558665)) ;
#177=CARTESIAN_POINT('Line Origine',(-6.71195754046,8.4,-12.2861558665)) ;
#181=CARTESIAN_POINT('Vertex',(-6.71195754046,11.,-12.2861558665)) ;
#184=CARTESIAN_POINT('Axis2P3D Location',(0.,11.,0.)) ;
#196=CARTESIAN_POINT('Axis2P3D Location',(0.,11.,0.)) ;
#208=CARTESIAN_POINT('Axis2P3D Location',(0.,11.,-2.6645352591E-015)) ;
#213=CARTESIAN_POINT('Axis2P3D Location',(0.,16.,-2.6645352591E-015)) ;
#217=CARTESIAN_POINT('Vertex',(9.10908523348,16.,16.6740686759)) ;
#219=CARTESIAN_POINT('Vertex',(-9.10908523348,16.,-16.6740686759)) ;
#222=CARTESIAN_POINT('Axis2P3D Location',(-9.10908523348,11.,-16.6740686759)) ;
#227=CARTESIAN_POINT('Axis2P3D Location',(9.10908523348,11.,16.6740686759)) ;
#239=CARTESIAN_POINT('Axis2P3D Location',(1.7763568394E-015,11.,8.881784197E-016)) ;
#244=CARTESIAN_POINT('Axis2P3D Location',(1.7763568394E-015,16.,8.881784197E-016)) ;
#260=CARTESIAN_POINT('Axis2P3D Location',(9.99200722163E-016,0.,0.)) ;
#264=CARTESIAN_POINT('Vertex',(-5.12985313117,0.,-9.39013348428)) ;
#266=CARTESIAN_POINT('Vertex',(5.12985326306,0.,9.39013341223)) ;
#269=CARTESIAN_POINT('Axis2P3D Location',(4.4408920985E-016,0.,1.7763568394E-015)) ;
#279=CARTESIAN_POINT('Axis2P3D Location',(-1.72306613422E-014,10.7,7.72715225139E-015)) ;
#284=CARTESIAN_POINT('Line Origine',(-5.00999687841,0.25,-9.17073777175)) ;
#288=CARTESIAN_POINT('Vertex',(-4.89014049376,0.5,-8.95134213128)) ;
#291=CARTESIAN_POINT('Axis2P3D Location',(8.881784197E-016,0.5,-1.33226762955E-015)) ;
#295=CARTESIAN_POINT('Vertex',(4.89014049376,0.5,8.95134213128)) ;
#298=CARTESIAN_POINT('Line Origine',(5.00999687841,0.25,9.17073777175)) ;
#310=CARTESIAN_POINT('Axis2P3D Location',(-1.63424829225E-014,10.7,-2.03392858111E-014)) ;
#315=CARTESIAN_POINT('Axis2P3D Location',(1.7763568394E-015,0.5,-2.22044604925E-015)) ;
#327=CARTESIAN_POINT('Axis2P3D Location',(0.,12.25,0.)) ;
#332=CARTESIAN_POINT('Line Origine',(9.10908523348,20.25,16.6740686759)) ;
#336=CARTESIAN_POINT('Vertex',(9.10908523348,22.5,16.6740686759)) ;
#339=CARTESIAN_POINT('Line Origine',(-9.10908523348,20.25,-16.6740686759)) ;
#343=CARTESIAN_POINT('Vertex',(-9.10908523348,22.5,-16.6740686759)) ;
#346=CARTESIAN_POINT('Axis2P3D Location',(0.,22.5,0.)) ;
#358=CARTESIAN_POINT('Axis2P3D Location',(0.,22.5,0.)) ;
#370=CARTESIAN_POINT('Axis2P3D Location',(3.19744231092E-014,41.5,1.08801856413E-014)) ;
#375=CARTESIAN_POINT('Line Origine',(-8.62965969488,23.5,-15.796486114)) ;
#379=CARTESIAN_POINT('Vertex',(-8.15023440416,24.5,-14.9189034167)) ;
#382=CARTESIAN_POINT('Line Origine',(8.62965969488,23.5,15.796486114)) ;
#386=CARTESIAN_POINT('Vertex',(8.15023415627,24.5,14.9189035521)) ;
#389=CARTESIAN_POINT('Axis2P3D Location',(1.7763568394E-015,24.5,-4.4408920985E-016)) ;
#401=CARTESIAN_POINT('Axis2P3D Location',(-1.7763568394E-015,41.5,0.)) ;
#406=CARTESIAN_POINT('Axis2P3D Location',(-1.7763568394E-015,24.5,0.)) ;
#418=CARTESIAN_POINT('Axis2P3D Location',(0.,12.25,0.)) ;
#423=CARTESIAN_POINT('Axis2P3D Location',(0.,22.5,0.)) ;
#427=CARTESIAN_POINT('Vertex',(4.89014049376,22.5,8.95134213128)) ;
#429=CARTESIAN_POINT('Vertex',(-4.89014049376,22.5,-8.95134213128)) ;
#432=CARTESIAN_POINT('Line Origine',(-4.89014049376,12.25,-8.95134213128)) ;
#437=CARTESIAN_POINT('Line Origine',(4.89014049376,12.25,8.95134213128)) ;
#449=CARTESIAN_POINT('Axis2P3D Location',(0.,22.5,0.)) ;
#461=CARTESIAN_POINT('Axis2P3D Location',(0.,24.5,19.)) ;
#470=CARTESIAN_POINT('Axis2P3D Location',(1.66533453694E-016,24.5,-3.5527136788E-015)) ;
#474=CARTESIAN_POINT('Vertex',(5.84899157097,24.5,10.7065072551)) ;
#476=CARTESIAN_POINT('Vertex',(-5.84899160313,24.5,-10.7065072375)) ;
#479=CARTESIAN_POINT('Axis2P3D Location',(2.99760216649E-015,24.5,3.5527136788E-015)) ;
#489=CARTESIAN_POINT('Axis2P3D Location',(0.,12.3,1.67421632113E-014)) ;
#494=CARTESIAN_POINT('Line Origine',(-5.36956601516,23.5,-9.82892470257)) ;
#499=CARTESIAN_POINT('Line Origine',(5.36956603237,23.5,9.82892469317)) ;
#511=CARTESIAN_POINT('Axis2P3D Location',(-1.44773082411E-014,12.3,3.17523785043E-015)) ;
#53=DIRECTION('Axis2P3D Direction',(0.,1.,0.)) ;
#54=DIRECTION('Axis2P3D XDirection',(0.479425538604,-0.,0.87758256189)) ;
#58=DIRECTION('Axis2P3D Direction',(0.,1.,0.)) ;
#67=DIRECTION('Vector Direction',(0.,1.,0.)) ;
#74=DIRECTION('Axis2P3D Direction',(0.,1.,0.)) ;
#81=DIRECTION('Vector Direction',(0.,1.,0.)) ;
#93=DIRECTION('Axis2P3D Direction',(0.,1.,0.)) ;
#98=DIRECTION('Axis2P3D Direction',(0.,1.,0.)) ;
#110=DIRECTION('Axis2P3D Direction',(0.,1.,0.)) ;
#111=DIRECTION('Axis2P3D XDirection',(1.,-0.,0.)) ;
#119=DIRECTION('Axis2P3D Direction',(0.,1.,0.)) ;
#128=DIRECTION('Axis2P3D Direction',(0.,1.,0.)) ;
#138=DIRECTION('Axis2P3D Direction',(0.,1.,0.)) ;
#139=DIRECTION('Axis2P3D XDirection',(1.,-0.,0.)) ;
#147=DIRECTION('Axis2P3D Direction',(0.,1.,0.)) ;
#156=DIRECTION('Axis2P3D Direction',(0.,1.,0.)) ;
#166=DIRECTION('Axis2P3D Direction',(0.,1.,0.)) ;
#167=DIRECTION('Axis2P3D XDirection',(0.479425538604,-0.,0.87758256189)) ;
#171=DIRECTION('Vector Direction',(0.,1.,0.)) ;
#178=DIRECTION('Vector Direction',(0.,1.,0.)) ;
#185=DIRECTION('Axis2P3D Direction',(0.,1.,0.)) ;
#197=DIRECTION('Axis2P3D Direction',(0.,1.,0.)) ;
#209=DIRECTION('Axis2P3D Direction',(-0.,1.,0.)) ;
#210=DIRECTION('Axis2P3D XDirection',(-0.260142936849,0.,-0.96557011781)) ;
#214=DIRECTION('Axis2P3D Direction',(-0.,1.,0.)) ;
#223=DIRECTION('Axis2P3D Direction',(0.87758256189,0.,-0.479425538604)) ;
#228=DIRECTION('Axis2P3D Direction',(-0.87758256189,-0.,0.479425538604)) ;
#240=DIRECTION('Axis2P3D Direction',(0.,1.,-0.)) ;
#241=DIRECTION('Axis2P3D XDirection',(0.479425538604,0.,0.87758256189)) ;
#245=DIRECTION('Axis2P3D Direction',(0.,1.,-0.)) ;
#261=DIRECTION('Axis2P3D Direction',(0.,1.,0.)) ;
#270=DIRECTION('Axis2P3D Direction',(0.,1.,0.)) ;
#280=DIRECTION('Axis2P3D Direction',(1.7763568394E-015,-1.,-8.881784197E-016)) ;
#281=DIRECTION('Axis2P3D XDirection',(-0.359621277897,1.31708901597E-016,-0.93309835306)) ;
#285=DIRECTION('Vector Direction',(-0.339005049421,-0.707106781187,-0.620544580564)) ;
#292=DIRECTION('Axis2P3D Direction',(-1.84466406159E-015,1.,7.10943755226E-016)) ;
#299=DIRECTION('Vector Direction',(0.339005049421,-0.707106781187,0.620544580564)) ;
#311=DIRECTION('Axis2P3D Direction',(1.7763568394E-015,-1.,1.7763568394E-015)) ;
#312=DIRECTION('Axis2P3D XDirection',(0.479425538604,2.37076022874E-015,0.87758256189)) ;
#316=DIRECTION('Axis2P3D Direction',(-6.20686898376E-016,1.,3.39082797996E-016)) ;
#328=DIRECTION('Axis2P3D Direction',(0.,1.,0.)) ;
#329=DIRECTION('Axis2P3D XDirection',(0.479425538604,-0.,0.87758256189)) ;
#333=DIRECTION('Vector Direction',(0.,1.,0.)) ;
#340=DIRECTION('Vector Direction',(0.,1.,0.)) ;
#347=DIRECTION('Axis2P3D Direction',(0.,1.,0.)) ;
#359=DIRECTION('Axis2P3D Direction',(0.,1.,0.)) ;
#371=DIRECTION('Axis2P3D Direction',(-1.7763568394E-015,-1.,-6.66133814775E-016)) ;
#372=DIRECTION('Axis2P3D XDirection',(-0.477852351235,1.31708901597E-015,-0.878440168947)) ;
#376=DIRECTION('Vector Direction',(-0.339005049421,-0.707106781187,-0.620544580564)) ;
#383=DIRECTION('Vector Direction',(0.339005049421,-0.707106781187,0.620544580564)) ;
#390=DIRECTION('Axis2P3D Direction',(1.09111896027E-015,1.,-5.93544989261E-016)) ;
#402=DIRECTION('Axis2P3D Direction',(-0.,-1.,-0.)) ;
#403=DIRECTION('Axis2P3D XDirection',(0.479425538604,0.,0.87758256189)) ;
#407=DIRECTION('Axis2P3D Direction',(0.,1.,-0.)) ;
#419=DIRECTION('Axis2P3D Direction',(0.,1.,0.)) ;
#420=DIRECTION('Axis2P3D XDirection',(0.479425538604,-0.,0.87758256189)) ;
#424=DIRECTION('Axis2P3D Direction',(0.,1.,0.)) ;
#433=DIRECTION('Vector Direction',(0.,1.,0.)) ;
#438=DIRECTION('Vector Direction',(0.,1.,0.)) ;
#450=DIRECTION('Axis2P3D Direction',(0.,1.,0.)) ;
#462=DIRECTION('Axis2P3D Direction',(0.,1.,0.)) ;
#463=DIRECTION('Axis2P3D XDirection',(1.,-0.,0.)) ;
#471=DIRECTION('Axis2P3D Direction',(0.,1.,0.)) ;
#480=DIRECTION('Axis2P3D Direction',(0.,1.,0.)) ;
#490=DIRECTION('Axis2P3D Direction',(-0.,1.,-1.55431223448E-015)) ;
#491=DIRECTION('Axis2P3D XDirection',(-0.458376061713,-1.31708901597E-015,-0.88875833951)) ;
#495=DIRECTION('Vector Direction',(-0.339005048335,0.707106781187,-0.620544581157)) ;
#500=DIRECTION('Vector Direction',(0.339005049421,0.707106781187,0.620544580564)) ;
#512=DIRECTION('Axis2P3D Direction',(1.33226762955E-015,1.,-3.33066907388E-016)) ;
#513=DIRECTION('Axis2P3D XDirection',(0.479425538604,-3.9512670479E-016,0.87758256189)) ;
#48=AXIS2_PLACEMENT_3D(' ',#47,$,$) ;
#55=AXIS2_PLACEMENT_3D('Cylinder Axis2P3D',#52,#53,#54) ;
#59=AXIS2_PLACEMENT_3D('Circle Axis2P3D',#57,#58,$) ;
#75=AXIS2_PLACEMENT_3D('Circle Axis2P3D',#73,#74,$) ;
#94=AXIS2_PLACEMENT_3D('Circle Axis2P3D',#92,#93,$) ;
#99=AXIS2_PLACEMENT_3D('Circle Axis2P3D',#97,#98,$) ;
#112=AXIS2_PLACEMENT_3D('Plane Axis2P3D',#109,#110,#111) ;
#120=AXIS2_PLACEMENT_3D('Circle Axis2P3D',#118,#119,$) ;
#129=AXIS2_PLACEMENT_3D('Circle Axis2P3D',#127,#128,$) ;
#140=AXIS2_PLACEMENT_3D('Plane Axis2P3D',#137,#138,#139) ;
#148=AXIS2_PLACEMENT_3D('Circle Axis2P3D',#146,#147,$) ;
#157=AXIS2_PLACEMENT_3D('Circle Axis2P3D',#155,#156,$) ;
#168=AXIS2_PLACEMENT_3D('Cylinder Axis2P3D',#165,#166,#167) ;
#186=AXIS2_PLACEMENT_3D('Circle Axis2P3D',#184,#185,$) ;
#198=AXIS2_PLACEMENT_3D('Circle Axis2P3D',#196,#197,$) ;
#211=AXIS2_PLACEMENT_3D('Torus Axis2P3D',#208,#209,#210) ;
#215=AXIS2_PLACEMENT_3D('Circle Axis2P3D',#213,#214,$) ;
#224=AXIS2_PLACEMENT_3D('Circle Axis2P3D',#222,#223,$) ;
#229=AXIS2_PLACEMENT_3D('Circle Axis2P3D',#227,#228,$) ;
#242=AXIS2_PLACEMENT_3D('Torus Axis2P3D',#239,#240,#241) ;
#246=AXIS2_PLACEMENT_3D('Circle Axis2P3D',#244,#245,$) ;
#262=AXIS2_PLACEMENT_3D('Circle Axis2P3D',#260,#261,$) ;
#271=AXIS2_PLACEMENT_3D('Circle Axis2P3D',#269,#270,$) ;
#282=AXIS2_PLACEMENT_3D('Cone Axis2P3D',#279,#280,#281) ;
#293=AXIS2_PLACEMENT_3D('Circle Axis2P3D',#291,#292,$) ;
#313=AXIS2_PLACEMENT_3D('Cone Axis2P3D',#310,#311,#312) ;
#317=AXIS2_PLACEMENT_3D('Circle Axis2P3D',#315,#316,$) ;
#330=AXIS2_PLACEMENT_3D('Cylinder Axis2P3D',#327,#328,#329) ;
#348=AXIS2_PLACEMENT_3D('Circle Axis2P3D',#346,#347,$) ;
#360=AXIS2_PLACEMENT_3D('Circle Axis2P3D',#358,#359,$) ;
#373=AXIS2_PLACEMENT_3D('Cone Axis2P3D',#370,#371,#372) ;
#391=AXIS2_PLACEMENT_3D('Circle Axis2P3D',#389,#390,$) ;
#404=AXIS2_PLACEMENT_3D('Cone Axis2P3D',#401,#402,#403) ;
#408=AXIS2_PLACEMENT_3D('Circle Axis2P3D',#406,#407,$) ;
#421=AXIS2_PLACEMENT_3D('Cylinder Axis2P3D',#418,#419,#420) ;
#425=AXIS2_PLACEMENT_3D('Circle Axis2P3D',#423,#424,$) ;
#451=AXIS2_PLACEMENT_3D('Circle Axis2P3D',#449,#450,$) ;
#464=AXIS2_PLACEMENT_3D('Plane Axis2P3D',#461,#462,#463) ;
#472=AXIS2_PLACEMENT_3D('Circle Axis2P3D',#470,#471,$) ;
#481=AXIS2_PLACEMENT_3D('Circle Axis2P3D',#479,#480,$) ;
#492=AXIS2_PLACEMENT_3D('Cone Axis2P3D',#489,#490,#491) ;
#514=AXIS2_PLACEMENT_3D('Cone Axis2P3D',#511,#512,#513) ;
#40=PRODUCT_DEFINITION_SHAPE(' ',' ',#14) ;
#31=APPROVAL_PERSON_ORGANIZATION(#25,#21,#19) ;
#25=PERSON_AND_ORGANIZATION(#22,#23) ;
#22=PERSON(' ',' ',' ',$,$,$) ;
#23=ORGANIZATION(' ',' ',' ') ;
#21=APPROVAL(#20,' ') ;
#20=APPROVAL_STATUS('not_yet_approved') ;
#19=APPROVAL_ROLE('APPROVER') ;
#13=DATE_AND_TIME(#11,#12) ;
#12=LOCAL_TIME(22,24,2.,#10) ;
#10=COORDINATED_UNIVERSAL_TIME_OFFSET(0,0,.AHEAD.) ;
#86=ORIENTED_EDGE('',*,*,#65,.F.) ;
#87=ORIENTED_EDGE('',*,*,#72,.T.) ;
#88=ORIENTED_EDGE('',*,*,#79,.T.) ;
#89=ORIENTED_EDGE('',*,*,#84,.F.) ;
#103=ORIENTED_EDGE('',*,*,#96,.F.) ;
#104=ORIENTED_EDGE('',*,*,#84,.T.) ;
#105=ORIENTED_EDGE('',*,*,#101,.T.) ;
#106=ORIENTED_EDGE('',*,*,#72,.F.) ;
#115=ORIENTED_EDGE('',*,*,#96,.T.) ;
#116=ORIENTED_EDGE('',*,*,#65,.T.) ;
#133=ORIENTED_EDGE('',*,*,#126,.F.) ;
#134=ORIENTED_EDGE('',*,*,#131,.F.) ;
#143=ORIENTED_EDGE('',*,*,#79,.F.) ;
#144=ORIENTED_EDGE('',*,*,#101,.F.) ;
#161=ORIENTED_EDGE('',*,*,#154,.T.) ;
#162=ORIENTED_EDGE('',*,*,#159,.T.) ;
#190=ORIENTED_EDGE('',*,*,#176,.T.) ;
#191=ORIENTED_EDGE('',*,*,#126,.T.) ;
#192=ORIENTED_EDGE('',*,*,#183,.F.) ;
#193=ORIENTED_EDGE('',*,*,#188,.T.) ;
#202=ORIENTED_EDGE('',*,*,#183,.T.) ;
#203=ORIENTED_EDGE('',*,*,#131,.T.) ;
#204=ORIENTED_EDGE('',*,*,#176,.F.) ;
#205=ORIENTED_EDGE('',*,*,#200,.T.) ;
#233=ORIENTED_EDGE('',*,*,#221,.T.) ;
#234=ORIENTED_EDGE('',*,*,#226,.T.) ;
#235=ORIENTED_EDGE('',*,*,#200,.F.) ;
#236=ORIENTED_EDGE('',*,*,#231,.F.) ;
#250=ORIENTED_EDGE('',*,*,#248,.T.) ;
#251=ORIENTED_EDGE('',*,*,#231,.T.) ;
#252=ORIENTED_EDGE('',*,*,#188,.F.) ;
#253=ORIENTED_EDGE('',*,*,#226,.F.) ;
#257=ORIENTED_EDGE('',*,*,#159,.F.) ;
#258=ORIENTED_EDGE('',*,*,#154,.F.) ;
#275=ORIENTED_EDGE('',*,*,#268,.T.) ;
#276=ORIENTED_EDGE('',*,*,#273,.T.) ;
#304=ORIENTED_EDGE('',*,*,#290,.T.) ;
#305=ORIENTED_EDGE('',*,*,#297,.T.) ;
#306=ORIENTED_EDGE('',*,*,#302,.F.) ;
#307=ORIENTED_EDGE('',*,*,#268,.F.) ;
#321=ORIENTED_EDGE('',*,*,#302,.T.) ;
#322=ORIENTED_EDGE('',*,*,#319,.T.) ;
#323=ORIENTED_EDGE('',*,*,#290,.F.) ;
#324=ORIENTED_EDGE('',*,*,#273,.F.) ;
#352=ORIENTED_EDGE('',*,*,#338,.T.) ;
#353=ORIENTED_EDGE('',*,*,#248,.F.) ;
#354=ORIENTED_EDGE('',*,*,#345,.F.) ;
#355=ORIENTED_EDGE('',*,*,#350,.F.) ;
#364=ORIENTED_EDGE('',*,*,#345,.T.) ;
#365=ORIENTED_EDGE('',*,*,#221,.F.) ;
#366=ORIENTED_EDGE('',*,*,#338,.F.) ;
#367=ORIENTED_EDGE('',*,*,#362,.F.) ;
#395=ORIENTED_EDGE('',*,*,#381,.T.) ;
#396=ORIENTED_EDGE('',*,*,#362,.T.) ;
#397=ORIENTED_EDGE('',*,*,#388,.F.) ;
#398=ORIENTED_EDGE('',*,*,#393,.F.) ;
#412=ORIENTED_EDGE('',*,*,#388,.T.) ;
#413=ORIENTED_EDGE('',*,*,#350,.T.) ;
#414=ORIENTED_EDGE('',*,*,#381,.F.) ;
#415=ORIENTED_EDGE('',*,*,#410,.F.) ;
#443=ORIENTED_EDGE('',*,*,#431,.T.) ;
#444=ORIENTED_EDGE('',*,*,#436,.F.) ;
#445=ORIENTED_EDGE('',*,*,#319,.F.) ;
#446=ORIENTED_EDGE('',*,*,#441,.T.) ;
#455=ORIENTED_EDGE('',*,*,#453,.T.) ;
#456=ORIENTED_EDGE('',*,*,#441,.F.) ;
#457=ORIENTED_EDGE('',*,*,#297,.F.) ;
#458=ORIENTED_EDGE('',*,*,#436,.T.) ;
#467=ORIENTED_EDGE('',*,*,#393,.T.) ;
#468=ORIENTED_EDGE('',*,*,#410,.T.) ;
#485=ORIENTED_EDGE('',*,*,#478,.F.) ;
#486=ORIENTED_EDGE('',*,*,#483,.F.) ;
#505=ORIENTED_EDGE('',*,*,#498,.T.) ;
#506=ORIENTED_EDGE('',*,*,#483,.T.) ;
#507=ORIENTED_EDGE('',*,*,#503,.F.) ;
#508=ORIENTED_EDGE('',*,*,#453,.F.) ;
#517=ORIENTED_EDGE('',*,*,#503,.T.) ;
#518=ORIENTED_EDGE('',*,*,#478,.T.) ;
#519=ORIENTED_EDGE('',*,*,#498,.F.) ;
#520=ORIENTED_EDGE('',*,*,#431,.F.) ;
#135=FACE_BOUND('',#132,.T.) ;
#163=FACE_BOUND('',#160,.T.) ;
#277=FACE_BOUND('',#274,.T.) ;
#487=FACE_BOUND('',#484,.T.) ;
#51=CLOSED_SHELL('Closed Shell',(#91,#108,#136,#164,#195,#207,#238,#255,#278,#309,#326,#357,#369,#400,#417,#448,#460,#488,#510,#522)) ;
#68=VECTOR('Line Direction',#67,1.) ;
#82=VECTOR('Line Direction',#81,1.) ;
#172=VECTOR('Line Direction',#171,1.) ;
#179=VECTOR('Line Direction',#178,1.) ;
#286=VECTOR('Line Direction',#285,1.) ;
#300=VECTOR('Line Direction',#299,1.) ;
#334=VECTOR('Line Direction',#333,1.) ;
#341=VECTOR('Line Direction',#340,1.) ;
#377=VECTOR('Line Direction',#376,1.) ;
#384=VECTOR('Line Direction',#383,1.) ;
#434=VECTOR('Line Direction',#433,1.) ;
#439=VECTOR('Line Direction',#438,1.) ;
#496=VECTOR('Line Direction',#495,1.) ;
#501=VECTOR('Line Direction',#500,1.) ;
#524=ADVANCED_BREP_SHAPE_REPRESENTATION('NONE',(#523),#46) ;
#49=SHAPE_REPRESENTATION(' ',(#48),#46) ;
#91=ADVANCED_FACE('Corps principal',(#90),#56,.T.) ;
#108=ADVANCED_FACE('Corps principal',(#107),#56,.T.) ;
#136=ADVANCED_FACE('Corps principal',(#117,#135),#113,.T.) ;
#164=ADVANCED_FACE('Corps principal',(#145,#163),#141,.F.) ;
#195=ADVANCED_FACE('Corps principal',(#194),#169,.T.) ;
#207=ADVANCED_FACE('Corps principal',(#206),#169,.T.) ;
#238=ADVANCED_FACE('Corps principal',(#237),#212,.F.) ;
#255=ADVANCED_FACE('Corps principal',(#254),#243,.F.) ;
#278=ADVANCED_FACE('Corps principal',(#259,#277),#141,.F.) ;
#309=ADVANCED_FACE('Corps principal',(#308),#283,.F.) ;
#326=ADVANCED_FACE('Corps principal',(#325),#314,.F.) ;
#357=ADVANCED_FACE('Corps principal',(#356),#331,.T.) ;
#369=ADVANCED_FACE('Corps principal',(#368),#331,.T.) ;
#400=ADVANCED_FACE('Corps principal',(#399),#374,.T.) ;
#417=ADVANCED_FACE('Corps principal',(#416),#405,.T.) ;
#448=ADVANCED_FACE('Corps principal',(#447),#422,.F.) ;
#460=ADVANCED_FACE('Corps principal',(#459),#422,.F.) ;
#488=ADVANCED_FACE('Corps principal',(#469,#487),#465,.T.) ;
#510=ADVANCED_FACE('Corps principal',(#509),#493,.F.) ;
#522=ADVANCED_FACE('Corps principal',(#521),#515,.F.) ;
#4=APPLICATION_PROTOCOL_DEFINITION('international standard','config_control_design',1994,#1) ;
#32=APPROVAL_DATE_TIME(#13,#21) ;
#523=MANIFOLD_SOLID_BREP('Corps principal',#51) ;
#11=CALENDAR_DATE(2021,25,2) ;
#30=CC_DESIGN_APPROVAL(#21,(#16,#6,#14)) ;
#18=CC_DESIGN_DATE_AND_TIME_ASSIGNMENT(#13,#17,(#16)) ;
#29=CC_DESIGN_DATE_AND_TIME_ASSIGNMENT(#13,#28,(#14)) ;
#17=DATE_TIME_ROLE('classification_date') ;
#28=DATE_TIME_ROLE('creation_date') ;
#27=CC_DESIGN_PERSON_AND_ORGANIZATION_ASSIGNMENT(#25,#26,(#16)) ;
#33=CC_DESIGN_PERSON_AND_ORGANIZATION_ASSIGNMENT(#25,#34,(#6)) ;
#35=CC_DESIGN_PERSON_AND_ORGANIZATION_ASSIGNMENT(#25,#36,(#6,#14)) ;
#37=CC_DESIGN_PERSON_AND_ORGANIZATION_ASSIGNMENT(#25,#38,(#5)) ;
#26=PERSON_AND_ORGANIZATION_ROLE('classification_officer') ;
#34=PERSON_AND_ORGANIZATION_ROLE('design_supplier') ;
#36=PERSON_AND_ORGANIZATION_ROLE('creator') ;
#38=PERSON_AND_ORGANIZATION_ROLE('design_owner') ;
#39=CC_DESIGN_SECURITY_CLASSIFICATION(#16,(#6)) ;
#60=CIRCLE('generated circle',#59,14.8) ;
#76=CIRCLE('generated circle',#75,14.8) ;
#95=CIRCLE('generated circle',#94,14.8) ;
#100=CIRCLE('generated circle',#99,14.8) ;
#121=CIRCLE('generated circle',#120,14.) ;
#130=CIRCLE('generated circle',#129,14.) ;
#149=CIRCLE('generated circle',#148,14.) ;
#158=CIRCLE('generated circle',#157,14.) ;
#187=CIRCLE('generated circle',#186,14.) ;
#199=CIRCLE('generated circle',#198,14.) ;
#216=CIRCLE('generated circle',#215,19.) ;
#225=CIRCLE('generated circle',#224,5.) ;
#230=CIRCLE('generated circle',#229,5.) ;
#247=CIRCLE('generated circle',#246,19.) ;
#263=CIRCLE('generated circle',#262,10.7) ;
#272=CIRCLE('generated circle',#271,10.7) ;
#294=CIRCLE('generated circle',#293,10.2) ;
#318=CIRCLE('generated circle',#317,10.2) ;
#349=CIRCLE('generated circle',#348,19.) ;
#361=CIRCLE('generated circle',#360,19.) ;
#392=CIRCLE('generated circle',#391,17.) ;
#409=CIRCLE('generated circle',#408,17.) ;
#426=CIRCLE('generated circle',#425,10.2) ;
#452=CIRCLE('generated circle',#451,10.2) ;
#473=CIRCLE('generated circle',#472,12.2) ;
#482=CIRCLE('generated circle',#481,12.2) ;
#283=CONICAL_SURFACE('Cone',#282,0.,0.785398163397) ;
#314=CONICAL_SURFACE('Cone',#313,0.,0.785398163397) ;
#374=CONICAL_SURFACE('Cone',#373,0.,0.785398163397) ;
#405=CONICAL_SURFACE('Cone',#404,0.,0.785398163397) ;
#493=CONICAL_SURFACE('Cone',#492,0.,0.785398163397) ;
#515=CONICAL_SURFACE('Cone',#514,0.,0.785398163397) ;
#525=SHAPE_REPRESENTATION_RELATIONSHIP(' ',' ',#49,#524) ;
#56=CYLINDRICAL_SURFACE('generated cylinder',#55,14.8) ;
#169=CYLINDRICAL_SURFACE('generated cylinder',#168,14.) ;
#331=CYLINDRICAL_SURFACE('generated cylinder',#330,19.) ;
#422=CYLINDRICAL_SURFACE('generated cylinder',#421,10.2) ;
#212=TOROIDAL_SURFACE('homeo Torus',#211,19.,5.) ;
#243=TOROIDAL_SURFACE('homeo Torus',#242,19.,5.) ;
#3=DESIGN_CONTEXT(' ',#1,'design') ;
#65=EDGE_CURVE('',#62,#64,#60,.T.) ;
#72=EDGE_CURVE('',#62,#71,#69,.F.) ;
#79=EDGE_CURVE('',#71,#78,#76,.T.) ;
#84=EDGE_CURVE('',#64,#78,#83,.F.) ;
#96=EDGE_CURVE('',#64,#62,#95,.T.) ;
#101=EDGE_CURVE('',#78,#71,#100,.T.) ;
#126=EDGE_CURVE('',#123,#125,#121,.T.) ;
#131=EDGE_CURVE('',#125,#123,#130,.T.) ;
#154=EDGE_CURVE('',#151,#153,#149,.T.) ;
#159=EDGE_CURVE('',#153,#151,#158,.T.) ;
#176=EDGE_CURVE('',#175,#123,#173,.F.) ;
#183=EDGE_CURVE('',#182,#125,#180,.F.) ;
#188=EDGE_CURVE('',#182,#175,#187,.F.) ;
#200=EDGE_CURVE('',#175,#182,#199,.F.) ;
#221=EDGE_CURVE('',#218,#220,#216,.F.) ;
#226=EDGE_CURVE('',#220,#182,#225,.T.) ;
#231=EDGE_CURVE('',#218,#175,#230,.T.) ;
#248=EDGE_CURVE('',#220,#218,#247,.F.) ;
#268=EDGE_CURVE('',#265,#267,#263,.T.) ;
#273=EDGE_CURVE('',#267,#265,#272,.T.) ;
#290=EDGE_CURVE('',#265,#289,#287,.F.) ;
#297=EDGE_CURVE('',#289,#296,#294,.T.) ;
#302=EDGE_CURVE('',#267,#296,#301,.F.) ;
#319=EDGE_CURVE('',#296,#289,#318,.T.) ;
#338=EDGE_CURVE('',#337,#218,#335,.F.) ;
#345=EDGE_CURVE('',#344,#220,#342,.F.) ;
#350=EDGE_CURVE('',#337,#344,#349,.T.) ;
#362=EDGE_CURVE('',#344,#337,#361,.T.) ;
#381=EDGE_CURVE('',#380,#344,#378,.T.) ;
#388=EDGE_CURVE('',#387,#337,#385,.T.) ;
#393=EDGE_CURVE('',#380,#387,#392,.T.) ;
#410=EDGE_CURVE('',#387,#380,#409,.T.) ;
#431=EDGE_CURVE('',#428,#430,#426,.T.) ;
#436=EDGE_CURVE('',#289,#430,#435,.T.) ;
#441=EDGE_CURVE('',#296,#428,#440,.T.) ;
#453=EDGE_CURVE('',#430,#428,#452,.T.) ;
#478=EDGE_CURVE('',#475,#477,#473,.T.) ;
#483=EDGE_CURVE('',#477,#475,#482,.T.) ;
#498=EDGE_CURVE('',#430,#477,#497,.T.) ;
#503=EDGE_CURVE('',#428,#475,#502,.T.) ;
#85=EDGE_LOOP('',(#86,#87,#88,#89)) ;
#102=EDGE_LOOP('',(#103,#104,#105,#106)) ;
#114=EDGE_LOOP('',(#115,#116)) ;
#132=EDGE_LOOP('',(#133,#134)) ;
#142=EDGE_LOOP('',(#143,#144)) ;
#160=EDGE_LOOP('',(#161,#162)) ;
#189=EDGE_LOOP('',(#190,#191,#192,#193)) ;
#201=EDGE_LOOP('',(#202,#203,#204,#205)) ;
#232=EDGE_LOOP('',(#233,#234,#235,#236)) ;
#249=EDGE_LOOP('',(#250,#251,#252,#253)) ;
#256=EDGE_LOOP('',(#257,#258)) ;
#274=EDGE_LOOP('',(#275,#276)) ;
#303=EDGE_LOOP('',(#304,#305,#306,#307)) ;
#320=EDGE_LOOP('',(#321,#322,#323,#324)) ;
#351=EDGE_LOOP('',(#352,#353,#354,#355)) ;
#363=EDGE_LOOP('',(#364,#365,#366,#367)) ;
#394=EDGE_LOOP('',(#395,#396,#397,#398)) ;
#411=EDGE_LOOP('',(#412,#413,#414,#415)) ;
#442=EDGE_LOOP('',(#443,#444,#445,#446)) ;
#454=EDGE_LOOP('',(#455,#456,#457,#458)) ;
#466=EDGE_LOOP('',(#467,#468)) ;
#484=EDGE_LOOP('',(#485,#486)) ;
#504=EDGE_LOOP('',(#505,#506,#507,#508)) ;
#516=EDGE_LOOP('',(#517,#518,#519,#520)) ;
#90=FACE_OUTER_BOUND('',#85,.T.) ;
#107=FACE_OUTER_BOUND('',#102,.T.) ;
#117=FACE_OUTER_BOUND('',#114,.T.) ;
#145=FACE_OUTER_BOUND('',#142,.T.) ;
#194=FACE_OUTER_BOUND('',#189,.T.) ;
#206=FACE_OUTER_BOUND('',#201,.T.) ;
#237=FACE_OUTER_BOUND('',#232,.T.) ;
#254=FACE_OUTER_BOUND('',#249,.T.) ;
#259=FACE_OUTER_BOUND('',#256,.T.) ;
#308=FACE_OUTER_BOUND('',#303,.T.) ;
#325=FACE_OUTER_BOUND('',#320,.T.) ;
#356=FACE_OUTER_BOUND('',#351,.T.) ;
#368=FACE_OUTER_BOUND('',#363,.T.) ;
#399=FACE_OUTER_BOUND('',#394,.T.) ;
#416=FACE_OUTER_BOUND('',#411,.T.) ;
#447=FACE_OUTER_BOUND('',#442,.T.) ;
#459=FACE_OUTER_BOUND('',#454,.T.) ;
#469=FACE_OUTER_BOUND('',#466,.T.) ;
#509=FACE_OUTER_BOUND('',#504,.T.) ;
#521=FACE_OUTER_BOUND('',#516,.T.) ;
#45=UNCERTAINTY_MEASURE_WITH_UNIT(LENGTH_MEASURE(0.005),#41,'distance_accuracy_value','CONFUSED CURVE UNCERTAINTY') ;
#69=LINE('Line',#66,#68) ;
#83=LINE('Line',#80,#82) ;
#173=LINE('Line',#170,#172) ;
#180=LINE('Line',#177,#179) ;
#287=LINE('Line',#284,#286) ;
#301=LINE('Line',#298,#300) ;
#335=LINE('Line',#332,#334) ;
#342=LINE('Line',#339,#341) ;
#378=LINE('Line',#375,#377) ;
#385=LINE('Line',#382,#384) ;
#435=LINE('Line',#432,#434) ;
#440=LINE('Line',#437,#439) ;
#497=LINE('Line',#494,#496) ;
#502=LINE('Line',#499,#501) ;
#2=MECHANICAL_CONTEXT(' ',#1,'mechanical') ;
#24=PERSONAL_ADDRESS(' ',' ',' ',' ',' ',' ',' ',' ',' ',' ',' ',' ',(#22),' ') ;
#113=PLANE('Plane',#112) ;
#141=PLANE('Plane',#140) ;
#465=PLANE('Plane',#464) ;
#43=PLANE_ANGLE_MEASURE_WITH_UNIT(PLANE_ANGLE_MEASURE(0.0174532925199),#42) ;
#7=PRODUCT_CATEGORY('part',$) ;
#9=PRODUCT_CATEGORY_RELATIONSHIP(' ',' ',#7,#8) ;
#6=PRODUCT_DEFINITION_FORMATION_WITH_SPECIFIED_SOURCE('',' ',#5,.NOT_KNOWN.) ;
#8=PRODUCT_RELATED_PRODUCT_CATEGORY('detail',$,(#5)) ;
#50=SHAPE_DEFINITION_REPRESENTATION(#40,#49) ;
#62=VERTEX_POINT('',#61) ;
#64=VERTEX_POINT('',#63) ;
#71=VERTEX_POINT('',#70) ;
#78=VERTEX_POINT('',#77) ;
#123=VERTEX_POINT('',#122) ;
#125=VERTEX_POINT('',#124) ;
#151=VERTEX_POINT('',#150) ;
#153=VERTEX_POINT('',#152) ;
#175=VERTEX_POINT('',#174) ;
#182=VERTEX_POINT('',#181) ;
#218=VERTEX_POINT('',#217) ;
#220=VERTEX_POINT('',#219) ;
#265=VERTEX_POINT('',#264) ;
#267=VERTEX_POINT('',#266) ;
#289=VERTEX_POINT('',#288) ;
#296=VERTEX_POINT('',#295) ;
#337=VERTEX_POINT('',#336) ;
#344=VERTEX_POINT('',#343) ;
#380=VERTEX_POINT('',#379) ;
#387=VERTEX_POINT('',#386) ;
#428=VERTEX_POINT('',#427) ;
#430=VERTEX_POINT('',#429) ;
#475=VERTEX_POINT('',#474) ;
#477=VERTEX_POINT('',#476) ;
#41=(LENGTH_UNIT()NAMED_UNIT(*)SI_UNIT(.MILLI.,.METRE.)) ;
#42=(NAMED_UNIT(*)PLANE_ANGLE_UNIT()SI_UNIT($,.RADIAN.)) ;
#44=(NAMED_UNIT(*)SI_UNIT($,.STERADIAN.)SOLID_ANGLE_UNIT()) ;
#46=(GEOMETRIC_REPRESENTATION_CONTEXT(3)GLOBAL_UNCERTAINTY_ASSIGNED_CONTEXT((#45))GLOBAL_UNIT_ASSIGNED_CONTEXT((#41,#42,#44))REPRESENTATION_CONTEXT(' ',' ')) ;
ENDSEC;
END-ISO-10303-21;
