ISO-10303-21;
HEADER;
/* Generated by software containing ST-Developer
 * from STEP Tools, Inc. (www.steptools.com) 
 */

FILE_DESCRIPTION(
/* description */ (''),
/* implementation_level */ '2;1');

FILE_NAME(
/* name */ 
'E:/_Perso/___Barigo/__CM001/Etudes/Fusion 360/Barigo CM1 - Patte bouc
le AR v4.step',
/* time_stamp */ '2021-02-18T18:21:21+01:00',
/* author */ (''),
/* organization */ (''),
/* preprocessor_version */ 'ST-DEVELOPER v18.1',
/* originating_system */ 'Autodesk Translation Framework v9.7.1.1290',
/* authorisation */ '');

FILE_SCHEMA (('AUTOMOTIVE_DESIGN { 1 0 10303 214 3 1 1 }'));
ENDSEC;

DATA;
#10=MECHANICAL_DESIGN_GEOMETRIC_PRESENTATION_REPRESENTATION('',(#13),#667);
#11=SHAPE_REPRESENTATION_RELATIONSHIP('SRR','None',#674,#12);
#12=ADVANCED_BREP_SHAPE_REPRESENTATION('',(#14),#666);
#13=STYLED_ITEM('',(#683),#14);
#14=MANIFOLD_SOLID_BREP('Corps1',#389);
#15=ELLIPSE('',#412,7.38882786439379,6.5);
#16=ELLIPSE('',#413,7.38882786439379,6.5);
#17=ELLIPSE('',#416,7.38882786439379,6.5);
#18=ELLIPSE('',#417,7.38882786439379,6.5);
#19=LINE('',#564,#55);
#20=LINE('',#570,#56);
#21=LINE('',#573,#57);
#22=LINE('',#578,#58);
#23=LINE('',#580,#59);
#24=LINE('',#584,#60);
#25=LINE('',#586,#61);
#26=LINE('',#587,#62);
#27=LINE('',#590,#63);
#28=LINE('',#596,#64);
#29=LINE('',#598,#65);
#30=LINE('',#599,#66);
#31=LINE('',#602,#67);
#32=LINE('',#604,#68);
#33=LINE('',#606,#69);
#34=LINE('',#607,#70);
#35=LINE('',#610,#71);
#36=LINE('',#611,#72);
#37=LINE('',#614,#73);
#38=LINE('',#615,#74);
#39=LINE('',#616,#75);
#40=LINE('',#622,#76);
#41=LINE('',#625,#77);
#42=LINE('',#628,#78);
#43=LINE('',#630,#79);
#44=LINE('',#631,#80);
#45=LINE('',#634,#81);
#46=LINE('',#636,#82);
#47=LINE('',#637,#83);
#48=LINE('',#643,#84);
#49=LINE('',#647,#85);
#50=LINE('',#649,#86);
#51=LINE('',#650,#87);
#52=LINE('',#655,#88);
#53=LINE('',#658,#89);
#54=LINE('',#659,#90);
#55=VECTOR('',#453,6.75);
#56=VECTOR('',#458,10.);
#57=VECTOR('',#461,10.);
#58=VECTOR('',#466,10.);
#59=VECTOR('',#467,10.);
#60=VECTOR('',#472,10.);
#61=VECTOR('',#473,10.);
#62=VECTOR('',#474,10.);
#63=VECTOR('',#477,10.);
#64=VECTOR('',#484,10.);
#65=VECTOR('',#485,10.);
#66=VECTOR('',#486,10.);
#67=VECTOR('',#489,10.);
#68=VECTOR('',#490,10.);
#69=VECTOR('',#491,10.);
#70=VECTOR('',#492,10.);
#71=VECTOR('',#495,10.);
#72=VECTOR('',#496,10.);
#73=VECTOR('',#499,10.);
#74=VECTOR('',#500,10.);
#75=VECTOR('',#501,10.);
#76=VECTOR('',#506,10.);
#77=VECTOR('',#509,10.);
#78=VECTOR('',#512,10.);
#79=VECTOR('',#513,10.);
#80=VECTOR('',#514,10.);
#81=VECTOR('',#517,10.);
#82=VECTOR('',#518,10.);
#83=VECTOR('',#519,10.);
#84=VECTOR('',#528,4.25);
#85=VECTOR('',#533,10.);
#86=VECTOR('',#534,10.);
#87=VECTOR('',#535,10.);
#88=VECTOR('',#540,10.);
#89=VECTOR('',#545,10.);
#90=VECTOR('',#546,10.);
#91=CYLINDRICAL_SURFACE('',#406,6.75);
#92=CYLINDRICAL_SURFACE('',#411,6.5);
#93=CYLINDRICAL_SURFACE('',#415,6.5);
#94=CYLINDRICAL_SURFACE('',#422,7.);
#95=CYLINDRICAL_SURFACE('',#427,7.00000000000003);
#96=CYLINDRICAL_SURFACE('',#430,4.25);
#97=CYLINDRICAL_SURFACE('',#433,10.);
#98=FACE_BOUND('',#125,.T.);
#99=FACE_BOUND('',#144,.T.);
#100=FACE_BOUND('',#145,.T.);
#101=FACE_BOUND('',#148,.T.);
#102=FACE_OUTER_BOUND('',#124,.T.);
#103=FACE_OUTER_BOUND('',#126,.T.);
#104=FACE_OUTER_BOUND('',#127,.T.);
#105=FACE_OUTER_BOUND('',#128,.T.);
#106=FACE_OUTER_BOUND('',#129,.T.);
#107=FACE_OUTER_BOUND('',#130,.T.);
#108=FACE_OUTER_BOUND('',#131,.T.);
#109=FACE_OUTER_BOUND('',#132,.T.);
#110=FACE_OUTER_BOUND('',#133,.T.);
#111=FACE_OUTER_BOUND('',#134,.T.);
#112=FACE_OUTER_BOUND('',#135,.T.);
#113=FACE_OUTER_BOUND('',#136,.T.);
#114=FACE_OUTER_BOUND('',#137,.T.);
#115=FACE_OUTER_BOUND('',#138,.T.);
#116=FACE_OUTER_BOUND('',#139,.T.);
#117=FACE_OUTER_BOUND('',#140,.T.);
#118=FACE_OUTER_BOUND('',#141,.T.);
#119=FACE_OUTER_BOUND('',#142,.T.);
#120=FACE_OUTER_BOUND('',#143,.T.);
#121=FACE_OUTER_BOUND('',#146,.T.);
#122=FACE_OUTER_BOUND('',#147,.T.);
#123=FACE_OUTER_BOUND('',#149,.T.);
#124=EDGE_LOOP('',(#248));
#125=EDGE_LOOP('',(#249));
#126=EDGE_LOOP('',(#250,#251,#252,#253));
#127=EDGE_LOOP('',(#254,#255,#256,#257));
#128=EDGE_LOOP('',(#258,#259,#260,#261,#262));
#129=EDGE_LOOP('',(#263,#264,#265,#266,#267));
#130=EDGE_LOOP('',(#268,#269,#270,#271,#272));
#131=EDGE_LOOP('',(#273,#274,#275,#276,#277));
#132=EDGE_LOOP('',(#278,#279,#280,#281,#282));
#133=EDGE_LOOP('',(#283,#284,#285,#286,#287));
#134=EDGE_LOOP('',(#288,#289,#290,#291,#292));
#135=EDGE_LOOP('',(#293,#294,#295,#296));
#136=EDGE_LOOP('',(#297,#298,#299,#300));
#137=EDGE_LOOP('',(#301,#302,#303,#304));
#138=EDGE_LOOP('',(#305,#306,#307,#308));
#139=EDGE_LOOP('',(#309,#310,#311,#312));
#140=EDGE_LOOP('',(#313,#314,#315,#316,#317));
#141=EDGE_LOOP('',(#318,#319,#320,#321));
#142=EDGE_LOOP('',(#322,#323,#324,#325,#326));
#143=EDGE_LOOP('',(#327,#328,#329,#330,#331));
#144=EDGE_LOOP('',(#332));
#145=EDGE_LOOP('',(#333,#334,#335,#336));
#146=EDGE_LOOP('',(#337,#338,#339,#340));
#147=EDGE_LOOP('',(#341,#342,#343,#344,#345));
#148=EDGE_LOOP('',(#346));
#149=EDGE_LOOP('',(#347,#348,#349,#350,#351));
#150=CIRCLE('',#404,6.75);
#151=CIRCLE('',#405,4.25);
#152=CIRCLE('',#407,6.75);
#153=CIRCLE('',#409,6.5);
#154=CIRCLE('',#410,6.5);
#155=CIRCLE('',#423,7.);
#156=CIRCLE('',#424,7.);
#157=CIRCLE('',#428,7.00000000000003);
#158=CIRCLE('',#429,7.00000000000003);
#159=CIRCLE('',#431,4.25);
#160=CIRCLE('',#434,10.);
#161=CIRCLE('',#435,10.);
#162=VERTEX_POINT('',#557);
#163=VERTEX_POINT('',#559);
#164=VERTEX_POINT('',#562);
#165=VERTEX_POINT('',#566);
#166=VERTEX_POINT('',#567);
#167=VERTEX_POINT('',#569);
#168=VERTEX_POINT('',#571);
#169=VERTEX_POINT('',#575);
#170=VERTEX_POINT('',#576);
#171=VERTEX_POINT('',#579);
#172=VERTEX_POINT('',#583);
#173=VERTEX_POINT('',#585);
#174=VERTEX_POINT('',#589);
#175=VERTEX_POINT('',#591);
#176=VERTEX_POINT('',#595);
#177=VERTEX_POINT('',#597);
#178=VERTEX_POINT('',#601);
#179=VERTEX_POINT('',#603);
#180=VERTEX_POINT('',#605);
#181=VERTEX_POINT('',#609);
#182=VERTEX_POINT('',#613);
#183=VERTEX_POINT('',#618);
#184=VERTEX_POINT('',#619);
#185=VERTEX_POINT('',#621);
#186=VERTEX_POINT('',#623);
#187=VERTEX_POINT('',#627);
#188=VERTEX_POINT('',#629);
#189=VERTEX_POINT('',#633);
#190=VERTEX_POINT('',#635);
#191=VERTEX_POINT('',#642);
#192=VERTEX_POINT('',#646);
#193=VERTEX_POINT('',#648);
#194=VERTEX_POINT('',#652);
#195=VERTEX_POINT('',#654);
#196=EDGE_CURVE('',#162,#162,#150,.T.);
#197=EDGE_CURVE('',#163,#163,#151,.T.);
#198=EDGE_CURVE('',#164,#164,#152,.T.);
#199=EDGE_CURVE('',#164,#162,#19,.T.);
#200=EDGE_CURVE('',#165,#166,#153,.T.);
#201=EDGE_CURVE('',#167,#165,#20,.T.);
#202=EDGE_CURVE('',#168,#167,#154,.T.);
#203=EDGE_CURVE('',#166,#168,#21,.T.);
#204=EDGE_CURVE('',#169,#170,#15,.F.);
#205=EDGE_CURVE('',#170,#165,#22,.T.);
#206=EDGE_CURVE('',#166,#171,#23,.T.);
#207=EDGE_CURVE('',#169,#171,#16,.T.);
#208=EDGE_CURVE('',#172,#168,#24,.T.);
#209=EDGE_CURVE('',#172,#173,#25,.T.);
#210=EDGE_CURVE('',#173,#171,#26,.T.);
#211=EDGE_CURVE('',#167,#174,#27,.T.);
#212=EDGE_CURVE('',#175,#174,#17,.T.);
#213=EDGE_CURVE('',#175,#172,#18,.F.);
#214=EDGE_CURVE('',#176,#175,#28,.T.);
#215=EDGE_CURVE('',#177,#176,#29,.T.);
#216=EDGE_CURVE('',#177,#173,#30,.T.);
#217=EDGE_CURVE('',#178,#174,#31,.T.);
#218=EDGE_CURVE('',#178,#179,#32,.T.);
#219=EDGE_CURVE('',#180,#179,#33,.T.);
#220=EDGE_CURVE('',#175,#180,#34,.T.);
#221=EDGE_CURVE('',#181,#177,#35,.T.);
#222=EDGE_CURVE('',#181,#169,#36,.T.);
#223=EDGE_CURVE('',#169,#182,#37,.T.);
#224=EDGE_CURVE('',#179,#182,#38,.T.);
#225=EDGE_CURVE('',#170,#178,#39,.T.);
#226=EDGE_CURVE('',#183,#184,#155,.T.);
#227=EDGE_CURVE('',#184,#185,#40,.T.);
#228=EDGE_CURVE('',#186,#185,#156,.T.);
#229=EDGE_CURVE('',#183,#186,#41,.T.);
#230=EDGE_CURVE('',#184,#187,#42,.T.);
#231=EDGE_CURVE('',#188,#187,#43,.T.);
#232=EDGE_CURVE('',#185,#188,#44,.T.);
#233=EDGE_CURVE('',#189,#183,#45,.T.);
#234=EDGE_CURVE('',#190,#186,#46,.T.);
#235=EDGE_CURVE('',#189,#190,#47,.T.);
#236=EDGE_CURVE('',#187,#189,#157,.T.);
#237=EDGE_CURVE('',#188,#190,#158,.T.);
#238=EDGE_CURVE('',#163,#191,#48,.T.);
#239=EDGE_CURVE('',#191,#191,#159,.T.);
#240=EDGE_CURVE('',#192,#180,#49,.T.);
#241=EDGE_CURVE('',#193,#192,#50,.T.);
#242=EDGE_CURVE('',#176,#193,#51,.T.);
#243=EDGE_CURVE('',#194,#192,#160,.T.);
#244=EDGE_CURVE('',#195,#194,#52,.T.);
#245=EDGE_CURVE('',#193,#195,#161,.T.);
#246=EDGE_CURVE('',#182,#194,#53,.T.);
#247=EDGE_CURVE('',#195,#181,#54,.T.);
#248=ORIENTED_EDGE('',*,*,#196,.F.);
#249=ORIENTED_EDGE('',*,*,#197,.T.);
#250=ORIENTED_EDGE('',*,*,#198,.F.);
#251=ORIENTED_EDGE('',*,*,#199,.T.);
#252=ORIENTED_EDGE('',*,*,#196,.T.);
#253=ORIENTED_EDGE('',*,*,#199,.F.);
#254=ORIENTED_EDGE('',*,*,#200,.F.);
#255=ORIENTED_EDGE('',*,*,#201,.F.);
#256=ORIENTED_EDGE('',*,*,#202,.F.);
#257=ORIENTED_EDGE('',*,*,#203,.F.);
#258=ORIENTED_EDGE('',*,*,#204,.T.);
#259=ORIENTED_EDGE('',*,*,#205,.T.);
#260=ORIENTED_EDGE('',*,*,#200,.T.);
#261=ORIENTED_EDGE('',*,*,#206,.T.);
#262=ORIENTED_EDGE('',*,*,#207,.F.);
#263=ORIENTED_EDGE('',*,*,#206,.F.);
#264=ORIENTED_EDGE('',*,*,#203,.T.);
#265=ORIENTED_EDGE('',*,*,#208,.F.);
#266=ORIENTED_EDGE('',*,*,#209,.T.);
#267=ORIENTED_EDGE('',*,*,#210,.T.);
#268=ORIENTED_EDGE('',*,*,#202,.T.);
#269=ORIENTED_EDGE('',*,*,#211,.T.);
#270=ORIENTED_EDGE('',*,*,#212,.F.);
#271=ORIENTED_EDGE('',*,*,#213,.T.);
#272=ORIENTED_EDGE('',*,*,#208,.T.);
#273=ORIENTED_EDGE('',*,*,#214,.F.);
#274=ORIENTED_EDGE('',*,*,#215,.F.);
#275=ORIENTED_EDGE('',*,*,#216,.T.);
#276=ORIENTED_EDGE('',*,*,#209,.F.);
#277=ORIENTED_EDGE('',*,*,#213,.F.);
#278=ORIENTED_EDGE('',*,*,#217,.F.);
#279=ORIENTED_EDGE('',*,*,#218,.T.);
#280=ORIENTED_EDGE('',*,*,#219,.F.);
#281=ORIENTED_EDGE('',*,*,#220,.F.);
#282=ORIENTED_EDGE('',*,*,#212,.T.);
#283=ORIENTED_EDGE('',*,*,#210,.F.);
#284=ORIENTED_EDGE('',*,*,#216,.F.);
#285=ORIENTED_EDGE('',*,*,#221,.F.);
#286=ORIENTED_EDGE('',*,*,#222,.T.);
#287=ORIENTED_EDGE('',*,*,#207,.T.);
#288=ORIENTED_EDGE('',*,*,#223,.T.);
#289=ORIENTED_EDGE('',*,*,#224,.F.);
#290=ORIENTED_EDGE('',*,*,#218,.F.);
#291=ORIENTED_EDGE('',*,*,#225,.F.);
#292=ORIENTED_EDGE('',*,*,#204,.F.);
#293=ORIENTED_EDGE('',*,*,#226,.T.);
#294=ORIENTED_EDGE('',*,*,#227,.T.);
#295=ORIENTED_EDGE('',*,*,#228,.F.);
#296=ORIENTED_EDGE('',*,*,#229,.F.);
#297=ORIENTED_EDGE('',*,*,#230,.T.);
#298=ORIENTED_EDGE('',*,*,#231,.F.);
#299=ORIENTED_EDGE('',*,*,#232,.F.);
#300=ORIENTED_EDGE('',*,*,#227,.F.);
#301=ORIENTED_EDGE('',*,*,#233,.T.);
#302=ORIENTED_EDGE('',*,*,#229,.T.);
#303=ORIENTED_EDGE('',*,*,#234,.F.);
#304=ORIENTED_EDGE('',*,*,#235,.F.);
#305=ORIENTED_EDGE('',*,*,#236,.T.);
#306=ORIENTED_EDGE('',*,*,#235,.T.);
#307=ORIENTED_EDGE('',*,*,#237,.F.);
#308=ORIENTED_EDGE('',*,*,#231,.T.);
#309=ORIENTED_EDGE('',*,*,#197,.F.);
#310=ORIENTED_EDGE('',*,*,#238,.T.);
#311=ORIENTED_EDGE('',*,*,#239,.F.);
#312=ORIENTED_EDGE('',*,*,#238,.F.);
#313=ORIENTED_EDGE('',*,*,#214,.T.);
#314=ORIENTED_EDGE('',*,*,#220,.T.);
#315=ORIENTED_EDGE('',*,*,#240,.F.);
#316=ORIENTED_EDGE('',*,*,#241,.F.);
#317=ORIENTED_EDGE('',*,*,#242,.F.);
#318=ORIENTED_EDGE('',*,*,#241,.T.);
#319=ORIENTED_EDGE('',*,*,#243,.F.);
#320=ORIENTED_EDGE('',*,*,#244,.F.);
#321=ORIENTED_EDGE('',*,*,#245,.F.);
#322=ORIENTED_EDGE('',*,*,#244,.T.);
#323=ORIENTED_EDGE('',*,*,#246,.F.);
#324=ORIENTED_EDGE('',*,*,#223,.F.);
#325=ORIENTED_EDGE('',*,*,#222,.F.);
#326=ORIENTED_EDGE('',*,*,#247,.F.);
#327=ORIENTED_EDGE('',*,*,#246,.T.);
#328=ORIENTED_EDGE('',*,*,#243,.T.);
#329=ORIENTED_EDGE('',*,*,#240,.T.);
#330=ORIENTED_EDGE('',*,*,#219,.T.);
#331=ORIENTED_EDGE('',*,*,#224,.T.);
#332=ORIENTED_EDGE('',*,*,#198,.T.);
#333=ORIENTED_EDGE('',*,*,#237,.T.);
#334=ORIENTED_EDGE('',*,*,#234,.T.);
#335=ORIENTED_EDGE('',*,*,#228,.T.);
#336=ORIENTED_EDGE('',*,*,#232,.T.);
#337=ORIENTED_EDGE('',*,*,#236,.F.);
#338=ORIENTED_EDGE('',*,*,#230,.F.);
#339=ORIENTED_EDGE('',*,*,#226,.F.);
#340=ORIENTED_EDGE('',*,*,#233,.F.);
#341=ORIENTED_EDGE('',*,*,#247,.T.);
#342=ORIENTED_EDGE('',*,*,#221,.T.);
#343=ORIENTED_EDGE('',*,*,#215,.T.);
#344=ORIENTED_EDGE('',*,*,#242,.T.);
#345=ORIENTED_EDGE('',*,*,#245,.T.);
#346=ORIENTED_EDGE('',*,*,#239,.T.);
#347=ORIENTED_EDGE('',*,*,#205,.F.);
#348=ORIENTED_EDGE('',*,*,#225,.T.);
#349=ORIENTED_EDGE('',*,*,#217,.T.);
#350=ORIENTED_EDGE('',*,*,#211,.F.);
#351=ORIENTED_EDGE('',*,*,#201,.T.);
#352=PLANE('',#403);
#353=PLANE('',#408);
#354=PLANE('',#414);
#355=PLANE('',#418);
#356=PLANE('',#419);
#357=PLANE('',#420);
#358=PLANE('',#421);
#359=PLANE('',#425);
#360=PLANE('',#426);
#361=PLANE('',#432);
#362=PLANE('',#436);
#363=PLANE('',#437);
#364=PLANE('',#438);
#365=PLANE('',#439);
#366=PLANE('',#440);
#367=ADVANCED_FACE('',(#102,#98),#352,.F.);
#368=ADVANCED_FACE('',(#103),#91,.F.);
#369=ADVANCED_FACE('',(#104),#353,.T.);
#370=ADVANCED_FACE('',(#105),#92,.T.);
#371=ADVANCED_FACE('',(#106),#354,.T.);
#372=ADVANCED_FACE('',(#107),#93,.T.);
#373=ADVANCED_FACE('',(#108),#355,.T.);
#374=ADVANCED_FACE('',(#109),#356,.T.);
#375=ADVANCED_FACE('',(#110),#357,.T.);
#376=ADVANCED_FACE('',(#111),#358,.T.);
#377=ADVANCED_FACE('',(#112),#94,.F.);
#378=ADVANCED_FACE('',(#113),#359,.T.);
#379=ADVANCED_FACE('',(#114),#360,.T.);
#380=ADVANCED_FACE('',(#115),#95,.F.);
#381=ADVANCED_FACE('',(#116),#96,.F.);
#382=ADVANCED_FACE('',(#117),#361,.T.);
#383=ADVANCED_FACE('',(#118),#97,.T.);
#384=ADVANCED_FACE('',(#119),#362,.T.);
#385=ADVANCED_FACE('',(#120,#99,#100),#363,.T.);
#386=ADVANCED_FACE('',(#121),#364,.T.);
#387=ADVANCED_FACE('',(#122,#101),#365,.F.);
#388=ADVANCED_FACE('',(#123),#366,.T.);
#389=CLOSED_SHELL('',(#367,#368,#369,#370,#371,#372,#373,#374,#375,#376,
#377,#378,#379,#380,#381,#382,#383,#384,#385,#386,#387,#388));
#390=DERIVED_UNIT_ELEMENT(#392,1.);
#391=DERIVED_UNIT_ELEMENT(#669,-3.);
#392=(
MASS_UNIT()
NAMED_UNIT(*)
SI_UNIT(.KILO.,.GRAM.)
);
#393=DERIVED_UNIT((#390,#391));
#394=MEASURE_REPRESENTATION_ITEM('density measure',
POSITIVE_RATIO_MEASURE(7850.),#393);
#395=PROPERTY_DEFINITION_REPRESENTATION(#400,#397);
#396=PROPERTY_DEFINITION_REPRESENTATION(#401,#398);
#397=REPRESENTATION('material name',(#399),#666);
#398=REPRESENTATION('density',(#394),#666);
#399=DESCRIPTIVE_REPRESENTATION_ITEM('Acier','Acier');
#400=PROPERTY_DEFINITION('material property','material name',#676);
#401=PROPERTY_DEFINITION('material property','density of part',#676);
#402=AXIS2_PLACEMENT_3D('placement',#555,#441,#442);
#403=AXIS2_PLACEMENT_3D('',#556,#443,#444);
#404=AXIS2_PLACEMENT_3D('',#558,#445,#446);
#405=AXIS2_PLACEMENT_3D('',#560,#447,#448);
#406=AXIS2_PLACEMENT_3D('',#561,#449,#450);
#407=AXIS2_PLACEMENT_3D('',#563,#451,#452);
#408=AXIS2_PLACEMENT_3D('',#565,#454,#455);
#409=AXIS2_PLACEMENT_3D('',#568,#456,#457);
#410=AXIS2_PLACEMENT_3D('',#572,#459,#460);
#411=AXIS2_PLACEMENT_3D('',#574,#462,#463);
#412=AXIS2_PLACEMENT_3D('',#577,#464,#465);
#413=AXIS2_PLACEMENT_3D('',#581,#468,#469);
#414=AXIS2_PLACEMENT_3D('',#582,#470,#471);
#415=AXIS2_PLACEMENT_3D('',#588,#475,#476);
#416=AXIS2_PLACEMENT_3D('',#592,#478,#479);
#417=AXIS2_PLACEMENT_3D('',#593,#480,#481);
#418=AXIS2_PLACEMENT_3D('',#594,#482,#483);
#419=AXIS2_PLACEMENT_3D('',#600,#487,#488);
#420=AXIS2_PLACEMENT_3D('',#608,#493,#494);
#421=AXIS2_PLACEMENT_3D('',#612,#497,#498);
#422=AXIS2_PLACEMENT_3D('',#617,#502,#503);
#423=AXIS2_PLACEMENT_3D('',#620,#504,#505);
#424=AXIS2_PLACEMENT_3D('',#624,#507,#508);
#425=AXIS2_PLACEMENT_3D('',#626,#510,#511);
#426=AXIS2_PLACEMENT_3D('',#632,#515,#516);
#427=AXIS2_PLACEMENT_3D('',#638,#520,#521);
#428=AXIS2_PLACEMENT_3D('',#639,#522,#523);
#429=AXIS2_PLACEMENT_3D('',#640,#524,#525);
#430=AXIS2_PLACEMENT_3D('',#641,#526,#527);
#431=AXIS2_PLACEMENT_3D('',#644,#529,#530);
#432=AXIS2_PLACEMENT_3D('',#645,#531,#532);
#433=AXIS2_PLACEMENT_3D('',#651,#536,#537);
#434=AXIS2_PLACEMENT_3D('',#653,#538,#539);
#435=AXIS2_PLACEMENT_3D('',#656,#541,#542);
#436=AXIS2_PLACEMENT_3D('',#657,#543,#544);
#437=AXIS2_PLACEMENT_3D('',#660,#547,#548);
#438=AXIS2_PLACEMENT_3D('',#661,#549,#550);
#439=AXIS2_PLACEMENT_3D('',#662,#551,#552);
#440=AXIS2_PLACEMENT_3D('',#663,#553,#554);
#441=DIRECTION('axis',(0.,0.,1.));
#442=DIRECTION('refdir',(1.,0.,0.));
#443=DIRECTION('center_axis',(0.,0.,-1.));
#444=DIRECTION('ref_axis',(1.,0.,0.));
#445=DIRECTION('center_axis',(0.,0.,-1.));
#446=DIRECTION('ref_axis',(1.,0.,0.));
#447=DIRECTION('center_axis',(0.,0.,-1.));
#448=DIRECTION('ref_axis',(1.,0.,0.));
#449=DIRECTION('center_axis',(0.,0.,-1.));
#450=DIRECTION('ref_axis',(1.,0.,0.));
#451=DIRECTION('center_axis',(0.,0.,-1.));
#452=DIRECTION('ref_axis',(1.,0.,0.));
#453=DIRECTION('',(0.,0.,-1.));
#454=DIRECTION('center_axis',(1.,0.,0.));
#455=DIRECTION('ref_axis',(0.,1.,0.));
#456=DIRECTION('center_axis',(-1.,0.,0.));
#457=DIRECTION('ref_axis',(0.,0.707106781186547,0.707106781186548));
#458=DIRECTION('',(0.,1.,0.));
#459=DIRECTION('center_axis',(-1.,0.,0.));
#460=DIRECTION('ref_axis',(0.,-0.707106781186547,-0.707106781186548));
#461=DIRECTION('',(0.,-1.,0.));
#462=DIRECTION('center_axis',(-1.,0.,0.));
#463=DIRECTION('ref_axis',(0.,0.707106781186547,0.707106781186548));
#464=DIRECTION('center_axis',(-0.879706513576127,-0.475517034365474,0.));
#465=DIRECTION('ref_axis',(-0.475517034365474,0.879706513576127,3.00513977318443E-16));
#466=DIRECTION('',(1.,0.,0.));
#467=DIRECTION('',(-1.,0.,0.));
#468=DIRECTION('center_axis',(-0.879706513576127,-0.475517034365474,0.));
#469=DIRECTION('ref_axis',(-0.475517034365474,0.879706513576127,-3.00513977318443E-16));
#470=DIRECTION('center_axis',(0.,0.,-1.));
#471=DIRECTION('ref_axis',(-1.,0.,0.));
#472=DIRECTION('',(1.,0.,0.));
#473=DIRECTION('',(0.475517034365474,0.879706513576127,0.));
#474=DIRECTION('',(-0.475517034365474,0.879706513576127,0.));
#475=DIRECTION('center_axis',(1.,0.,0.));
#476=DIRECTION('ref_axis',(0.,-0.707106781186547,0.707106781186548));
#477=DIRECTION('',(-1.,0.,0.));
#478=DIRECTION('center_axis',(-0.879706513576127,0.475517034365474,0.));
#479=DIRECTION('ref_axis',(-0.475517034365474,-0.879706513576127,3.00513977318443E-16));
#480=DIRECTION('center_axis',(-0.879706513576127,0.475517034365474,0.));
#481=DIRECTION('ref_axis',(-0.475517034365474,-0.879706513576127,-3.00513977318443E-16));
#482=DIRECTION('center_axis',(0.879706513576127,-0.475517034365474,0.));
#483=DIRECTION('ref_axis',(0.475517034365474,0.879706513576127,0.));
#484=DIRECTION('',(0.,0.,1.));
#485=DIRECTION('',(-0.475517034365474,-0.879706513576127,0.));
#486=DIRECTION('',(0.,0.,1.));
#487=DIRECTION('center_axis',(0.879706513576127,-0.475517034365474,0.));
#488=DIRECTION('ref_axis',(0.475517034365474,0.879706513576127,0.));
#489=DIRECTION('',(-0.475517034365474,-0.879706513576127,0.));
#490=DIRECTION('',(0.,0.,1.));
#491=DIRECTION('',(0.475517034365474,0.879706513576127,0.));
#492=DIRECTION('',(0.,0.,1.));
#493=DIRECTION('center_axis',(0.879706513576127,0.475517034365474,0.));
#494=DIRECTION('ref_axis',(-0.475517034365474,0.879706513576127,0.));
#495=DIRECTION('',(0.475517034365474,-0.879706513576127,0.));
#496=DIRECTION('',(0.,0.,1.));
#497=DIRECTION('center_axis',(0.879706513576127,0.475517034365474,0.));
#498=DIRECTION('ref_axis',(-0.475517034365474,0.879706513576127,0.));
#499=DIRECTION('',(0.,0.,1.));
#500=DIRECTION('',(-0.475517034365474,0.879706513576127,0.));
#501=DIRECTION('',(0.475517034365474,-0.879706513576127,0.));
#502=DIRECTION('center_axis',(0.,0.,1.));
#503=DIRECTION('ref_axis',(0.,1.,0.));
#504=DIRECTION('center_axis',(0.,0.,-1.));
#505=DIRECTION('ref_axis',(0.,1.,0.));
#506=DIRECTION('',(0.,0.,1.));
#507=DIRECTION('center_axis',(0.,0.,-1.));
#508=DIRECTION('ref_axis',(0.,1.,0.));
#509=DIRECTION('',(0.,0.,1.));
#510=DIRECTION('center_axis',(-5.55111512312578E-17,-1.,0.));
#511=DIRECTION('ref_axis',(1.,-5.55111512312578E-17,0.));
#512=DIRECTION('',(1.,-5.55111512312578E-17,0.));
#513=DIRECTION('',(0.,0.,-1.));
#514=DIRECTION('',(1.,-5.55111512312578E-17,0.));
#515=DIRECTION('center_axis',(-5.55111495768967E-17,1.,0.));
#516=DIRECTION('ref_axis',(-1.,-5.55111495768967E-17,0.));
#517=DIRECTION('',(-1.,-5.55111495768967E-17,0.));
#518=DIRECTION('',(-1.,-5.55111495768967E-17,0.));
#519=DIRECTION('',(0.,0.,1.));
#520=DIRECTION('center_axis',(0.,0.,1.));
#521=DIRECTION('ref_axis',(8.5149492536272E-8,-0.999999999999996,0.));
#522=DIRECTION('center_axis',(0.,0.,-1.));
#523=DIRECTION('ref_axis',(8.5149492536272E-8,-0.999999999999996,0.));
#524=DIRECTION('center_axis',(0.,0.,-1.));
#525=DIRECTION('ref_axis',(8.5149492536272E-8,-0.999999999999996,0.));
#526=DIRECTION('center_axis',(0.,0.,1.));
#527=DIRECTION('ref_axis',(1.,0.,0.));
#528=DIRECTION('',(0.,0.,-1.));
#529=DIRECTION('center_axis',(0.,0.,1.));
#530=DIRECTION('ref_axis',(1.,0.,0.));
#531=DIRECTION('center_axis',(-0.18202112242391,-0.983294620646091,0.));
#532=DIRECTION('ref_axis',(0.983294620646091,-0.18202112242391,0.));
#533=DIRECTION('',(0.983294620646091,-0.18202112242391,0.));
#534=DIRECTION('',(0.,0.,1.));
#535=DIRECTION('',(-0.983294620646091,0.18202112242391,0.));
#536=DIRECTION('center_axis',(0.,0.,1.));
#537=DIRECTION('ref_axis',(-0.18202112242391,0.983294620646091,0.));
#538=DIRECTION('center_axis',(0.,0.,1.));
#539=DIRECTION('ref_axis',(-0.18202112242391,0.983294620646091,0.));
#540=DIRECTION('',(0.,0.,1.));
#541=DIRECTION('center_axis',(0.,0.,-1.));
#542=DIRECTION('ref_axis',(-0.18202112242391,0.983294620646091,0.));
#543=DIRECTION('center_axis',(-0.18202112242391,0.983294620646091,0.));
#544=DIRECTION('ref_axis',(-0.983294620646091,-0.18202112242391,0.));
#545=DIRECTION('',(-0.983294620646091,-0.18202112242391,0.));
#546=DIRECTION('',(0.983294620646091,0.18202112242391,0.));
#547=DIRECTION('center_axis',(0.,0.,1.));
#548=DIRECTION('ref_axis',(1.,0.,0.));
#549=DIRECTION('center_axis',(0.,0.,1.));
#550=DIRECTION('ref_axis',(1.,0.,0.));
#551=DIRECTION('center_axis',(0.,0.,1.));
#552=DIRECTION('ref_axis',(1.,0.,0.));
#553=DIRECTION('center_axis',(0.,0.,1.));
#554=DIRECTION('ref_axis',(1.,0.,0.));
#555=CARTESIAN_POINT('',(0.,0.,0.));
#556=CARTESIAN_POINT('Origin',(0.,0.,-2.5));
#557=CARTESIAN_POINT('',(-6.75,8.26636589424463E-16,-2.5));
#558=CARTESIAN_POINT('Origin',(0.,0.,-2.5));
#559=CARTESIAN_POINT('',(-4.25,5.20474889637625E-16,-2.5));
#560=CARTESIAN_POINT('Origin',(0.,0.,-2.5));
#561=CARTESIAN_POINT('Origin',(0.,0.,2.5));
#562=CARTESIAN_POINT('',(-6.75,8.26636589424463E-16,7.5));
#563=CARTESIAN_POINT('Origin',(0.,0.,7.5));
#564=CARTESIAN_POINT('',(-6.75,8.26636589424463E-16,2.5));
#565=CARTESIAN_POINT('Origin',(69.9999998509884,-18.5,0.));
#566=CARTESIAN_POINT('',(69.9999998509884,12.,6.5));
#567=CARTESIAN_POINT('',(69.9999998509884,12.,-6.5));
#568=CARTESIAN_POINT('Origin',(69.9999998509884,12.,0.));
#569=CARTESIAN_POINT('',(69.9999998509884,-12.,6.5));
#570=CARTESIAN_POINT('',(69.9999998509884,-18.5,6.5));
#571=CARTESIAN_POINT('',(69.9999998509884,-12.,-6.5));
#572=CARTESIAN_POINT('Origin',(69.9999998509884,-12.,0.));
#573=CARTESIAN_POINT('',(69.9999998509884,-18.5,-6.5));
#574=CARTESIAN_POINT('Origin',(63.7499998509884,12.,0.));
#575=CARTESIAN_POINT('',(44.9999998509884,18.5,0.));
#576=CARTESIAN_POINT('',(48.5135133645019,12.,6.5));
#577=CARTESIAN_POINT('Origin',(48.5135133645019,12.,0.));
#578=CARTESIAN_POINT('',(63.7499998509884,12.,6.5));
#579=CARTESIAN_POINT('',(48.5135133645019,12.,-6.5));
#580=CARTESIAN_POINT('',(63.7499998509884,12.,-6.5));
#581=CARTESIAN_POINT('Origin',(48.5135133645019,12.,0.));
#582=CARTESIAN_POINT('Origin',(57.4999998509884,0.,-6.5));
#583=CARTESIAN_POINT('',(48.5135133645019,-12.,-6.5));
#584=CARTESIAN_POINT('',(51.2499998509884,-12.,-6.5));
#585=CARTESIAN_POINT('',(54.9999998509884,0.,-6.5));
#586=CARTESIAN_POINT('',(44.9999998509884,-18.5,-6.5));
#587=CARTESIAN_POINT('',(44.9999998509884,18.5,-6.5));
#588=CARTESIAN_POINT('Origin',(51.2499998509884,-12.,0.));
#589=CARTESIAN_POINT('',(48.5135133645019,-12.,6.5));
#590=CARTESIAN_POINT('',(51.2499998509884,-12.,6.5));
#591=CARTESIAN_POINT('',(44.9999998509884,-18.5,0.));
#592=CARTESIAN_POINT('Origin',(48.5135133645019,-12.,0.));
#593=CARTESIAN_POINT('Origin',(48.5135133645019,-12.,0.));
#594=CARTESIAN_POINT('Origin',(44.9999998509884,-18.5,0.));
#595=CARTESIAN_POINT('',(44.9999998509884,-18.5,-7.5));
#596=CARTESIAN_POINT('',(44.9999998509884,-18.5,0.));
#597=CARTESIAN_POINT('',(54.9999998509884,0.,-7.5));
#598=CARTESIAN_POINT('',(44.9999998509884,-18.5,-7.5));
#599=CARTESIAN_POINT('',(54.9999998509884,0.,0.));
#600=CARTESIAN_POINT('Origin',(44.9999998509884,-18.5,0.));
#601=CARTESIAN_POINT('',(54.9999998509884,0.,6.5));
#602=CARTESIAN_POINT('',(44.9999998509884,-18.5,6.5));
#603=CARTESIAN_POINT('',(54.9999998509884,0.,7.5));
#604=CARTESIAN_POINT('',(54.9999998509884,0.,0.));
#605=CARTESIAN_POINT('',(44.9999998509884,-18.5,7.5));
#606=CARTESIAN_POINT('',(44.9999998509884,-18.5,7.5));
#607=CARTESIAN_POINT('',(44.9999998509884,-18.5,0.));
#608=CARTESIAN_POINT('Origin',(54.9999998509884,0.,0.));
#609=CARTESIAN_POINT('',(44.9999998509884,18.5,-7.5));
#610=CARTESIAN_POINT('',(44.9999998509884,18.5,-7.5));
#611=CARTESIAN_POINT('',(44.9999998509884,18.5,0.));
#612=CARTESIAN_POINT('Origin',(54.9999998509884,0.,0.));
#613=CARTESIAN_POINT('',(44.9999998509884,18.5,7.5));
#614=CARTESIAN_POINT('',(44.9999998509884,18.5,0.));
#615=CARTESIAN_POINT('',(44.9999998509884,18.5,7.5));
#616=CARTESIAN_POINT('',(44.9999998509884,18.5,6.5));
#617=CARTESIAN_POINT('Origin',(20.,0.,0.));
#618=CARTESIAN_POINT('',(20.,-7.,-2.5));
#619=CARTESIAN_POINT('',(20.,7.,-2.5));
#620=CARTESIAN_POINT('Origin',(20.,0.,-2.5));
#621=CARTESIAN_POINT('',(20.,7.,7.5));
#622=CARTESIAN_POINT('',(20.,7.,0.));
#623=CARTESIAN_POINT('',(20.,-7.,7.5));
#624=CARTESIAN_POINT('Origin',(20.,0.,7.5));
#625=CARTESIAN_POINT('',(20.,-7.,0.));
#626=CARTESIAN_POINT('Origin',(20.,7.,0.));
#627=CARTESIAN_POINT('',(40.0000000031581,7.00000000000003,-2.5));
#628=CARTESIAN_POINT('',(25.,7.,-2.5));
#629=CARTESIAN_POINT('',(40.0000000031581,7.00000000000002,7.5));
#630=CARTESIAN_POINT('',(40.0000000031581,7.00000000000002,0.));
#631=CARTESIAN_POINT('',(40.,7.,7.5));
#632=CARTESIAN_POINT('Origin',(40.0000005960464,-7.,0.));
#633=CARTESIAN_POINT('',(40.0000005960464,-7.,-2.5));
#634=CARTESIAN_POINT('',(35.0000002980232,-7.,-2.5));
#635=CARTESIAN_POINT('',(40.0000005960464,-7.,7.5));
#636=CARTESIAN_POINT('',(20.,-7.,7.5));
#637=CARTESIAN_POINT('',(40.0000005960464,-7.,0.));
#638=CARTESIAN_POINT('Origin',(40.,0.,0.));
#639=CARTESIAN_POINT('Origin',(40.,0.,-2.5));
#640=CARTESIAN_POINT('Origin',(40.,0.,7.5));
#641=CARTESIAN_POINT('Origin',(0.,0.,0.));
#642=CARTESIAN_POINT('',(-4.25,-5.20474889637625E-16,-7.5));
#643=CARTESIAN_POINT('',(-4.25,-5.20474889637625E-16,0.));
#644=CARTESIAN_POINT('Origin',(0.,0.,-7.5));
#645=CARTESIAN_POINT('Origin',(-1.8202112242391,-9.83294620646091,0.));
#646=CARTESIAN_POINT('',(-1.8202112242391,-9.83294620646091,7.5));
#647=CARTESIAN_POINT('',(44.9999998509884,-18.5,7.5));
#648=CARTESIAN_POINT('',(-1.8202112242391,-9.83294620646091,-7.5));
#649=CARTESIAN_POINT('',(-1.8202112242391,-9.83294620646091,0.));
#650=CARTESIAN_POINT('',(44.9999998509884,-18.5,-7.5));
#651=CARTESIAN_POINT('Origin',(0.,0.,0.));
#652=CARTESIAN_POINT('',(-1.8202112242391,9.83294620646091,7.5));
#653=CARTESIAN_POINT('Origin',(0.,0.,7.5));
#654=CARTESIAN_POINT('',(-1.8202112242391,9.83294620646091,-7.5));
#655=CARTESIAN_POINT('',(-1.8202112242391,9.83294620646091,0.));
#656=CARTESIAN_POINT('Origin',(0.,0.,-7.5));
#657=CARTESIAN_POINT('Origin',(44.9999998509884,18.5,0.));
#658=CARTESIAN_POINT('',(44.9999998509884,18.5,7.5));
#659=CARTESIAN_POINT('',(44.9999998509884,18.5,-7.5));
#660=CARTESIAN_POINT('Origin',(22.4999999254942,0.,7.5));
#661=CARTESIAN_POINT('Origin',(30.,1.22124532708767E-14,-2.5));
#662=CARTESIAN_POINT('Origin',(30.,1.22124532708767E-14,-7.5));
#663=CARTESIAN_POINT('Origin',(57.4999998509884,0.,6.5));
#664=UNCERTAINTY_MEASURE_WITH_UNIT(LENGTH_MEASURE(0.01),#668,
'DISTANCE_ACCURACY_VALUE',
'Maximum model space distance between geometric entities at asserted c
onnectivities');
#665=UNCERTAINTY_MEASURE_WITH_UNIT(LENGTH_MEASURE(0.01),#668,
'DISTANCE_ACCURACY_VALUE',
'Maximum model space distance between geometric entities at asserted c
onnectivities');
#666=(
GEOMETRIC_REPRESENTATION_CONTEXT(3)
GLOBAL_UNCERTAINTY_ASSIGNED_CONTEXT((#664))
GLOBAL_UNIT_ASSIGNED_CONTEXT((#668,#670,#671))
REPRESENTATION_CONTEXT('','3D')
);
#667=(
GEOMETRIC_REPRESENTATION_CONTEXT(3)
GLOBAL_UNCERTAINTY_ASSIGNED_CONTEXT((#665))
GLOBAL_UNIT_ASSIGNED_CONTEXT((#668,#670,#671))
REPRESENTATION_CONTEXT('','3D')
);
#668=(
LENGTH_UNIT()
NAMED_UNIT(*)
SI_UNIT(.MILLI.,.METRE.)
);
#669=(
LENGTH_UNIT()
NAMED_UNIT(*)
SI_UNIT($,.METRE.)
);
#670=(
NAMED_UNIT(*)
PLANE_ANGLE_UNIT()
SI_UNIT($,.RADIAN.)
);
#671=(
NAMED_UNIT(*)
SI_UNIT($,.STERADIAN.)
SOLID_ANGLE_UNIT()
);
#672=SHAPE_DEFINITION_REPRESENTATION(#673,#674);
#673=PRODUCT_DEFINITION_SHAPE('',$,#676);
#674=SHAPE_REPRESENTATION('',(#402),#666);
#675=PRODUCT_DEFINITION_CONTEXT('part definition',#680,'design');
#676=PRODUCT_DEFINITION('Barigo CM1 - Patte boucle AR',
'Barigo CM1 - Patte boucle AR v4',#677,#675);
#677=PRODUCT_DEFINITION_FORMATION('',$,#682);
#678=PRODUCT_RELATED_PRODUCT_CATEGORY('Barigo CM1 - Patte boucle AR v4',
'Barigo CM1 - Patte boucle AR v4',(#682));
#679=APPLICATION_PROTOCOL_DEFINITION('international standard',
'automotive_design',2009,#680);
#680=APPLICATION_CONTEXT(
'Core Data for Automotive Mechanical Design Process');
#681=PRODUCT_CONTEXT('part definition',#680,'mechanical');
#682=PRODUCT('Barigo CM1 - Patte boucle AR',
'Barigo CM1 - Patte boucle AR v4',$,(#681));
#683=PRESENTATION_STYLE_ASSIGNMENT((#684));
#684=SURFACE_STYLE_USAGE(.BOTH.,#685);
#685=SURFACE_SIDE_STYLE('',(#686));
#686=SURFACE_STYLE_FILL_AREA(#687);
#687=FILL_AREA_STYLE('Acier - Satin\X\E9',(#688));
#688=FILL_AREA_STYLE_COLOUR('Acier - Satin\X\E9',#689);
#689=COLOUR_RGB('Acier - Satin\X\E9',0.627450980392157,0.627450980392157,
0.627450980392157);
ENDSEC;
END-ISO-10303-21;
