ISO-10303-21;
HEADER;
/* Generated by software containing ST-Developer
 * from STEP Tools, Inc. (www.steptools.com) 
 */
/* OPTION: using custom renumber hook */

FILE_DESCRIPTION(
/* description */ ('STEP AP214'),
/* implementation_level */ '2;1');

FILE_NAME(
/* name */ '603548adecaad51544d11a76',
/* time_stamp */ '2021-02-23T18:25:50+00:00',
/* author */ (''),
/* organization */ (''),
/* preprocessor_version */ 'ST-DEVELOPER v18.1',
/* originating_system */ '  ',
/* authorisation */ '  ');

FILE_SCHEMA (('AUTOMOTIVE_DESIGN {1 0 10303 214 3 1 1}'));
ENDSEC;

DATA;
#10=PROPERTY_DEFINITION_REPRESENTATION(#14,#12);
#11=PROPERTY_DEFINITION_REPRESENTATION(#15,#13);
#12=REPRESENTATION('',(#16),#177);
#13=REPRESENTATION('',(#17),#177);
#14=PROPERTY_DEFINITION('pmi validation property','',#182);
#15=PROPERTY_DEFINITION('pmi validation property','',#182);
#16=VALUE_REPRESENTATION_ITEM('number of annotations',COUNT_MEASURE(0.));
#17=VALUE_REPRESENTATION_ITEM('number of views',COUNT_MEASURE(0.));
#18=SHAPE_REPRESENTATION_RELATIONSHIP('','',#108,#19);
#19=ADVANCED_BREP_SHAPE_REPRESENTATION('',(#106),#177);
#20=CONICAL_SURFACE('',#123,0.01555,0.785398163397448);
#21=CYLINDRICAL_SURFACE('',#113,0.01655);
#22=CYLINDRICAL_SURFACE('',#118,0.02);
#23=CYLINDRICAL_SURFACE('',#122,0.007);
#24=ORIENTED_EDGE('',*,*,#38,.T.);
#25=ORIENTED_EDGE('',*,*,#39,.F.);
#26=ORIENTED_EDGE('',*,*,#40,.T.);
#27=ORIENTED_EDGE('',*,*,#41,.T.);
#28=ORIENTED_EDGE('',*,*,#42,.T.);
#29=ORIENTED_EDGE('',*,*,#41,.F.);
#30=ORIENTED_EDGE('',*,*,#43,.T.);
#31=ORIENTED_EDGE('',*,*,#42,.F.);
#32=ORIENTED_EDGE('',*,*,#44,.F.);
#33=ORIENTED_EDGE('',*,*,#43,.F.);
#34=ORIENTED_EDGE('',*,*,#39,.T.);
#35=ORIENTED_EDGE('',*,*,#44,.T.);
#36=ORIENTED_EDGE('',*,*,#40,.F.);
#37=ORIENTED_EDGE('',*,*,#38,.F.);
#38=EDGE_CURVE('',#45,#45,#52,.T.);
#39=EDGE_CURVE('',#46,#46,#53,.T.);
#40=EDGE_CURVE('',#47,#47,#54,.F.);
#41=EDGE_CURVE('',#48,#48,#55,.T.);
#42=EDGE_CURVE('',#49,#49,#56,.T.);
#43=EDGE_CURVE('',#50,#50,#57,.T.);
#44=EDGE_CURVE('',#51,#51,#58,.T.);
#45=VERTEX_POINT('',#157);
#46=VERTEX_POINT('',#159);
#47=VERTEX_POINT('',#162);
#48=VERTEX_POINT('',#164);
#49=VERTEX_POINT('',#167);
#50=VERTEX_POINT('',#170);
#51=VERTEX_POINT('',#173);
#52=CIRCLE('',#111,0.01555);
#53=CIRCLE('',#112,0.007);
#54=CIRCLE('',#114,0.01655);
#55=CIRCLE('',#115,0.01655);
#56=CIRCLE('',#117,0.02);
#57=CIRCLE('',#119,0.02);
#58=CIRCLE('',#121,0.007);
#59=EDGE_LOOP('',(#24));
#60=EDGE_LOOP('',(#25));
#61=EDGE_LOOP('',(#26));
#62=EDGE_LOOP('',(#27));
#63=EDGE_LOOP('',(#28));
#64=EDGE_LOOP('',(#29));
#65=EDGE_LOOP('',(#30));
#66=EDGE_LOOP('',(#31));
#67=EDGE_LOOP('',(#32));
#68=EDGE_LOOP('',(#33));
#69=EDGE_LOOP('',(#34));
#70=EDGE_LOOP('',(#35));
#71=EDGE_LOOP('',(#36));
#72=EDGE_LOOP('',(#37));
#73=FACE_BOUND('',#59,.T.);
#74=FACE_BOUND('',#60,.T.);
#75=FACE_BOUND('',#61,.T.);
#76=FACE_BOUND('',#62,.T.);
#77=FACE_BOUND('',#63,.T.);
#78=FACE_BOUND('',#64,.T.);
#79=FACE_BOUND('',#65,.T.);
#80=FACE_BOUND('',#66,.T.);
#81=FACE_BOUND('',#67,.T.);
#82=FACE_BOUND('',#68,.T.);
#83=FACE_BOUND('',#69,.T.);
#84=FACE_BOUND('',#70,.T.);
#85=FACE_BOUND('',#71,.T.);
#86=FACE_BOUND('',#72,.T.);
#87=PLANE('',#110);
#88=PLANE('',#116);
#89=PLANE('',#120);
#90=ADVANCED_FACE('',(#73,#74),#87,.T.);
#91=ADVANCED_FACE('',(#75,#76),#21,.T.);
#92=ADVANCED_FACE('',(#77,#78),#88,.T.);
#93=ADVANCED_FACE('',(#79,#80),#22,.T.);
#94=ADVANCED_FACE('',(#81,#82),#89,.T.);
#95=ADVANCED_FACE('',(#83,#84),#23,.F.);
#96=ADVANCED_FACE('',(#85,#86),#20,.T.);
#97=CLOSED_SHELL('',(#90,#91,#92,#93,#94,#95,#96));
#98=STYLED_ITEM('',(#99),#106);
#99=PRESENTATION_STYLE_ASSIGNMENT((#100));
#100=SURFACE_STYLE_USAGE(.BOTH.,#101);
#101=SURFACE_SIDE_STYLE('',(#102));
#102=SURFACE_STYLE_FILL_AREA(#103);
#103=FILL_AREA_STYLE('',(#104));
#104=FILL_AREA_STYLE_COLOUR('',#105);
#105=COLOUR_RGB('',0.647058823529412,0.647058823529412,0.647058823529412);
#106=MANIFOLD_SOLID_BREP('BB_cone_S',#97);
#107=SHAPE_DEFINITION_REPRESENTATION(#182,#108);
#108=SHAPE_REPRESENTATION('BB_cone_S',(#109),#177);
#109=AXIS2_PLACEMENT_3D('',#154,#124,#125);
#110=AXIS2_PLACEMENT_3D('',#155,#126,#127);
#111=AXIS2_PLACEMENT_3D('',#156,#128,#129);
#112=AXIS2_PLACEMENT_3D('',#158,#130,#131);
#113=AXIS2_PLACEMENT_3D('',#160,#132,#133);
#114=AXIS2_PLACEMENT_3D('',#161,#134,#135);
#115=AXIS2_PLACEMENT_3D('',#163,#136,#137);
#116=AXIS2_PLACEMENT_3D('',#165,#138,#139);
#117=AXIS2_PLACEMENT_3D('',#166,#140,#141);
#118=AXIS2_PLACEMENT_3D('',#168,#142,#143);
#119=AXIS2_PLACEMENT_3D('',#169,#144,#145);
#120=AXIS2_PLACEMENT_3D('',#171,#146,#147);
#121=AXIS2_PLACEMENT_3D('',#172,#148,#149);
#122=AXIS2_PLACEMENT_3D('',#174,#150,#151);
#123=AXIS2_PLACEMENT_3D('',#175,#152,#153);
#124=DIRECTION('',(0.,0.,1.));
#125=DIRECTION('',(1.,0.,0.));
#126=DIRECTION('',(0.,0.,-1.));
#127=DIRECTION('',(-1.,0.,0.));
#128=DIRECTION('',(0.,0.,-1.));
#129=DIRECTION('',(-1.,0.,0.));
#130=DIRECTION('',(0.,0.,-1.));
#131=DIRECTION('',(-1.,0.,0.));
#132=DIRECTION('',(0.,0.,-1.));
#133=DIRECTION('',(-1.,0.,0.));
#134=DIRECTION('',(0.,0.,-1.));
#135=DIRECTION('',(-1.,0.,0.));
#136=DIRECTION('',(0.,0.,-1.));
#137=DIRECTION('',(-1.,0.,0.));
#138=DIRECTION('',(0.,0.,-1.));
#139=DIRECTION('',(-1.,0.,0.));
#140=DIRECTION('',(0.,0.,-1.));
#141=DIRECTION('',(-1.,0.,0.));
#142=DIRECTION('',(0.,0.,-1.));
#143=DIRECTION('',(-1.,0.,0.));
#144=DIRECTION('',(0.,0.,-1.));
#145=DIRECTION('',(-1.,0.,0.));
#146=DIRECTION('',(0.,0.,1.));
#147=DIRECTION('',(1.,0.,0.));
#148=DIRECTION('',(0.,0.,1.));
#149=DIRECTION('',(1.,0.,0.));
#150=DIRECTION('',(0.,0.,1.));
#151=DIRECTION('',(1.,0.,0.));
#152=DIRECTION('',(0.,0.,1.));
#153=DIRECTION('',(1.,0.,0.));
#154=CARTESIAN_POINT('',(0.,0.,0.));
#155=CARTESIAN_POINT('',(0.008275,0.,0.02425));
#156=CARTESIAN_POINT('',(0.,0.,0.02425));
#157=CARTESIAN_POINT('',(-0.01555,0.,0.02425));
#158=CARTESIAN_POINT('',(-2.4980018054066E-16,0.,0.02425));
#159=CARTESIAN_POINT('',(-0.00700000000000025,0.,0.02425));
#160=CARTESIAN_POINT('',(0.,0.,-0.072125));
#161=CARTESIAN_POINT('',(0.,0.,0.02525));
#162=CARTESIAN_POINT('',(-0.01655,0.,0.02525));
#163=CARTESIAN_POINT('',(0.,0.,0.03425));
#164=CARTESIAN_POINT('',(-0.01655,0.,0.03425));
#165=CARTESIAN_POINT('',(0.018275,0.,0.03425));
#166=CARTESIAN_POINT('',(0.,0.,0.03425));
#167=CARTESIAN_POINT('',(-0.02,0.,0.03425));
#168=CARTESIAN_POINT('',(0.,0.,-0.072125));
#169=CARTESIAN_POINT('',(0.,0.,0.04425));
#170=CARTESIAN_POINT('',(-0.02,0.,0.04425));
#171=CARTESIAN_POINT('',(0.01,0.,0.04425));
#172=CARTESIAN_POINT('',(-2.4980018054066E-16,0.,0.04425));
#173=CARTESIAN_POINT('',(0.00699999999999975,0.,0.04425));
#174=CARTESIAN_POINT('',(-2.4980018054066E-16,0.,-0.062875));
#175=CARTESIAN_POINT('',(0.,0.,0.02425));
#176=MECHANICAL_DESIGN_GEOMETRIC_PRESENTATION_REPRESENTATION('',(#98),#177);
#177=(
GEOMETRIC_REPRESENTATION_CONTEXT(3)
GLOBAL_UNCERTAINTY_ASSIGNED_CONTEXT((#178))
GLOBAL_UNIT_ASSIGNED_CONTEXT((#181,#180,#179))
REPRESENTATION_CONTEXT('BB_cone_S','TOP_LEVEL_ASSEMBLY_PART')
);
#178=UNCERTAINTY_MEASURE_WITH_UNIT(LENGTH_MEASURE(5.E-6),#181,
'DISTANCE_ACCURACY_VALUE','Maximum Tolerance applied to model');
#179=(
NAMED_UNIT(*)
SI_UNIT($,.STERADIAN.)
SOLID_ANGLE_UNIT()
);
#180=(
NAMED_UNIT(*)
PLANE_ANGLE_UNIT()
SI_UNIT($,.RADIAN.)
);
#181=(
LENGTH_UNIT()
NAMED_UNIT(*)
SI_UNIT($,.METRE.)
);
#182=PRODUCT_DEFINITION_SHAPE('','',#183);
#183=PRODUCT_DEFINITION('','',#185,#184);
#184=PRODUCT_DEFINITION_CONTEXT('',#191,'design');
#185=PRODUCT_DEFINITION_FORMATION_WITH_SPECIFIED_SOURCE('','',#187,
 .NOT_KNOWN.);
#186=PRODUCT_RELATED_PRODUCT_CATEGORY('','',(#187));
#187=PRODUCT('BB_cone_S','BB_cone_S','BB_cone_S',(#189));
#188=PRODUCT_CATEGORY('','');
#189=PRODUCT_CONTEXT('',#191,'mechanical');
#190=APPLICATION_PROTOCOL_DEFINITION('international standard',
'automotive_design',2010,#191);
#191=APPLICATION_CONTEXT(
'core data for automotive mechanical design processes');
ENDSEC;
END-ISO-10303-21;
